  0
SECTION
  2
HEADER
  9
$ACADVER
  1
AC1027
  9
$ACADMAINTVER
 70
   125
  9
$DWGCODEPAGE
  3
ANSI_1252
  9
$LASTSAVEDBY
  1
P04857991
  9
$REQUIREDVERSIONS
160
                 0
  9
$INSBASE
 10
0.0
 20
0.0
 30
0.0
  9
$EXTMIN
 10
6369.303100000135
 20
334939.3336999994
 30
0.0
  9
$EXTMAX
 10
6967.185899999924
 20
335216.5308999996
 30
0.0
  9
$LIMMIN
 10
0.0
 20
0.0
  9
$LIMMAX
 10
12.0
 20
9.0
  9
$ORTHOMODE
 70
     0
  9
$REGENMODE
 70
     1
  9
$FILLMODE
 70
     1
  9
$QTEXTMODE
 70
     0
  9
$MIRRTEXT
 70
     0
  9
$LTSCALE
 40
1.0
  9
$ATTMODE
 70
     1
  9
$TEXTSIZE
 40
0.2
  9
$TRACEWID
 40
0.05
  9
$TEXTSTYLE
  7
Legend
  9
$CLAYER
  8
0
  9
$CELTYPE
  6
ByLayer
  9
$CECOLOR
 62
   256
  9
$CELTSCALE
 40
1.0
  9
$DISPSILH
 70
     0
  9
$DIMSCALE
 40
1.0
  9
$DIMASZ
 40
0.18
  9
$DIMEXO
 40
0.0625
  9
$DIMDLI
 40
0.38
  9
$DIMRND
 40
0.0
  9
$DIMDLE
 40
0.0
  9
$DIMEXE
 40
0.18
  9
$DIMTP
 40
0.0
  9
$DIMTM
 40
0.0
  9
$DIMTXT
 40
0.18
  9
$DIMCEN
 40
0.09
  9
$DIMTSZ
 40
0.0
  9
$DIMTOL
 70
     0
  9
$DIMLIM
 70
     0
  9
$DIMTIH
 70
     1
  9
$DIMTOH
 70
     1
  9
$DIMSE1
 70
     0
  9
$DIMSE2
 70
     0
  9
$DIMTAD
 70
     0
  9
$DIMZIN
 70
     0
  9
$DIMBLK
  1

  9
$DIMASO
 70
     1
  9
$DIMSHO
 70
     1
  9
$DIMPOST
  1

  9
$DIMAPOST
  1

  9
$DIMALT
 70
     0
  9
$DIMALTD
 70
     2
  9
$DIMALTF
 40
25.4
  9
$DIMLFAC
 40
1.0
  9
$DIMTOFL
 70
     0
  9
$DIMTVP
 40
0.0
  9
$DIMTIX
 70
     0
  9
$DIMSOXD
 70
     0
  9
$DIMSAH
 70
     0
  9
$DIMBLK1
  1

  9
$DIMBLK2
  1

  9
$DIMSTYLE
  2
Standard
  9
$DIMCLRD
 70
     0
  9
$DIMCLRE
 70
     0
  9
$DIMCLRT
 70
     0
  9
$DIMTFAC
 40
1.0
  9
$DIMGAP
 40
0.09
  9
$DIMJUST
 70
     0
  9
$DIMSD1
 70
     0
  9
$DIMSD2
 70
     0
  9
$DIMTOLJ
 70
     1
  9
$DIMTZIN
 70
     0
  9
$DIMALTZ
 70
     0
  9
$DIMALTTZ
 70
     0
  9
$DIMUPT
 70
     0
  9
$DIMDEC
 70
     4
  9
$DIMTDEC
 70
     4
  9
$DIMALTU
 70
     2
  9
$DIMALTTD
 70
     2
  9
$DIMTXSTY
  7
Standard
  9
$DIMAUNIT
 70
     0
  9
$DIMADEC
 70
     0
  9
$DIMALTRND
 40
0.0
  9
$DIMAZIN
 70
     0
  9
$DIMDSEP
 70
    46
  9
$DIMATFIT
 70
     3
  9
$DIMFRAC
 70
     0
  9
$DIMLDRBLK
  1

  9
$DIMLUNIT
 70
     2
  9
$DIMLWD
 70
    -2
  9
$DIMLWE
 70
    -2
  9
$DIMTMOVE
 70
     0
  9
$DIMFXL
 40
1.0
  9
$DIMFXLON
 70
     0
  9
$DIMJOGANG
 40
0.7853981633974483
  9
$DIMTFILL
 70
     0
  9
$DIMTFILLCLR
 70
     0
  9
$DIMARCSYM
 70
     0
  9
$DIMLTYPE
  6

  9
$DIMLTEX1
  6

  9
$DIMLTEX2
  6

  9
$DIMTXTDIRECTION
 70
     0
  9
$LUNITS
 70
     2
  9
$LUPREC
 70
     4
  9
$SKETCHINC
 40
0.1
  9
$FILLETRAD
 40
0.0
  9
$AUNITS
 70
     0
  9
$AUPREC
 70
     0
  9
$MENU
  1
.
  9
$ELEVATION
 40
0.0
  9
$PELEVATION
 40
0.0
  9
$THICKNESS
 40
0.0
  9
$LIMCHECK
 70
     0
  9
$CHAMFERA
 40
0.0
  9
$CHAMFERB
 40
0.0
  9
$CHAMFERC
 40
0.0
  9
$CHAMFERD
 40
0.0
  9
$SKPOLY
 70
     0
  9
$TDCREATE
 40
2459389.492465278
  9
$TDUCREATE
 40
2459389.409131945
  9
$TDUPDATE
 40
2459394.543379630
  9
$TDUUPDATE
 40
2459394.460046297
  9
$TDINDWG
 40
0.9343634259
  9
$TDUSRTIMER
 40
0.9343402778
  9
$USRTIMER
 70
     1
  9
$ANGBASE
 50
0.0
  9
$ANGDIR
 70
     0
  9
$PDMODE
 70
     0
  9
$PDSIZE
 40
0.0
  9
$PLINEWID
 40
0.0
  9
$SPLFRAME
 70
     0
  9
$SPLINETYPE
 70
     6
  9
$SPLINESEGS
 70
     8
  9
$HANDSEED
  5
E76
  9
$SURFTAB1
 70
     6
  9
$SURFTAB2
 70
     6
  9
$SURFTYPE
 70
     6
  9
$SURFU
 70
     6
  9
$SURFV
 70
     6
  9
$UCSBASE
  2

  9
$UCSNAME
  2

  9
$UCSORG
 10
0.0
 20
0.0
 30
0.0
  9
$UCSXDIR
 10
1.0
 20
0.0
 30
0.0
  9
$UCSYDIR
 10
0.0
 20
1.0
 30
0.0
  9
$UCSORTHOREF
  2

  9
$UCSORTHOVIEW
 70
     0
  9
$UCSORGTOP
 10
0.0
 20
0.0
 30
0.0
  9
$UCSORGBOTTOM
 10
0.0
 20
0.0
 30
0.0
  9
$UCSORGLEFT
 10
0.0
 20
0.0
 30
0.0
  9
$UCSORGRIGHT
 10
0.0
 20
0.0
 30
0.0
  9
$UCSORGFRONT
 10
0.0
 20
0.0
 30
0.0
  9
$UCSORGBACK
 10
0.0
 20
0.0
 30
0.0
  9
$PUCSBASE
  2

  9
$PUCSNAME
  2

  9
$PUCSORG
 10
0.0
 20
0.0
 30
0.0
  9
$PUCSXDIR
 10
1.0
 20
0.0
 30
0.0
  9
$PUCSYDIR
 10
0.0
 20
1.0
 30
0.0
  9
$PUCSORTHOREF
  2

  9
$PUCSORTHOVIEW
 70
     0
  9
$PUCSORGTOP
 10
0.0
 20
0.0
 30
0.0
  9
$PUCSORGBOTTOM
 10
0.0
 20
0.0
 30
0.0
  9
$PUCSORGLEFT
 10
0.0
 20
0.0
 30
0.0
  9
$PUCSORGRIGHT
 10
0.0
 20
0.0
 30
0.0
  9
$PUCSORGFRONT
 10
0.0
 20
0.0
 30
0.0
  9
$PUCSORGBACK
 10
0.0
 20
0.0
 30
0.0
  9
$USERI1
 70
     0
  9
$USERI2
 70
     0
  9
$USERI3
 70
     0
  9
$USERI4
 70
     0
  9
$USERI5
 70
     0
  9
$USERR1
 40
0.0
  9
$USERR2
 40
0.0
  9
$USERR3
 40
0.0
  9
$USERR4
 40
0.0
  9
$USERR5
 40
0.0
  9
$WORLDVIEW
 70
     1
  9
$SHADEDGE
 70
     3
  9
$SHADEDIF
 70
    70
  9
$TILEMODE
 70
     1
  9
$MAXACTVP
 70
    64
  9
$PINSBASE
 10
0.0
 20
0.0
 30
0.0
  9
$PLIMCHECK
 70
     0
  9
$PEXTMIN
 10
0.0
 20
0.0
 30
0.0
  9
$PEXTMAX
 10
0.0
 20
0.0
 30
0.0
  9
$PLIMMIN
 10
0.0
 20
0.0
  9
$PLIMMAX
 10
12.0
 20
9.0
  9
$UNITMODE
 70
     0
  9
$VISRETAIN
 70
     1
  9
$PLINEGEN
 70
     0
  9
$PSLTSCALE
 70
     1
  9
$TREEDEPTH
 70
  3020
  9
$CMLSTYLE
  2
Standard
  9
$CMLJUST
 70
     0
  9
$CMLSCALE
 40
1.0
  9
$PROXYGRAPHICS
 70
     1
  9
$MEASUREMENT
 70
     1
  9
$CELWEIGHT
370
    -1
  9
$ENDCAPS
280
     0
  9
$JOINSTYLE
280
     0
  9
$LWDISPLAY
290
     0
  9
$INSUNITS
 70
     1
  9
$HYPERLINKBASE
  1

  9
$STYLESHEET
  1

  9
$XEDIT
290
     1
  9
$CEPSNTYPE
380
     0
  9
$PSTYLEMODE
290
     1
  9
$FINGERPRINTGUID
  2
{64AB614E-DCAE-D841-BC38-59E23EB6FA23}
  9
$VERSIONGUID
  2
{C375D6A2-707F-6442-BD95-2FF0E210A7E9}
  9
$EXTNAMES
290
     1
  9
$PSVPSCALE
 40
0.0
  9
$OLESTARTUP
290
     0
  9
$SORTENTS
280
   127
  9
$INDEXCTL
280
     0
  9
$HIDETEXT
280
     1
  9
$XCLIPFRAME
280
     2
  9
$HALOGAP
280
     0
  9
$OBSCOLOR
 70
   257
  9
$OBSLTYPE
280
     0
  9
$INTERSECTIONDISPLAY
280
     0
  9
$INTERSECTIONCOLOR
 70
   257
  9
$DIMASSOC
280
     2
  9
$PROJECTNAME
  1

  9
$CAMERADISPLAY
290
     0
  9
$LENSLENGTH
 40
50.0
  9
$CAMERAHEIGHT
 40
0.0
  9
$STEPSPERSEC
 40
2.0
  9
$STEPSIZE
 40
100.0
  9
$3DDWFPREC
 40
2.0
  9
$PSOLWIDTH
 40
0.25
  9
$PSOLHEIGHT
 40
4.0
  9
$LOFTANG1
 40
1.570796326794896
  9
$LOFTANG2
 40
1.570796326794896
  9
$LOFTMAG1
 40
0.0
  9
$LOFTMAG2
 40
0.0
  9
$LOFTPARAM
 70
     7
  9
$LOFTNORMALS
280
     1
  9
$LATITUDE
 40
37.795
  9
$LONGITUDE
 40
-122.394
  9
$NORTHDIRECTION
 40
0.0
  9
$TIMEZONE
 70
 -8000
  9
$LIGHTGLYPHDISPLAY
280
     1
  9
$TILEMODELIGHTSYNCH
280
     1
  9
$CMATERIAL
347
96
  9
$SOLIDHIST
280
     0
  9
$SHOWHIST
280
     1
  9
$DWFFRAME
280
     2
  9
$DGNFRAME
280
     0
  9
$REALWORLDSCALE
290
     1
  9
$INTERFERECOLOR
 62
     1
  9
$INTERFEREOBJVS
345
A3
  9
$INTERFEREVPVS
346
A0
  9
$CSHADOW
280
     0
  9
$SHADOWPLANELOCATION
 40
0.0
  0
ENDSEC
  0
SECTION
  2
CLASSES
  0
CLASS
  1
ACDBDICTIONARYWDFLT
  2
AcDbDictionaryWithDefault
  3
ObjectDBX Classes
 90
        0
 91
        1
280
     0
281
     0
  0
CLASS
  1
DICTIONARYVAR
  2
AcDbDictionaryVar
  3
ObjectDBX Classes
 90
        0
 91
        9
280
     0
281
     0
  0
CLASS
  1
TABLESTYLE
  2
AcDbTableStyle
  3
ObjectDBX Classes
 90
     4095
 91
        2
280
     0
281
     0
  0
CLASS
  1
MATERIAL
  2
AcDbMaterial
  3
ObjectDBX Classes
 90
     1153
 91
        3
280
     0
281
     0
  0
CLASS
  1
VISUALSTYLE
  2
AcDbVisualStyle
  3
ObjectDBX Classes
 90
     4095
 91
       24
280
     0
281
     0
  0
CLASS
  1
SCALE
  2
AcDbScale
  3
ObjectDBX Classes
 90
     1153
 91
       33
280
     0
281
     0
  0
CLASS
  1
MLEADERSTYLE
  2
AcDbMLeaderStyle
  3
ACDB_MLEADERSTYLE_CLASS
 90
     4095
 91
        2
280
     0
281
     0
  0
CLASS
  1
CELLSTYLEMAP
  2
AcDbCellStyleMap
  3
ObjectDBX Classes
 90
     1152
 91
       28
280
     0
281
     0
  0
CLASS
  1
EXACXREFPANELOBJECT
  2
ExAcXREFPanelObject
  3
EXAC_ESW
 90
     1025
 91
        0
280
     0
281
     0
  0
CLASS
  1
NPOCOLLECTION
  2
AcDbImpNonPersistentObjectsCollection
  3
ObjectDBX Classes
 90
     1153
 91
        0
280
     0
281
     0
  0
CLASS
  1
LAYER_INDEX
  2
AcDbLayerIndex
  3
ObjectDBX Classes
 90
        0
 91
        0
280
     0
281
     0
  0
CLASS
  1
SPATIAL_INDEX
  2
AcDbSpatialIndex
  3
ObjectDBX Classes
 90
        0
 91
        0
280
     0
281
     0
  0
CLASS
  1
IDBUFFER
  2
AcDbIdBuffer
  3
ObjectDBX Classes
 90
        0
 91
        0
280
     0
281
     0
  0
CLASS
  1
ACDBSECTIONVIEWSTYLE
  2
AcDbSectionViewStyle
  3
ObjectDBX Classes
 90
     1025
 91
        2
280
     0
281
     0
  0
CLASS
  1
ACDBDETAILVIEWSTYLE
  2
AcDbDetailViewStyle
  3
ObjectDBX Classes
 90
     1025
 91
        2
280
     0
281
     0
  0
CLASS
  1
DMMAPMANAGER
  2
AcMapDMMapManager
  3
AcMapDisplayManagement
 90
     1024
 91
        1
280
     0
281
     0
  0
CLASS
  1
DMSTYLELIBRARY
  2
AcMapDMStyleLibrary
  3
AcMapDisplayManagement
 90
     1024
 91
        1
280
     0
281
     0
  0
CLASS
  1
DMSTYLECATEGORY
  2
AcMapDMStyleCategory
  3
AcMapDisplayManagement
 90
     1024
 91
        1
280
     0
281
     0
  0
CLASS
  1
DATATABLE
  2
AcDbDataTable
  3
ObjectDBX Classes
 90
        0
 91
        1
280
     0
281
     0
  0
CLASS
  1
MAPRESOURCEMANAGEROBJECT
  2
AcMapResourceManager
  3
AcMapSharedComponents
 90
     1024
 91
        1
280
     0
281
     0
  0
CLASS
  1
MAPGWSUNDOOBJECT
  2
AcMapGWSUndoRecorder
  3
AcMapFeatureSourceManager
 90
     1025
 91
        1
280
     0
281
     0
  0
CLASS
  1
DMMAP
  2
AcMapDMMap
  3
AcMapDisplayManagement
 90
     1024
 91
        1
280
     0
281
     0
  0
CLASS
  1
DMBASEELEMENT
  2
AcMapDMBaseElement
  3
AcMapDisplayManagement
 90
     1024
 91
        1
280
     0
281
     0
  0
CLASS
  1
DMDEFAULTSTYLE
  2
AcMapDMDefaultStyle
  3
AcMapDisplayManagement
 90
     1024
 91
        1
280
     0
281
     0
  0
CLASS
  1
DMSTYLEREFERENCE
  2
AcMapDMStyleReference
  3
AcMapDisplayManagement
 90
     1024
 91
        1
280
     0
281
     0
  0
CLASS
  1
DMSURROGATESTYLESETS
  2
AcMapDMSurrogateStyleSets
  3
AcMapDisplayManagement
 90
     1153
 91
        1
280
     0
281
     0
  0
CLASS
  1
SORTENTSTABLE
  2
AcDbSortentsTable
  3
ObjectDBX Classes
 90
        0
 91
        1
280
     0
281
     0
  0
CLASS
  1
DMSTYLIZEDENTITIESTABLE
  2
AcMapDMStylizedEntitiesTable
  3
AcMapDisplayManagement
 90
     1024
 91
        1
280
     0
281
     0
  0
CLASS
  1
SUN
  2
AcDbSun
  3
SCENEOE
 90
     1153
 91
        1
280
     0
281
     0
  0
CLASS
  1
IRD_DSC_DICT
  2
CIrdDscDict
  3
"IRD"
 90
     1025
 91
        1
280
     0
281
     0
  0
CLASS
  1
IRD_DSC_RECORD
  2
CIrdDscRecord
  3
"IRD"
 90
     1025
 91
        3
280
     0
281
     0
  0
CLASS
  1
IRD_OBJ_RECORD
  2
CIrdObjRecord
  3
"IRD"
 90
     1025
 91
        0
280
     0
281
     0
  0
ENDSEC
  0
SECTION
  2
TABLES
  0
TABLE
  2
VPORT
  5
8
330
0
100
AcDbSymbolTable
 70
     1
1001
ACAD
1000
DbSaveVer
1071
      122
  0
VPORT
  5
94
330
8
100
AcDbSymbolTableRecord
100
AcDbViewportTableRecord
  2
*Active
 70
     0
 10
0.0
 20
0.0
 11
1.0
 21
1.0
 12
6668.24450000003
 22
335077.9322999996
 13
0.0
 23
0.0
 14
0.5
 24
0.5
 15
0.5
 25
0.5
 16
0.0
 26
0.0
 36
1.0
 17
0.0
 27
0.0
 37
0.0
 40
345.9685950319312
 41
1.736998514115899
 42
50.0
 43
0.0
 44
0.0
 50
0.0
 51
0.0
 71
     0
 72
  1000
 73
     1
 74
     3
 75
     0
 76
     0
 77
     0
 78
     0
281
     0
 65
     1
110
0.0
120
0.0
130
0.0
111
1.0
121
0.0
131
0.0
112
0.0
122
1.0
132
0.0
 79
     0
146
0.0
348
9F
 60
     3
 61
     5
292
     1
282
     1
141
0.0
142
0.0
 63
   250
421
  3355443
361
217
1001
ACAD_NAV_VCDISPLAY
1070
     3
  0
ENDTAB
  0
TABLE
  2
LTYPE
  5
5
330
0
100
AcDbSymbolTable
 70
     3
  0
LTYPE
  5
14
330
5
100
AcDbSymbolTableRecord
100
AcDbLinetypeTableRecord
  2
ByBlock
 70
     0
  3

 72
    65
 73
     0
 40
0.0
  0
LTYPE
  5
15
330
5
100
AcDbSymbolTableRecord
100
AcDbLinetypeTableRecord
  2
ByLayer
 70
     0
  3

 72
    65
 73
     0
 40
0.0
  0
LTYPE
  5
16
330
5
100
AcDbSymbolTableRecord
100
AcDbLinetypeTableRecord
  2
Continuous
 70
     0
  3
Solid line
 72
    65
 73
     0
 40
0.0
  0
LTYPE
  5
265
330
5
100
AcDbSymbolTableRecord
100
AcDbLinetypeTableRecord
  2
STRP1
 70
     0
  3
strichpunktierte linie fuer einbauteile
 72
    65
 73
     4
 40
0.4100000000000001
 49
0.25
 74
     0
 49
-0.06
 74
     0
 49
0.04
 74
     0
 49
-0.06
 74
     0
  0
LTYPE
  5
266
330
5
100
AcDbSymbolTableRecord
100
AcDbLinetypeTableRecord
  2
PT1
 70
     0
  3
punktierte linie - eng
 72
    65
 73
     2
 40
0.07
 49
0.02
 74
     0
 49
-0.05
 74
     0
  0
ENDTAB
  0
TABLE
  2
LAYER
  5
2
102
{ACAD_XDICTIONARY
360
18E
102
}
330
0
100
AcDbSymbolTable
 70
     3
  0
LAYER
  5
10
102
{ACAD_XDICTIONARY
360
E6
102
}
330
2
100
AcDbSymbolTableRecord
100
AcDbLayerTableRecord
  2
0
 70
     0
 62
     7
  6
Continuous
370
    -3
390
F
347
98
348
0
  0
LAYER
  5
50B
330
2
100
AcDbSymbolTableRecord
100
AcDbLayerTableRecord
  2
Straßenverlauf_ACHS
 70
     0
 62
    50
  6
Continuous
370
    -3
390
F
347
98
348
0
  0
LAYER
  5
547
330
2
100
AcDbSymbolTableRecord
100
AcDbLayerTableRecord
  2
Straßenverlauf_FBRD
 70
     0
 62
    10
  6
Continuous
370
    -3
390
F
347
98
348
0
  0
ENDTAB
  0
TABLE
  2
STYLE
  5
3
330
0
100
AcDbSymbolTable
 70
     3
  0
STYLE
  5
11
330
3
100
AcDbSymbolTableRecord
100
AcDbTextStyleTableRecord
  2
Standard
 70
     0
 40
0.0
 41
1.0
 50
0.0
 71
     0
 42
0.2
  3
arial.ttf
  4

1001
ACAD
1000
Arial
1071
       34
  0
STYLE
  5
DC
330
3
100
AcDbSymbolTableRecord
100
AcDbTextStyleTableRecord
  2
Beschriftung
 70
     0
 40
0.0
 41
1.0
 50
0.0
 71
     0
 42
0.2
  3
arial.ttf
  4

1001
AcadAnnotative
1000
AnnotativeData
1002
{
1070
     1
1070
     1
1002
}
1001
ACAD
1000
Arial
1071
       34
  0
STYLE
  5
20C
330
3
100
AcDbSymbolTableRecord
100
AcDbTextStyleTableRecord
  2
Legend
 70
     0
 40
0.0
 41
1.0
 50
0.0
 71
     0
 42
0.2
  3
calibri.ttf
  4

1001
ACAD
1000
Calibri
1071
       80
  0
ENDTAB
  0
TABLE
  2
VIEW
  5
6
330
0
100
AcDbSymbolTable
 70
     6
  0
ENDTAB
  0
TABLE
  2
UCS
  5
7
330
0
100
AcDbSymbolTable
 70
     0
  0
ENDTAB
  0
TABLE
  2
APPID
  5
9
330
0
100
AcDbSymbolTable
 70
    14
  0
APPID
  5
12
330
9
100
AcDbSymbolTableRecord
100
AcDbRegAppTableRecord
  2
ACAD
 70
     0
  0
APPID
  5
DD
330
9
100
AcDbSymbolTableRecord
100
AcDbRegAppTableRecord
  2
AcadAnnoPO
 70
     0
  0
APPID
  5
DE
330
9
100
AcDbSymbolTableRecord
100
AcDbRegAppTableRecord
  2
AcadAnnotative
 70
     0
  0
APPID
  5
DF
330
9
100
AcDbSymbolTableRecord
100
AcDbRegAppTableRecord
  2
ACAD_DSTYLE_DIMJAG
 70
     0
  0
APPID
  5
E0
330
9
100
AcDbSymbolTableRecord
100
AcDbRegAppTableRecord
  2
ACAD_DSTYLE_DIMTALN
 70
     0
  0
APPID
  5
107
330
9
100
AcDbSymbolTableRecord
100
AcDbRegAppTableRecord
  2
ACAD_MLEADERVER
 70
     0
  0
APPID
  5
1A6
330
9
100
AcDbSymbolTableRecord
100
AcDbRegAppTableRecord
  2
ACAD_NAV_VCDISPLAY
 70
     0
  0
APPID
  5
210
330
9
100
AcDbSymbolTableRecord
100
AcDbRegAppTableRecord
  2
AcMapDMDisplayStyleRegapp
 70
     0
  0
APPID
  5
21A
330
9
100
AcDbSymbolTableRecord
100
AcDbRegAppTableRecord
  2
ADE
 70
     0
  0
APPID
  5
21F
330
9
100
AcDbSymbolTableRecord
100
AcDbRegAppTableRecord
  2
DCO15
 70
     0
  0
APPID
  5
221
330
9
100
AcDbSymbolTableRecord
100
AcDbRegAppTableRecord
  2
MapGWS
 70
     0
  0
APPID
  5
32B
330
9
100
AcDbSymbolTableRecord
100
AcDbRegAppTableRecord
  2
ADE_PROJECTION
 70
     0
  0
APPID
  5
343
330
9
100
AcDbSymbolTableRecord
100
AcDbRegAppTableRecord
  2
AcMap_E615D161-C9D7-11d3-839F-0060B0FB6B57
 70
     0
  0
APPID
  5
347
330
9
100
AcDbSymbolTableRecord
100
AcDbRegAppTableRecord
  2
IRD
 70
     0
  0
ENDTAB
  0
TABLE
  2
DIMSTYLE
  5
A
330
0
100
AcDbSymbolTable
 70
     2
100
AcDbDimStyleTable
 71
     2
340
27
340
E1
  0
DIMSTYLE
105
27
330
A
100
AcDbSymbolTableRecord
100
AcDbDimStyleTableRecord
  2
Standard
 70
     0
340
11
  0
DIMSTYLE
105
E1
330
A
100
AcDbSymbolTableRecord
100
AcDbDimStyleTableRecord
  2
Beschriftung
 70
     0
 40
0.0
340
11
1001
AcadAnnotative
1000
AnnotativeData
1002
{
1070
     1
1070
     1
1002
}
1001
ACAD_DSTYLE_DIMJAG
1070
   388
1040
1.5
1001
ACAD_DSTYLE_DIMTALN
1070
   392
1070
     0
  0
ENDTAB
  0
TABLE
  2
BLOCK_RECORD
  5
1
330
0
100
AcDbSymbolTable
 70
     1
  0
BLOCK_RECORD
  5
1F
102
{ACAD_XDICTIONARY
360
15D
102
}
330
1
100
AcDbSymbolTableRecord
100
AcDbBlockTableRecord
  2
*Model_Space
340
22
 70
     0
280
     1
281
     0
  0
BLOCK_RECORD
  5
58
330
1
100
AcDbSymbolTableRecord
100
AcDbBlockTableRecord
  2
*Paper_Space
340
59
 70
     0
280
     1
281
     0
  0
BLOCK_RECORD
  5
5D
330
1
100
AcDbSymbolTableRecord
100
AcDbBlockTableRecord
  2
*Paper_Space0
340
5E
 70
     0
280
     1
281
     0
  0
ENDTAB
  0
ENDSEC
  0
SECTION
  2
BLOCKS
  0
BLOCK
  5
20
330
1F
100
AcDbEntity
  8
0
100
AcDbBlockBegin
  2
*Model_Space
 70
     0
 10
0.0
 20
0.0
 30
0.0
  3
*Model_Space
  1

  0
ENDBLK
  5
21
330
1F
100
AcDbEntity
  8
0
100
AcDbBlockEnd
  0
BLOCK
  5
5A
330
58
100
AcDbEntity
 67
     1
  8
0
100
AcDbBlockBegin
  2
*Paper_Space
 70
     0
 10
0.0
 20
0.0
 30
0.0
  3
*Paper_Space
  1

  0
ENDBLK
  5
5B
330
58
100
AcDbEntity
 67
     1
  8
0
100
AcDbBlockEnd
  0
BLOCK
  5
5F
330
5D
100
AcDbEntity
 67
     1
  8
0
100
AcDbBlockBegin
  2
*Paper_Space0
 70
     0
 10
0.0
 20
0.0
 30
0.0
  3
*Paper_Space0
  1

  0
ENDBLK
  5
60
330
5D
100
AcDbEntity
 67
     1
  8
0
100
AcDbBlockEnd
  0
ENDSEC
  0
SECTION
  2
ENTITIES
  0
LWPOLYLINE
  5
E26
330
1F
100
AcDbEntity
  8
Straßenverlauf_ACHS
100
AcDbPolyline
 90
       34
 70
     0
 43
0.0
 10
6377.7388000004
 20
334969.6565000005
 10
6379.320899999701
 20
334972.8314999994
 10
6381.011500000022
 20
334975.9500999991
 10
6382.808400000445
 20
334979.0086000003
 10
6384.709499999881
 20
334982.0034999997
 10
6386.712700000033
 20
334984.9310999997
 10
6388.81549999956
 20
334987.7880000007
 10
6391.015399999917
 20
334990.5708000008
 10
6393.309799999929
 20
334993.2762000003
 10
6395.696100000292
 20
334995.9010000006
 10
6398.17129999958
 20
334998.4420999997
 10
6400.732499999925
 20
335000.8964000009
 10
6403.376699999906
 20
335003.2609999999
 10
6406.100800000131
 20
335005.5332999993
 10
6408.901600000449
 20
335007.7103000004
 10
6411.775600000284
 20
335009.7895999998
 10
6414.719499999657
 20
335011.7687
 10
6417.729899999685
 20
335013.6453000009
 10
6420.803000000304
 20
335015.4170999993
 10
6423.935399999843
 20
335017.0820000004
 10
6427.123200000264
 20
335018.6381000001
 10
6430.362700000405
 20
335020.0834999998
 10
6433.650100000203
 20
335021.4165000003
 10
6436.981399999931
 20
335022.6353999991
 10
6440.352800000458
 20
335023.7390000001
 10
6443.760099999606
 20
335024.7258000002
 10
6447.199400000274
 20
335025.5945999995
 10
6450.666500000282
 20
335026.3445999996
 10
6454.157499999739
 20
335026.9746000004
 10
6457.667999999597
 20
335027.4840999991
 10
6494.491499999537
 20
335032.1826000009
 10
6574.350700000301
 20
335042.3720999994
 10
6600.473299999721
 20
335045.8802000005
 10
6692.696999999694
 20
335058.8847000003
1001
AcMap_E615D161-C9D7-11d3-839F-0060B0FB6B57
1071
        1
1071
       22
  0
LWPOLYLINE
  5
E27
330
1F
100
AcDbEntity
  8
Straßenverlauf_ACHS
100
AcDbPolyline
 90
       10
 70
     0
 43
0.0
 10
6692.696999999694
 20
335058.8847000003
 10
6694.305800000205
 20
335013.4142000005
 10
6694.399600000121
 20
335008.1547999997
 10
6694.309000000358
 20
335002.8953000009
 10
6694.033900000156
 20
334997.6423000005
 10
6693.574900000356
 20
334992.4022000004
 10
6692.932400000282
 20
334987.1812999994
 10
6692.107200000435
 20
334981.9861999993
 10
6691.100399999879
 20
334976.8233000003
 10
6683.937599999829
 20
334939.8351000007
1001
AcMap_E615D161-C9D7-11d3-839F-0060B0FB6B57
1071
        1
1071
       22
  0
LWPOLYLINE
  5
E28
330
1F
100
AcDbEntity
  8
Straßenverlauf_ACHS
100
AcDbPolyline
 90
        8
 70
     0
 43
0.0
 10
6692.696999999694
 20
335058.8847000003
 10
6744.416199999861
 20
335065.2590999994
 10
6772.623900000006
 20
335069.2468999997
 10
6800.671699999831
 20
335074.2364000008
 10
6828.524100000038
 20
335080.2213000004
 10
6865.473199999891
 20
335088.852
 10
6916.12509999983
 20
335101.6174999998
 10
6966.30179999955
 20
335116.1388000008
1001
AcMap_E615D161-C9D7-11d3-839F-0060B0FB6B57
1071
        1
1071
       22
  0
LWPOLYLINE
  5
E29
330
1F
100
AcDbEntity
  8
Straßenverlauf_ACHS
100
AcDbPolyline
 90
       16
 70
     0
 43
0.0
 10
6682.288900000043
 20
335215.7116000001
 10
6695.640700000338
 20
335170.3814000003
 10
6697.001299999654
 20
335165.4538000003
 10
6698.19319999963
 20
335160.4825999998
 10
6699.214999999852
 20
335155.4737
 10
6700.06549999956
 20
335150.4330000003
 10
6700.743800000288
 20
335145.3661000002
 10
6701.249099999666
 20
335140.2791000009
 10
6701.580699999816
 20
335135.1777999997
 10
6701.738199999557
 20
335130.0681999997
 10
6701.721599999816
 20
335124.9561999999
 10
6701.530799999833
 20
335119.8476999999
 10
6701.166100000031
 20
335114.7487000004
 10
6700.627700000071
 20
335109.6651000008
 10
6699.916500000283
 20
335104.6028000005
 10
6692.696999999694
 20
335058.8847000003
1001
AcMap_E615D161-C9D7-11d3-839F-0060B0FB6B57
1071
        1
1071
       22
  0
LWPOLYLINE
  5
E2A
330
1F
100
AcDbEntity
  8
Straßenverlauf_FBRD
100
AcDbPolyline
 90
       55
 70
     0
 43
0.0
 10
6686.816100000403
 20
334939.3336999994
 10
6689.639000000432
 20
334953.7237
 10
6690.429700000212
 20
334957.4628999997
 10
6691.594700000249
 20
334963.1350999997
 10
6694.278900000266
 20
334976.1454000007
 10
6695.210199999623
 20
334980.8753999994
 10
6695.992200000212
 20
334985.6324000004
 10
6696.624200000427
 20
334990.4115999994
 10
6697.105600000359
 20
334995.2083999999
 10
6697.674200000242
 20
335001.0797000006
 10
6697.814000000246
 20
335003.1624999996
 10
6697.874800000339
 20
335003.6044999995
 10
6697.896300000138
 20
335003.7405999992
 10
6697.922500000335
 20
335003.8760000002
 10
6697.953300000168
 20
335004.0102999993
 10
6697.988800000399
 20
335004.1435000003
 10
6698.028800000436
 20
335004.2753999997
 10
6698.07330000028
 20
335004.4057999998
 10
6698.12229999993
 20
335004.5347000007
 10
6698.175699999556
 20
335004.6616999991
 10
6698.23350000009
 20
335004.7869000007
 10
6698.295500000007
 20
335004.9100000002
 10
6698.361700000241
 20
335005.0308999997
 10
6698.43209999986
 20
335005.1493999995
 10
6698.506500000134
 20
335005.2654
 10
6698.584800000303
 20
335005.3787999992
 10
6698.667000000366
 20
335005.4893999994
 10
6698.75299999956
 20
335005.5972000007
 10
6698.842699999921
 20
335005.7018999998
 10
6698.935800000093
 20
335005.8034000006
 10
6699.03249999974
 20
335005.9016999994
 10
6699.132500000299
 20
335005.9966000002
 10
6699.235600000247
 20
335006.0879999996
 10
6699.341900000348
 20
335006.1757999994
 10
6699.451100000181
 20
335006.2599
 10
6699.563199999743
 20
335006.3400999997
 10
6699.677899999544
 20
335006.4165000003
 10
6699.795199999586
 20
335006.4888000004
 10
6699.915000000037
 20
335006.5570999999
 10
6700.036999999546
 20
335006.6212000009
 10
6700.161199999974
 20
335006.6810999997
 10
6700.287299999967
 20
335006.7366000004
 10
6700.415300000459
 20
335006.7877999992
 10
6700.544999999926
 20
335006.8344999999
 10
6700.676199999638
 20
335006.8767000009
 10
6700.808699999936
 20
335006.9144000001
 10
6700.942499999889
 20
335006.9474999998
 10
6701.077399999835
 20
335006.9759999998
 10
6701.213200000115
 20
335006.9998000004
 10
6701.349700000136
 20
335007.0188999996
 10
6701.486800000072
 20
335007.0332999993
 10
6701.624200000428
 20
335007.0429999996
 10
6701.762000000105
 20
335007.0479000006
 10
6701.899799999781
 20
335007.0481000003
 10
6706.420099999755
 20
335006.9759
1001
AcMap_E615D161-C9D7-11d3-839F-0060B0FB6B57
1071
        1
1071
       23
  0
LWPOLYLINE
  5
E2B
330
1F
100
AcDbEntity
  8
Straßenverlauf_FBRD
100
AcDbPolyline
 90
      160
 70
     0
 43
0.0
 10
6369.303100000135
 20
334980.4727999997
 10
6369.609500000254
 20
334980.3138999995
 10
6369.921199999749
 20
334980.1656999999
 10
6370.237900000065
 20
334980.0284000002
 10
6370.559100000188
 20
334979.9020000008
 10
6370.884499999695
 20
334979.7868000008
 10
6371.213700000197
 20
334979.6829000004
 10
6371.54619999975
 20
334979.5903999992
 10
6371.881799999624
 20
334979.5095000007
 10
6372.219899999909
 20
334979.4401999992
 10
6372.560200000182
 20
334979.3826000001
 10
6372.902400000021
 20
334979.3366999999
 10
6373.245900000445
 20
334979.3026999999
 10
6373.590300000273
 20
334979.2806000002
 10
6373.935399999842
 20
334979.2704000008
 10
6374.280500000343
 20
334979.2720999997
 10
6374.625400000252
 20
334979.2857000009
 10
6374.969700000249
 20
334979.3112000004
 10
6375.312800000422
 20
334979.3486000002
 10
6375.654500000178
 20
334979.3978000004
 10
6375.994199999608
 20
334979.4587999993
 10
6376.331699999981
 20
334979.5314000007
 10
6376.666400000453
 20
334979.6155999992
 10
6376.997999999672
 20
334979.7114000004
 10
6377.326200000011
 20
334979.8184999992
 10
6377.650399999693
 20
334979.9368999992
 10
6377.970399999991
 20
334980.0665000007
 10
6378.285699999891
 20
334980.2069000006
 10
6378.595900000073
 20
334980.3582000006
 10
6378.900799999945
 20
334980.5200999994
 10
6379.199799999595
 20
334980.6923999992
 10
6379.492800000123
 20
334980.8750000001
 10
6379.779299999587
 20
334981.0675000008
 10
6380.059000000358
 20
334981.2698999997
 10
6380.33150000032
 20
334981.4816999995
 10
6380.596499999985
 20
334981.7028000001
 10
6380.853799999691
 20
334981.9330000002
 10
6381.102900000289
 20
334982.1719000004
 10
6381.343700000085
 20
334982.4191999994
 10
6381.575799999758
 20
334982.6746999994
 10
6381.79889999982
 20
334982.9381000009
 10
6382.012799999677
 20
334983.2090000008
 10
6382.21729999967
 20
334983.4870999996
 10
6382.411999999545
 20
334983.7720999997
 10
6384.479500000365
 20
334986.7629000005
 10
6386.648199999704
 20
334989.6810999997
 10
6388.915300000459
 20
334992.5234999992
 10
6391.278400000185
 20
334995.2866999991
 10
6393.734500000253
 20
334997.9674999994
 10
6396.280899999663
 20
335000.5627999995
 10
6398.914499999955
 20
335003.0693999995
 10
6401.632299999707
 20
335005.4845000002
 10
6404.431200000458
 20
335007.8052999992
 10
6407.307699999773
 20
335010.0289999992
 10
6410.258600000291
 20
335012.1530000009
 10
6413.280399999582
 20
335014.1749000009
 10
6416.36959999986
 20
335016.0922999997
 10
6419.522499999962
 20
335017.9028999992
 10
6422.735500000417
 20
335019.6045999993
 10
6426.004800000228
 20
335021.1954999995
 10
6429.326600000262
 20
335022.6735999994
 10
6432.696999999695
 20
335024.0373
 10
6436.112099999562
 20
335025.2849000003
 10
6439.56780000031
 20
335026.4151000008
 10
6443.060200000181
 20
335027.4264000002
 10
6446.585099999793
 20
335028.3176000007
 10
6450.138399999589
 20
335029.0877999999
 10
6453.716000000015
 20
335029.7360999994
 10
6457.313599999995
 20
335030.2616000008
 10
6484.204900000245
 20
335033.7936000005
 10
6484.714999999851
 20
335033.8593000007
 10
6484.748999999836
 20
335033.8653999996
 10
6484.78270000033
 20
335033.8727000002
 10
6484.816200000235
 20
335033.8812000007
 10
6484.849299999885
 20
335033.8907999993
 10
6484.882100000047
 20
335033.9014999998
 10
6484.914499999955
 20
335033.9134
 10
6484.946499999613
 20
335033.9264000002
 10
6484.978000000118
 20
335033.9405000005
 10
6485.008999999613
 20
335033.9556000009
 10
6485.039499999955
 20
335033.9718999993
 10
6485.069400000385
 20
335033.9890999999
 10
6485.098699999973
 20
335034.0074000005
 10
6485.127299999819
 20
335034.0266999994
 10
6485.155299999751
 20
335034.0470000003
 10
6485.182500000111
 20
335034.0681999997
 10
6485.208999999798
 20
335034.0902999994
 10
6485.234699999914
 20
335034.1133999992
 10
6485.259499999695
 20
335034.1372999996
 10
6485.283599999734
 20
335034.1621000004
 10
6485.30680000037
 20
335034.1875999998
 10
6485.329099999741
 20
335034.2139999997
 10
6485.350399999879
 20
335034.2411000003
 10
6485.370799999684
 20
335034.2689999994
 10
6485.390300000087
 20
335034.2974999995
 10
6485.408699999563
 20
335034.3267000001
 10
6485.426099999807
 20
335034.3564999998
 10
6485.442499999888
 20
335034.3868000005
 10
6485.457899999805
 20
335034.4178
 10
6485.472099999897
 20
335034.4492000007
 10
6485.485299999826
 20
335034.4811000005
 10
6485.497299999931
 20
335034.5134999994
 10
6485.50820000004
 20
335034.5461999998
 10
6485.518000000157
 20
335034.5792999994
 10
6485.526700000278
 20
335034.6127000005
 10
6485.534099999815
 20
335034.6464000009
 10
6485.540500000119
 20
335034.6804000009
 10
6485.545599999838
 20
335034.7145000007
 10
6485.549599999562
 20
335034.7488000002
 10
6485.552299999632
 20
335034.7831999995
 10
6485.553899999707
 20
335034.8177000005
 10
6485.55429999996
 20
335034.8521999997
 10
6485.553500000387
 20
335034.8867000006
 10
6485.55150000006
 20
335034.9211999998
 10
6485.548299999909
 20
335034.9554999993
 10
6485.543999999761
 20
335034.9898000006
 10
6485.538399999962
 20
335035.0238000006
 10
6485.531700000167
 20
335035.0577000007
 10
6485.523799999618
 20
335035.0912999996
 10
6485.514800000004
 20
335035.1246000007
 10
6485.504599999636
 20
335035.1576000005
 10
6485.493300000206
 20
335035.1901999991
 10
6485.480899999849
 20
335035.2224000003
 10
6485.467299999669
 20
335035.2542000003
 10
6485.452700000256
 20
335035.2853999995
 10
6485.436999999918
 20
335035.3161999994
 10
6483.605000000448
 20
335038.7576000001
 10
6486.833499999717
 20
335039.1695000008
 10
6487.01099999994
 20
335038.9126999993
 10
6487.197399999947
 20
335038.6621000004
 10
6487.392300000414
 20
335038.4181999993
 10
6487.595599999652
 20
335038.1811999996
 10
6487.8069000002
 20
335037.9513000008
 10
6488.026200000196
 20
335037.7290000003
 10
6488.252999999561
 20
335037.5143999997
 10
6488.487099999563
 20
335037.3078000006
 10
6488.72819999978
 20
335037.1094000005
 10
6488.976099999621
 20
335036.9195000008
 10
6489.230399999768
 20
335036.7382999994
 10
6489.490799999796
 20
335036.5660999995
 10
6489.757000000216
 20
335036.4030000009
 10
6490.028800000437
 20
335036.2491999995
 10
6490.305700000376
 20
335036.1049000007
 10
6490.587500000373
 20
335035.9704000001
 10
6490.873700000346
 20
335035.8455999997
 10
6491.164099999704
 20
335035.7309000008
 10
6491.458399999887
 20
335035.6263999995
 10
6491.756000000052
 20
335035.5320999995
 10
6492.056800000369
 20
335035.4482000005
 10
6492.360299999825
 20
335035.3748000003
 10
6492.666100000031
 20
335035.3118999992
 10
6492.974000000394
 20
335035.2597000003
 10
6493.283400000072
 20
335035.2182
 10
6493.594200000167
 20
335035.1875000001
 10
6493.905799999833
 20
335035.1675000005
 10
6494.217899999582
 20
335035.1583999991
 10
6494.530100000091
 20
335035.1601
 10
6494.84210000001
 20
335035.1725999992
 10
6495.153500000014
 20
335035.1960000005
 10
6495.463899999856
 20
335035.2301000003
1001
AcMap_E615D161-C9D7-11d3-839F-0060B0FB6B57
1071
        1
1071
       23
  0
LWPOLYLINE
  5
E2C
330
1F
100
AcDbEntity
  8
Straßenverlauf_FBRD
100
AcDbPolyline
 90
      118
 70
     0
 43
0.0
 10
6706.468000000343
 20
335009.9755000007
 10
6702.251099999994
 20
335010.0428
 10
6702.11149999965
 20
335010.0474999994
 10
6701.972099999896
 20
335010.0570000001
 10
6701.833200000226
 20
335010.0713999998
 10
6701.694899999536
 20
335010.0907000005
 10
6701.557300000452
 20
335010.1147000007
 10
6701.420599999838
 20
335010.1436000001
 10
6701.285000000149
 20
335010.1772000008
 10
6701.150700000114
 20
335010.2155000009
 10
6701.017799999565
 20
335010.2585000005
 10
6700.886500000023
 20
335010.3060999997
 10
6700.756900000385
 20
335010.3582000006
 10
6700.629300000146
 20
335010.4147999995
 10
6700.503700000234
 20
335010.4759
 10
6700.380199999549
 20
335010.5413000007
 10
6700.259200000203
 20
335010.6109999996
 10
6700.140599999577
 20
335010.6849000007
 10
6700.024799999781
 20
335010.7628000007
 10
6699.911700000055
 20
335010.8447999992
 10
6699.801500000059
 20
335010.9306000006
 10
6699.694400000386
 20
335011.0203000009
 10
6699.590499999932
 20
335011.1136000008
 10
6699.489900000394
 20
335011.2105000001
 10
6699.392699999734
 20
335011.3109000009
 10
6699.299200000242
 20
335011.4145999998
 10
6699.209200000391
 20
335011.5214000009
 10
6699.123100000433
 20
335011.6314000003
 10
6699.040900000371
 20
335011.7443000004
 10
6698.962700000032
 20
335011.8599999994
 10
6698.88850000035
 20
335011.9783999995
 10
6698.818599999881
 20
335012.0993000008
 10
6698.7527999999
 20
335012.2225000002
 10
6698.691499999724
 20
335012.3479999993
 10
6698.634499999695
 20
335012.4755000007
 10
6698.582100000233
 20
335012.6050000004
 10
6698.534199999645
 20
335012.7361999992
 10
6698.490899999626
 20
335012.8690000009
 10
6698.452200000175
 20
335013.0032000002
 10
6698.41830000002
 20
335013.1386999991
 10
6698.389200000092
 20
335013.2752999999
 10
6698.364799999632
 20
335013.4127999992
 10
6698.345200000331
 20
335013.5511000008
 10
6698.300800000318
 20
335014.0958999992
 10
6698.338399999776
 20
335018.7584000007
 10
6698.274899999612
 20
335028.2536999993
 10
6698.279600000009
 20
335028.7005000003
 10
6698.299599999562
 20
335029.1468000003
 10
6698.334999999963
 20
335029.5921
 10
6698.385599999689
 20
335030.0360000004
 10
6698.451500000432
 20
335030.4779000004
 10
6698.532499999739
 20
335030.9173000008
 10
6698.628600000404
 20
335031.3535999991
 10
6698.739599999972
 20
335031.7862999998
 10
6698.865399999544
 20
335032.2149999999
 10
6699.005800000392
 20
335032.6391000003
 10
6699.160799999721
 20
335033.0581999999
 10
6699.330000000074
 20
335033.4715999998
 10
6699.513399999588
 20
335033.8790000007
 10
6699.710599999875
 20
335034.2798999995
 10
6699.921500000171
 20
335034.6736999993
 10
6700.145899999887
 20
335035.0601000004
 10
6700.38329999987
 20
335035.4385000002
 10
6700.633600000291
 20
335035.8085999992
 10
6700.896499999799
 20
335036.1698000003
 10
6701.171699999831
 20
335036.5218000002
 10
6701.458800000138
 20
335036.8640999999
 10
6701.757399999536
 20
335037.1963
 10
6702.067300000227
 20
335037.518100001
 10
6702.388100000098
 20
335037.8290999998
 10
6702.719399999828
 20
335038.1287999991
 10
6703.060800000094
 20
335038.4169999994
 10
6703.411899999716
 20
335038.6932999995
 10
6703.772300000302
 20
335038.9573999998
 10
6704.14149999991
 20
335039.2089000009
 10
6704.519100000151
 20
335039.4475999996
 10
6705.174899999983
 20
335039.8618999999
 10
6705.816200000234
 20
335040.2983999997
 10
6706.442300000228
 20
335040.7565000002
 10
6707.052299999631
 20
335041.2356000003
 10
6707.645700000226
 20
335041.7353000008
 10
6708.221699999646
 20
335042.2548999991
 10
6708.77960000001
 20
335042.7938999999
 10
6709.318799999542
 20
335043.3515000008
 10
6709.838800000027
 20
335043.9273000006
 10
6710.338700000197
 20
335044.5204000008
 10
6710.81819999963
 20
335045.1302000005
 10
6711.276600000449
 20
335045.7559999991
 10
6711.705500000157
 20
335046.3849999998
 10
6711.713399999775
 20
335046.3969999999
 10
6712.196600000374
 20
335047.1042999998
 10
6712.712500000373
 20
335047.8059999999
 10
6713.252500000409
 20
335048.4892999996
 10
6713.815999999642
 20
335049.1534000002
 10
6714.40220000036
 20
335049.7973999996
 10
6715.010599999688
 20
335050.4207000006
 10
6715.640200000255
 20
335051.0222999994
 10
6716.290500000119
 20
335051.6017000005
 10
6716.960500000045
 20
335052.1580999997
 10
6717.649600000121
 20
335052.6908
 10
6718.356700000353
 20
335053.1992000006
 10
6719.081100000069
 20
335053.6826000009
 10
6719.821999999695
 20
335054.1404999998
 10
6720.578300000169
 20
335054.5723000001
 10
6721.349200000055
 20
335054.9776000008
 10
6722.133799999951
 20
335055.3556999993
 10
6722.930999999866
 20
335055.7062
 10
6723.740000000224
 20
335056.0287999996
 10
6724.559700000099
 20
335056.3230000008
 10
6725.389200000093
 20
335056.5885000005
 10
6726.227400000206
 20
335056.8248999994
 10
6727.07340000011
 20
335057.0319999997
 10
6727.925999999978
 20
335057.2094999999
 10
6779.140599999577
 20
335066.9432999995
 10
6785.814199999906
 20
335068.1647999995
 10
6807.600100000389
 20
335072.3106999993
 10
6829.263399999589
 20
335077.0565000009
 10
6837.385300000199
 20
335078.9537000004
1001
AcMap_E615D161-C9D7-11d3-839F-0060B0FB6B57
1071
        1
1071
       23
  0
LWPOLYLINE
  5
E2D
330
1F
100
AcDbEntity
  8
Straßenverlauf_FBRD
100
AcDbPolyline
 90
      129
 70
     0
 43
0.0
 10
6492.834400000051
 20
335024.0070999991
 10
6492.846199999563
 20
335024.2120999992
 10
6492.865000000223
 20
335024.4166000001
 10
6492.890899999999
 20
335024.6203000005
 10
6492.92360000033
 20
335024.8231000006
 10
6492.963299999946
 20
335025.0244999994
 10
6493.009899999946
 20
335025.2245000005
 10
6493.063299999572
 20
335025.4228000008
 10
6493.123499999754
 20
335025.6192000006
 10
6493.190299999899
 20
335025.8134000004
 10
6493.26370000001
 20
335026.0052000005
 10
6493.343700000085
 20
335026.1942999997
 10
6493.430100000463
 20
335026.3805999998
 10
6493.522800000384
 20
335026.5638999995
 10
6493.621700000018
 20
335026.7437999994
 10
6493.726800000295
 20
335026.9202999994
 10
6493.837799999863
 20
335027.0931000002
 10
6493.954599999823
 20
335027.2619000003
 10
6494.077200000174
 20
335027.4266999998
 10
6494.205299999565
 20
335027.5872000009
 10
6494.338899999857
 20
335027.7432000004
 10
6494.477699999698
 20
335027.8946000003
 10
6494.621600000188
 20
335028.0410999991
 10
6494.770399999805
 20
335028.1826000009
 10
6494.923999999649
 20
335028.3189000003
 10
6495.082200000062
 20
335028.4498999994
 10
6495.244699999691
 20
335028.5753000007
 10
6495.411500000395
 20
335028.6952
 10
6495.582200000062
 20
335028.8092999999
 10
6495.756799999624
 20
335028.9174000007
 10
6495.93499999959
 20
335029.0196000003
 10
6496.116499999537
 20
335029.1155999992
 10
6496.301199999638
 20
335029.2052999995
 10
6496.48890000023
 20
335029.2885999996
 10
6496.67939999979
 20
335029.3654999994
 10
6496.87229999993
 20
335029.4357999992
 10
6497.067599999718
 20
335029.4993999991
 10
6497.264899999834
 20
335029.5562999994
 10
6497.463999999687
 20
335029.6064999998
 10
6497.664800000378
 20
335029.6498000008
 10
6497.866899999789
 20
335029.6862000003
 10
6498.070100000129
 20
335029.7157000006
 10
6514.697700000368
 20
335031.8372000009
 10
6524.369800000451
 20
335033.0713
 10
6536.786199999973
 20
335034.4980999995
 10
6538.284199999646
 20
335034.6513
 10
6550.700199999846
 20
335036.0780999996
 10
6574.762000000105
 20
335039.1481999997
 10
6599.081299999729
 20
335042.4026999995
 10
6612.944299999624
 20
335044.3564999998
 10
6626.921699999832
 20
335046.1198999994
 10
6662.816999999806
 20
335050.1355000008
 10
6663.261699999683
 20
335050.1776000001
 10
6663.707700000144
 20
335050.2042999995
 10
6664.154299999587
 20
335050.2157000005
 10
6664.601099999622
 20
335050.2117
 10
6665.047399999574
 20
335050.1923999992
 10
6665.492800000123
 20
335050.1578000002
 10
6665.936800000257
 20
335050.1077999994
 10
6666.378800000064
 20
335050.0427000002
 10
6666.818199999631
 20
335049.9624000006
 10
6667.254700000397
 20
335049.8670000006
 10
6667.68759999983
 20
335049.7566999998
 10
6668.116499999539
 20
335049.6316
 10
6668.540900000372
 20
335049.4919000008
 10
6668.960199999623
 20
335049.3376000002
 10
6669.373900000007
 20
335049.1689999998
 10
6669.781600000337
 20
335048.9863000009
 10
6670.182799999603
 20
335048.7896999997
 10
6670.576899999753
 20
335048.5793999992
 10
6670.963700000196
 20
335048.3556999993
 10
6671.342500000261
 20
335048.1188999992
 10
6671.712899999693
 20
335047.8692000006
 10
6672.074599999935
 20
335047.6068999991
 10
6672.427000000141
 20
335047.3322999999
 10
6672.769799999892
 20
335047.0458000005
 10
6673.102500000037
 20
335046.7476000004
 10
6673.424800000154
 20
335046.4382000007
 10
6673.73629999999
 20
335046.1180000007
 10
6674.036600000225
 20
335045.7872000002
 10
6674.325299999677
 20
335045.4462000001
 10
6674.602199999616
 20
335045.0955999997
 10
6675.043100000358
 20
335044.5354999993
 10
6675.501299999654
 20
335043.9893999994
 10
6675.976400000043
 20
335043.4580000006
 10
6676.467899999581
 20
335042.9417000003
 10
6676.975399999879
 20
335042.4410999995
 10
6677.498200000264
 20
335041.9565999992
 10
6678.036100000143
 20
335041.4888000004
 10
6678.588299999944
 20
335041.0380000007
 10
6679.262000000105
 20
335040.4859999996
 10
6679.916000000202
 20
335039.9110000004
 10
6680.549700000323
 20
335039.3135000002
 10
6681.162100000307
 20
335038.6942999997
 10
6681.75260000024
 20
335038.0540999994
 10
6682.320500000379
 20
335037.3936999999
 10
6682.865000000224
 20
335036.7139999998
 10
6683.385499999857
 20
335036.0156999995
 10
6683.881299999542
 20
335035.2997999993
 10
6684.351999999956
 20
335034.5669
 10
6684.796799999661
 20
335033.8181999997
 10
6685.215200000442
 20
335033.0544000008
 10
6685.606800000184
 20
335032.2763999999
 10
6685.971099999733
 20
335031.4854000006
 10
6686.307599999942
 20
335030.6820999999
 10
6686.615899999626
 20
335029.8674999997
 10
6686.895600000396
 20
335029.0428
 10
6687.146499999798
 20
335028.2087999993
 10
6687.368099999614
 20
335027.3664999996
 10
6687.560300000012
 20
335026.5170000009
 10
6687.722799999639
 20
335025.6613999996
 10
6687.855299999937
 20
335024.8005999997
 10
6687.957799999975
 20
335023.9357999992
 10
6689.24199999962
 20
335011.2075999994
 10
6689.583899999968
 20
335007.1206000001
 10
6689.786000000314
 20
335003.0242999997
 10
6689.847900000401
 20
334998.9234999996
 10
6689.769700000063
 20
334994.8230000008
 10
6689.55140000023
 20
334990.7276000009
 10
6689.193300000392
 20
334986.6420000009
 10
6688.695700000041
 20
334982.5710000005
 10
6688.059399999677
 20
334978.5194000006
 10
6687.285000000149
 20
334974.4920000006
 10
6687.237700000405
 20
334974.2665999997
 10
6685.184100000189
 20
334963.9399999996
 10
6683.348500000313
 20
334953.5724999998
 10
6682.663200000302
 20
334949.4497999997
 10
6681.70370000042
 20
334943.8728000001
 10
6681.080599999987
 20
334940.3326999992
1001
AcMap_E615D161-C9D7-11d3-839F-0060B0FB6B57
1071
        1
1071
       23
  0
LINE
  5
E2E
330
1F
100
AcDbEntity
  8
Straßenverlauf_FBRD
100
AcDbLine
 10
6480.565200000071
 20
335027.4822000005
 30
0.0
 11
6484.835099999793
 21
335028.0270000008
 31
0.0
1001
AcMap_E615D161-C9D7-11d3-839F-0060B0FB6B57
1071
        1
1071
       23
  0
LWPOLYLINE
  5
E2F
330
1F
100
AcDbEntity
  8
Straßenverlauf_FBRD
100
AcDbPolyline
 90
       31
 70
     0
 43
0.0
 10
6484.835099999793
 20
335028.0270000008
 10
6458.061200000345
 20
335024.5099999998
 10
6454.651899999939
 20
335024.0121
 10
6451.261599999853
 20
335023.3976000008
 10
6447.89439999964
 20
335022.6673000008
 10
6444.55420000013
 20
335021.8220000007
 10
6441.244900000282
 20
335020.8627000004
 10
6437.970499999821
 20
335019.7906
 10
6434.734699999913
 20
335018.6067999993
 10
6431.541400000454
 20
335017.3127999995
 10
6428.39429999981
 20
335015.9101999999
 10
6425.297199999913
 20
335014.4004999996
 10
6422.253600000404
 20
335012.7854999993
 10
6419.267199999653
 20
335011.0670999997
 10
6416.341400000267
 20
335009.2474000007
 10
6413.479700000024
 20
335007.3285000008
 10
6410.685499999672
 20
335005.3125999998
 10
6407.96200000029
 20
335003.2021999993
 10
6405.31240000017
 20
335000.9996000007
 10
6402.739900000394
 20
334998.7074999996
 10
6400.24749999959
 20
334996.3286000007
 10
6397.838000000454
 20
334993.8655999992
 10
6395.514399999752
 20
334991.3214999997
 10
6393.279400000348
 20
334988.6992000006
 10
6391.135599999689
 20
334986.0019000006
 10
6389.085500000045
 20
334983.2326999996
 10
6387.131500000134
 20
334980.3948999998
 10
6385.275899999776
 20
334977.4916999992
 10
6383.520899999886
 20
334974.5266999994
 10
6381.868599999696
 20
334971.5032000002
 10
6380.3208999997
 20
334968.4249000009
1001
AcMap_E615D161-C9D7-11d3-839F-0060B0FB6B57
1071
        1
1071
       23
  0
LWPOLYLINE
  5
E30
330
1F
100
AcDbEntity
  8
Straßenverlauf_FBRD
100
AcDbPolyline
 90
       44
 70
     0
 43
0.0
 10
6484.835099999793
 20
335028.0270000008
 10
6484.972099999898
 20
335028.0420999993
 10
6485.109699999914
 20
335028.0524000004
 10
6485.247600000352
 20
335028.0580000002
 10
6485.385599999688
 20
335028.0589000006
 10
6485.523500000127
 20
335028.0549999997
 10
6485.661199999973
 20
335028.0462999996
 10
6485.798600000329
 20
335028.0329
 10
6485.935300000012
 20
335028.0147999991
 10
6486.071399999783
 20
335027.9919000008
 10
6486.206600000151
 20
335027.9644000009
 10
6486.340800000355
 20
335027.9322999995
 10
6486.473799999803
 20
335027.8955000006
 10
6486.605499999598
 20
335027.8541000001
 10
6486.735600000248
 20
335027.8082999997
 10
6486.86409999989
 20
335027.7579999995
 10
6486.990699999966
 20
335027.7031999994
 10
6487.115399999544
 20
335027.6442000009
 10
6487.237999999895
 20
335027.5809000005
 10
6487.358400000259
 20
335027.5132999998
 10
6487.476300000214
 20
335027.4417000004
 10
6487.591699999757
 20
335027.3661000002
 10
6487.704400000163
 20
335027.2864999995
 10
6487.814299999737
 20
335027.2029999998
 10
6487.92129999958
 20
335027.1159000005
 10
6488.025200000032
 20
335027.0251000002
 10
6488.125900000333
 20
335026.9307000004
 10
6488.223299999721
 20
335026.8330000006
 10
6488.317300000229
 20
335026.7318999991
 10
6488.407700000331
 20
335026.6276999992
 10
6488.494400000199
 20
335026.5204000007
 10
6488.577499999664
 20
335026.4101999999
 10
6488.656600000337
 20
335026.2971999999
 10
6488.731800000184
 20
335026.1815000009
 10
6488.803000000306
 20
335026.0633000005
 10
6488.870099999942
 20
335025.9427000005
 10
6488.933000000193
 20
335025.8199000005
 10
6488.9916000003
 20
335025.6950000003
 10
6489.045800000429
 20
335025.5680999998
 10
6489.095599999652
 20
335025.4394000006
 10
6489.140999999829
 20
335025.3091000002
 10
6489.1819000002
 20
335025.1773000006
 10
6489.218100000172
 20
335025.0441999995
 10
6489.58690000046
 20
335023.5927000009
1001
AcMap_E615D161-C9D7-11d3-839F-0060B0FB6B57
1071
        1
1071
       23
  0
LINE
  5
E31
330
1F
100
AcDbEntity
  8
Straßenverlauf_FBRD
100
AcDbLine
 10
6484.960199999623
 20
335028.0429999996
 30
0.0
 11
6484.835099999793
 21
335028.0270000008
 31
0.0
1001
AcMap_E615D161-C9D7-11d3-839F-0060B0FB6B57
1071
        1
1071
       23
  0
LINE
  5
E32
330
1F
100
AcDbEntity
  8
Straßenverlauf_FBRD
100
AcDbLine
 10
6494.967699999921
 20
335035.1667999998
 30
0.0
 11
6495.463899999856
 21
335035.2301000003
 31
0.0
1001
AcMap_E615D161-C9D7-11d3-839F-0060B0FB6B57
1071
        1
1071
       23
  0
LWPOLYLINE
  5
E33
330
1F
100
AcDbEntity
  8
Straßenverlauf_FBRD
100
AcDbPolyline
 90
        6
 70
     0
 43
0.0
 10
6495.463899999856
 20
335035.2301000003
 10
6523.635599999689
 20
335038.8246999998
 10
6536.012699999847
 20
335040.5614
 10
6537.501000000164
 20
335040.7892000005
 10
6549.87750000041
 20
335042.5258000009
 10
6573.617499999702
 20
335045.5548999999
1001
AcMap_E615D161-C9D7-11d3-839F-0060B0FB6B57
1071
        1
1071
       23
  0
LWPOLYLINE
  5
E34
330
1F
100
AcDbEntity
  8
Straßenverlauf_FBRD
100
AcDbPolyline
 90
      190
 70
     0
 43
0.0
 10
6694.226999999955
 20
335035.4025999997
 10
6694.312199999578
 20
335022.6698000003
 10
6694.311800000258
 20
335022.6316999998
 10
6694.309999999591
 20
335022.5935999993
 10
6694.30700000003
 20
335022.5556000006
 10
6694.302699999884
 20
335022.5177999996
 10
6694.297000000253
 20
335022.4801000003
 10
6694.290000000037
 20
335022.4427000005
 10
6694.281799999997
 20
335022.4055000004
 10
6694.272199999542
 20
335022.3685999997
 10
6694.261400000192
 20
335022.3321000002
 10
6694.249400000088
 20
335022.2959000003
 10
6694.235999999567
 20
335022.2602999993
 10
6694.221499999985
 20
335022.2249999997
 10
6694.205799999647
 20
335022.1904000007
 10
6694.188799999654
 20
335022.1561999992
 10
6694.170699999668
 20
335022.1227000002
 10
6694.151399999857
 20
335022.0899000001
 10
6694.131099999882
 20
335022.0577000007
 10
6694.109600000084
 20
335022.0262000002
 10
6694.08700000029
 20
335021.9955000002
 10
6694.063400000334
 20
335021.9656000007
 10
6694.038700000382
 20
335021.9365999997
 10
6694.013100000098
 20
335021.9083999992
 10
6693.98649999965
 20
335021.8811000008
 10
6693.958999999799
 20
335021.8548000008
 10
6693.930599999614
 20
335021.8293999993
 10
6693.901300000027
 20
335021.8049999997
 10
6693.871199999936
 20
335021.7817000002
 10
6693.840300000272
 20
335021.7594000008
 10
6693.808699999935
 20
335021.7381999996
 10
6693.776300000028
 20
335021.7181000002
 10
6693.743300000206
 20
335021.6991000008
 10
6693.709599999711
 20
335021.6812999994
 10
6693.675300000236
 20
335021.6646999996
 10
6693.640499999746
 20
335021.6491999999
 10
6693.605200000106
 20
335021.6349999998
 10
6693.569400000386
 20
335021.6219999995
 10
6693.533099999651
 20
335021.6103000008
 10
6693.496500000357
 20
335021.5998
 10
6693.459499999881
 20
335021.5906000007
 10
6693.422299999745
 20
335021.5826999992
 10
6693.384800000116
 20
335021.5759999995
 10
6693.347000000066
 20
335021.5706999991
 10
6693.309200000019
 20
335021.5667000004
 10
6693.271200000308
 20
335021.5639999993
 10
6693.233099999837
 20
335021.5625999999
 10
6693.195000000298
 20
335021.5625
 10
6693.156899999827
 20
335021.5637999997
 10
6693.118900000118
 20
335021.5664000008
 10
6693.081000000238
 20
335021.5702999998
 10
6693.043300000019
 20
335021.5755000003
 10
6693.005699999631
 20
335021.5820000004
 10
6692.968399999663
 20
335021.5898000002
 10
6692.931499999947
 20
335021.5987999998
 10
6692.894799999892
 20
335021.6092000008
 10
6692.858500000089
 20
335021.6207999997
 10
6692.822700000369
 20
335021.6337000001
 10
6692.787299999968
 20
335021.6478000004
 10
6692.752399999648
 20
335021.6631000005
 10
6692.718100000172
 20
335021.6796000004
 10
6692.684299999848
 20
335021.6973000001
 10
6692.651200000196
 20
335021.7161999997
 10
6692.618800000288
 20
335021.7361999992
 10
6692.587100000121
 20
335021.7573000007
 10
6692.556099999696
 20
335021.7795000002
 10
6692.525899999775
 20
335021.8026999999
 10
6692.496600000187
 20
335021.8269999996
 10
6692.468100000173
 20
335021.8522999995
 10
6692.44049999956
 20
335021.8784999996
 10
6692.413800000213
 20
335021.9057
 10
6692.388100000099
 20
335021.9338000008
 10
6692.363400000147
 20
335021.9627999999
 10
6692.339599999598
 20
335021.9925999996
 10
6692.316999999807
 20
335022.0231999998
 10
6692.295400000178
 20
335022.0546000004
 10
6692.274899999612
 20
335022.0866999999
 10
6692.25549999997
 20
335022.1195
 10
6692.237300000154
 20
335022.1530000009
 10
6692.220200000331
 20
335022.1870000009
 10
6692.204400000162
 20
335022.2216999997
 10
6692.189699999989
 20
335022.2567999997
 10
6692.176300000399
 20
335022.2925000005
 10
6692.164099999704
 20
335022.3286000006
 10
6692.153099999763
 20
335022.3651000001
 10
6692.143500000239
 20
335022.4019000009
 10
6692.135099999607
 20
335022.4390999992
 10
6692.12799999956
 20
335022.4765000008
 10
6692.122200000099
 20
335022.5142000001
 10
6692.117800000123
 20
335022.5519999992
 10
6690.827899999916
 20
335035.3362000007
 10
6690.825799999759
 20
335035.3618999999
 10
6690.824500000104
 20
335035.3877000008
 10
6690.824099999852
 20
335035.4134999998
 10
6690.824599999935
 20
335035.4392000009
 10
6690.826000000351
 20
335035.4649999998
 10
6690.828300000169
 20
335035.4907000009
 10
6690.83150000032
 20
335035.5163000003
 10
6690.835500000045
 20
335035.5416999999
 10
6690.840400000102
 20
335035.5670999996
 10
6690.846199999564
 20
335035.5921999998
 10
6690.852900000288
 20
335035.6171000004
 10
6690.860399999656
 20
335035.6417999994
 10
6690.868700000457
 20
335035.6662000008
 10
6690.877899999731
 20
335035.6903000009
 10
6690.887900000437
 20
335035.7139999997
 10
6690.898699999786
 20
335035.7375000008
 10
6690.910299999639
 20
335035.7605000008
 10
6690.922699999996
 20
335035.7830999997
 10
6690.935800000094
 20
335035.8052999992
 10
6690.949699999764
 20
335035.8269999996
 10
6690.964399999939
 20
335035.8482000009
 10
6690.979799999856
 20
335035.8688999993
 10
6690.995799999685
 20
335035.8891000003
 10
6691.012600000016
 20
335035.9087000005
 10
6691.03000000026
 20
335035.9276999999
 10
6691.048100000248
 20
335035.9461000003
 10
6691.066800000147
 20
335035.9638
 10
6691.086000000126
 20
335035.9810000006
 10
6691.10589999985
 20
335035.9974000007
 10
6691.126299999654
 20
335036.0132
 10
6691.147300000302
 20
335036.0282000006
 10
6691.168700000272
 20
335036.0425000005
 10
6691.190700000152
 20
335036.0560999997
 10
6691.213000000455
 20
335036.0689000003
 10
6691.235799999907
 20
335036.0809000004
 10
6691.259100000374
 20
335036.0921
 10
6691.282599999569
 20
335036.1026000008
 10
6691.306599999778
 20
335036.1121999994
 10
6691.330799999647
 20
335036.1208999995
 10
6691.355299999938
 20
335036.1289000009
 10
6691.380099999718
 20
335036.1359999999
 10
6691.405199999922
 20
335036.1422000006
 10
6691.430399999953
 20
335036.1476000008
 10
6691.455799999648
 20
335036.1521000006
 10
6691.481300000102
 20
335036.1557
 10
6691.506900000385
 20
335036.1585000009
 10
6691.53259999957
 20
335036.1603999995
 10
6691.558400000445
 20
335036.1613999996
 10
6691.584200000391
 20
335036.1613999996
 10
6691.610000000335
 20
335036.1607000009
 10
6692.223799999803
 20
335036.1395999995
 10
6692.838000000455
 20
335036.1350999996
 10
6693.452100000344
 20
335036.1471999996
 10
6693.47819999978
 20
335036.1476000008
 10
6693.504200000316
 20
335036.1470999998
 10
6693.530199999921
 20
335036.1457000003
 10
6693.556200000458
 20
335036.1434000004
 10
6693.582000000403
 20
335036.1402000003
 10
6693.607699999586
 20
335036.1360999998
 10
6693.633299999871
 20
335036.1312000007
 10
6693.658699999564
 20
335036.1252999995
 10
6693.683799999766
 20
335036.1185999997
 10
6693.708700000309
 20
335036.1108999998
 10
6693.733300000428
 20
335036.1024999991
 10
6693.757699999958
 20
335036.0931000002
 10
6693.781600000336
 20
335036.0830000006
 10
6693.805200000294
 20
335036.0720000006
 10
6693.828499999828
 20
335036.0602000002
 10
6693.851200000382
 20
335036.0475999992
 10
6693.873599999584
 20
335036.0341999997
 10
6693.895399999805
 20
335036.0200999994
 10
6693.916799999773
 20
335036.0052000005
 10
6693.937599999831
 20
335035.9894999993
 10
6693.957899999805
 20
335035.9732000008
 10
6693.977599999867
 20
335035.9561000001
 10
6693.996700000018
 20
335035.9384000004
 10
6694.015100000426
 20
335035.9200999998
 10
6694.032999999821
 20
335035.9011000004
 10
6694.050099999644
 20
335035.8815000002
 10
6694.066599999555
 20
335035.861300001
 10
6694.082299999893
 20
335035.8405000009
 10
6694.097299999558
 20
335035.8191999998
 10
6694.111600000411
 20
335035.7974999994
 10
6694.12509999983
 20
335035.7752000001
 10
6694.137799999677
 20
335035.7524999995
 10
6694.149699999951
 20
335035.7292999998
 10
6694.160799999721
 20
335035.7058000006
 10
6694.17109999992
 20
335035.6818000004
 10
6694.180499999784
 20
335035.6576000005
 10
6694.189100000077
 20
335035.6329999995
 10
6694.196899999865
 20
335035.6081000008
 10
6694.203800000249
 20
335035.5830000006
 10
6694.209800000303
 20
335035.5577000007
 10
6694.214900000021
 20
335035.5320999995
 10
6694.219100000336
 20
335035.5064000003
 10
6694.222400000319
 20
335035.4805999995
 10
6694.224899999797
 20
335035.4547000006
 10
6694.226400000044
 20
335035.4287
 10
6694.226999999955
 20
335035.4025999997
1001
AcMap_E615D161-C9D7-11d3-839F-0060B0FB6B57
1071
        1
1071
       23
  0
LWPOLYLINE
  5
E35
330
1F
100
AcDbEntity
  8
Straßenverlauf_FBRD
100
AcDbPolyline
 90
        3
 70
     0
 43
0.0
 10
6573.617499999702
 20
335045.5548999999
 10
6573.939299999736
 20
335045.5958999992
 10
6573.945000000297
 20
335045.5966999997
1001
AcMap_E615D161-C9D7-11d3-839F-0060B0FB6B57
1071
        1
1071
       23
  0
LINE
  5
E36
330
1F
100
AcDbEntity
  8
Straßenverlauf_FBRD
100
AcDbLine
 10
6582.624200000427
 20
335046.7237999998
 30
0.0
 11
6582.721199999564
 21
335046.7370999996
 31
0.0
1001
AcMap_E615D161-C9D7-11d3-839F-0060B0FB6B57
1071
        1
1071
       23
  0
LWPOLYLINE
  5
E37
330
1F
100
AcDbEntity
  8
Straßenverlauf_FBRD
100
AcDbPolyline
 90
        3
 70
     0
 43
0.0
 10
6582.721199999564
 20
335046.7370999996
 10
6582.807699999772
 20
335046.7477000002
 10
6600.019500000403
 20
335049.0984000006
1001
AcMap_E615D161-C9D7-11d3-839F-0060B0FB6B57
1071
        1
1071
       23
  0
LINE
  5
E38
330
1F
100
AcDbEntity
  8
Straßenverlauf_FBRD
100
AcDbLine
 10
6582.774799999781
 20
335046.7825000007
 30
0.0
 11
6600.019500000403
 21
335049.0984000006
 31
0.0
1001
AcMap_E615D161-C9D7-11d3-839F-0060B0FB6B57
1071
        1
1071
       23
  0
LWPOLYLINE
  5
E39
330
1F
100
AcDbEntity
  8
Straßenverlauf_FBRD
100
AcDbPolyline
 90
       99
 70
     0
 43
0.0
 10
6600.019500000403
 20
335049.0984000006
 10
6600.391699999571
 20
335049.1509000008
 10
6616.488499999977
 20
335051.6887999996
 10
6632.493999999948
 20
335054.7500000001
 10
6657.444199999794
 20
335059.9448000006
 10
6658.29360000044
 20
335060.1371
 10
6659.13580000028
 20
335060.3588999994
 10
6659.969800000078
 20
335060.6098999996
 10
6660.794499999844
 20
335060.8899000008
 10
6661.609000000172
 20
335061.1983000003
 10
6662.412200000138
 20
335061.5350000002
 10
6663.203200000338
 20
335061.8993999996
 10
6663.981100000441
 20
335062.2912000008
 10
6664.744800000452
 20
335062.7097999994
 10
6665.493400000035
 20
335063.1546999998
 10
6666.226200000384
 20
335063.6254999991
 10
6666.942099999636
 20
335064.1215000004
 10
6667.640200000256
 20
335064.6422000006
 10
6668.319799999706
 20
335065.1867999994
 10
6668.980100000277
 20
335065.7547999993
 10
6669.620099999942
 20
335066.3454
 10
6670.23919999972
 20
335066.9580000006
 10
6670.836600000038
 20
335067.5917000007
 10
6671.411500000394
 20
335068.2458999995
 10
6671.963299999944
 20
335068.9197000005
 10
6672.491299999878
 20
335069.6124000009
 10
6672.994800000451
 20
335070.3230000009
 10
6673.473299999722
 20
335071.0506999996
 10
6673.90230000019
 20
335071.7034000009
 10
6674.353500000201
 20
335072.3410999999
 10
6674.826200000011
 20
335072.9628999997
 10
6675.320100000128
 20
335073.5680999998
 10
6675.83440000005
 20
335074.1559999995
 10
6676.368599999697
 20
335074.7259
 10
6676.922000000253
 20
335075.2771000006
 10
6677.494099999778
 20
335075.8090000004
 10
6678.083999999799
 20
335076.3209000007
 10
6678.691200000234
 20
335076.8123000004
 10
6679.314899999649
 20
335077.2825000007
 10
6679.954400000163
 20
335077.7311000005
 10
6680.608900000341
 20
335078.1574000008
 10
6681.277599999681
 20
335078.5611000006
 10
6681.959900000133
 20
335078.9415000007
 10
6682.654699999838
 20
335079.2983
 10
6683.361399999819
 20
335079.6309999991
 10
6684.079099999741
 20
335079.9392000008
 10
6684.800900000148
 20
335080.2204
 10
6684.807000000031
 20
335080.2226999999
 10
6685.217199999839
 20
335080.3826000002
 10
6685.627600000239
 20
335080.5591000002
 10
6686.031799999998
 20
335080.7495000009
 10
6686.429100000299
 20
335080.9538000003
 10
6686.819199999795
 20
335081.1714999993
 10
6687.201600000261
 20
335081.4024999999
 10
6687.575799999759
 20
335081.6466000006
 10
6687.941399999894
 20
335081.9033000004
 10
6688.298000000417
 20
335082.1724999994
 10
6688.645100000314
 20
335082.4537000005
 10
6688.982400000096
 20
335082.7467000001
 10
6689.309399999678
 20
335083.0512000006
 10
6689.625699999742
 20
335083.3666999992
 10
6689.930999999866
 20
335083.6928000003
 10
6690.224899999797
 20
335084.0293000005
 10
6690.507100000046
 20
335084.3757000007
 10
6690.77720000036
 20
335084.7314999998
 10
6691.035000000148
 20
335085.0965
 10
6691.280000000261
 20
335085.4700000007
 10
6691.512000000104
 20
335085.8518000003
 10
6691.730800000019
 20
335086.2412999999
 10
6691.936099999584
 20
335086.6381000001
 10
6692.12770000007
 20
335087.0416999999
 10
6692.305200000294
 20
335087.4517000001
 10
6692.468600000255
 20
335087.8674999997
 10
6692.617499999702
 20
335088.2886999995
 10
6692.751899999567
 20
335088.7148000002
 10
6692.871600000188
 20
335089.1451999992
 10
6692.976499999874
 20
335089.579500001
 10
6693.066300000063
 20
335090.0171000008
 10
6696.385400000028
 20
335107.7237999998
 10
6697.027499999851
 20
335111.4771999996
 10
6697.550200000406
 20
335115.2489999999
 10
6697.952899999916
 20
335119.0354999993
 10
6698.235299999826
 20
335122.8328000009
 10
6698.397099999711
 20
335126.6372999996
 10
6698.438099999911
 20
335130.4449000005
 10
6698.358199999667
 20
335134.2519000005
 10
6698.15759999957
 20
335138.0545000006
 10
6697.773799999616
 20
335142.6057999991
 10
6697.248599999584
 20
335147.1428999995
 10
6696.582399999723
 20
335151.6614999995
 10
6695.775899999775
 20
335156.1570999995
 10
6694.829900000245
 20
335160.6254999992
 10
6693.745199999772
 20
335165.0623000003
 10
6692.523099999874
 20
335169.4630999994
 10
6689.413399999961
 20
335180.0206000004
 10
6686.032399999909
 20
335192.0523000006
 10
6685.643099999987
 20
335193.5068999995
 10
6682.262000000104
 20
335205.5390000008
 10
6679.507000000215
 20
335214.8922000007
1001
AcMap_E615D161-C9D7-11d3-839F-0060B0FB6B57
1071
        1
1071
       23
  0
LWPOLYLINE
  5
E3A
330
1F
100
AcDbEntity
  8
Straßenverlauf_FBRD
100
AcDbPolyline
 90
       51
 70
     0
 43
0.0
 10
6574.719399999827
 20
335052.7748000008
 10
6575.730100000277
 20
335048.6265999992
 10
6575.748999999835
 20
335048.5428
 10
6575.764999999664
 20
335048.4584999998
 10
6575.778099999763
 20
335048.3736000005
 10
6575.7882000003
 20
335048.2884
 10
6575.795500000008
 20
335048.2028000001
 10
6575.799800000154
 20
335048.1171000004
 10
6575.801099999807
 20
335048.0311999992
 10
6575.799499999732
 20
335047.9453999997
 10
6575.794999999925
 20
335047.8596000001
 10
6575.787499999627
 20
335047.7741000001
 10
6575.7770999996
 20
335047.6888999995
 10
6575.76370000001
 20
335047.6041000001
 10
6575.74749999959
 20
335047.5197999999
 10
6575.728400000371
 20
335047.4361000006
 10
6575.706399999559
 20
335047.3531
 10
6575.681599999779
 20
335047.2708999999
 10
6575.653900000268
 20
335047.1896000002
 10
6575.623499999754
 20
335047.1093000006
 10
6575.590400000102
 20
335047.0300999992
 10
6575.55449999962
 20
335046.9520999995
 10
6575.515999999828
 20
335046.8752999995
 10
6575.474899999797
 20
335046.8000000008
 10
6575.431200000457
 20
335046.7260999997
 10
6575.384999999776
 20
335046.6536999997
 10
6575.336400000378
 20
335046.5829000008
 10
6575.285299999639
 20
335046.5139000006
 10
6575.231900000014
 20
335046.4466999993
 10
6575.176300000399
 20
335046.3813000005
 10
6575.118400000036
 20
335046.3179000002
 10
6575.058299999684
 20
335046.2565000002
 10
6574.996199999936
 20
335046.1972000003
 10
6574.932199999691
 20
335046.1401000005
 10
6574.866100000217
 20
335046.0852000006
 10
6574.798299999908
 20
335046.0326000006
 10
6574.728600000032
 20
335045.9824000001
 10
6574.65730000008
 20
335045.9345999994
 10
6574.58440000005
 20
335045.8893
 10
6574.509999999776
 20
335045.8465
 10
6574.434100000188
 20
335045.8061999996
 10
6574.356900000013
 20
335045.7687
 10
6574.278500000016
 20
335045.7336999998
 10
6574.198900000192
 20
335045.7015000004
 10
6574.118300000205
 20
335045.6721000001
 10
6574.036600000225
 20
335045.6454000008
 10
6573.954199999571
 20
335045.6216000002
 10
6573.870900000446
 20
335045.6006000005
 10
6573.786999999545
 20
335045.5823999997
 10
6573.702499999665
 20
335045.5671999995
 10
6573.617499999702
 20
335045.5548999999
1001
AcMap_E615D161-C9D7-11d3-839F-0060B0FB6B57
1071
        1
1071
       23
  0
LWPOLYLINE
  5
E3B
330
1F
100
AcDbEntity
  8
Straßenverlauf_FBRD
100
AcDbPolyline
 90
       43
 70
     0
 43
0.0
 10
6578.799999999813
 20
335053.7689999994
 10
6580.051199999637
 20
335048.6341999993
 10
6580.073300000281
 20
335048.5500000008
 10
6580.098299999722
 20
335048.4666000009
 10
6580.126199999824
 20
335048.3840999995
 10
6580.156999999657
 20
335048.3026000001
 10
6580.190499999559
 20
335048.2223000005
 10
6580.226900000124
 20
335048.1431000009
 10
6580.265999999828
 20
335048.0653000008
 10
6580.307799999602
 20
335047.9889000002
 10
6580.352199999615
 20
335047.9140000008
 10
6580.399199999868
 20
335047.8406000007
 10
6580.4486999996
 20
335047.7689999994
 10
6580.500699999742
 20
335047.6991000008
 10
6580.554999999702
 20
335047.6311000008
 10
6580.611800000072
 20
335047.5649999995
 10
6580.670800000429
 20
335047.5010000002
 10
6580.731900000014
 20
335047.4389999993
 10
6580.795300000348
 20
335047.3792000003
 10
6580.860600000247
 20
335047.3215999995
 10
6580.927899999544
 20
335047.2664000001
 10
6580.997100000271
 20
335047.2135000006
 10
6581.0680999998
 20
335047.1631000005
 10
6581.140800000169
 20
335047.1151000001
 10
6581.215200000443
 20
335047.0698000007
 10
6581.2910000002
 20
335047.0270000008
 10
6581.368400000036
 20
335046.9868999999
 10
6581.446999999695
 20
335046.9496
 10
6581.52699999977
 20
335046.9149999991
 10
6581.608000000007
 20
335046.8831999992
 10
6581.690200000069
 20
335046.8542
 10
6581.773299999536
 20
335046.8280999996
 10
6581.857200000435
 20
335046.8049999997
 10
6581.941899999977
 20
335046.7847000007
 10
6582.02730000019
 20
335046.7675000001
 10
6582.113199999556
 20
335046.7532000002
 10
6582.199500000104
 20
335046.7419000008
 10
6582.286199999973
 20
335046.7335999999
 10
6582.373200000263
 20
335046.7283999995
 10
6582.460199999623
 20
335046.7261999995
 10
6582.547299999744
 20
335046.727
 10
6582.634300000035
 20
335046.7309000008
 10
6582.721199999564
 20
335046.7370999996
1001
AcMap_E615D161-C9D7-11d3-839F-0060B0FB6B57
1071
        1
1071
       23
  0
LWPOLYLINE
  5
E3C
330
1F
100
AcDbEntity
  8
Straßenverlauf_FBRD
100
AcDbPolyline
 90
      190
 70
     0
 43
0.0
 10
6669.503600000403
 20
335054.9085000009
 10
6656.849399999716
 20
335053.4929000009
 10
6656.811400000006
 20
335053.4892999995
 10
6656.773400000297
 20
335053.4870999996
 10
6656.735299999827
 20
335053.4860999994
 10
6656.697200000286
 20
335053.4865000006
 10
6656.659199999646
 20
335053.4881999996
 10
6656.621199999936
 20
335053.4912
 10
6656.583300000057
 20
335053.4955000002
 10
6656.545699999668
 20
335053.5011
 10
6656.50820000004
 20
335053.5080999993
 10
6656.470999999903
 20
335053.5163000003
 10
6656.434100000187
 20
335053.525800001
 10
6656.397599999793
 20
335053.5365999994
 10
6656.36139999982
 20
335053.5485999994
 10
6656.325699999928
 20
335053.5618999991
 10
6656.290500000119
 20
335053.5764000007
 10
6656.255800000391
 20
335053.5921
 10
6656.221699999645
 20
335053.6089999993
 10
6656.188199999743
 20
335053.6271000001
 10
6656.155299999752
 20
335053.6464000009
 10
6656.123100000434
 20
335053.6667
 10
6656.091599999927
 20
335053.6882000007
 10
6656.060899999925
 20
335053.7106999997
 10
6656.031000000425
 20
335053.7343000006
 10
6656.001899999566
 20
335053.7588999998
 10
6655.973699999973
 20
335053.7844999992
 10
6655.946399999783
 20
335053.8111000005
 10
6655.919999999925
 20
335053.8386000004
 10
6655.894600000232
 20
335053.8670000006
 10
6655.870199999772
 20
335053.8962999993
 10
6655.846900000238
 20
335053.9263000004
 10
6655.824500000105
 20
335053.9572000001
 10
6655.803299999796
 20
335053.9888000005
 10
6655.783200000413
 20
335054.0211999994
 10
6655.764200000092
 20
335054.0541999992
 10
6655.746399999596
 20
335054.0878999997
 10
6655.729700000026
 20
335054.1220999994
 10
6655.714200000279
 20
335054.1568999999
 10
6655.700000000186
 20
335054.1922999993
 10
6655.686900000088
 20
335054.2281
 10
6655.675200000406
 20
335054.2642999999
 10
6655.664699999616
 20
335054.3008999993
 10
6655.655399999581
 20
335054.3378999997
 10
6655.647499999962
 20
335054.3750999999
 10
6655.640800000168
 20
335054.4125999995
 10
6655.635499999859
 20
335054.4503000006
 10
6655.631400000304
 20
335054.4881999996
 10
6655.628700000234
 20
335054.5262000002
 10
6655.627299999818
 20
335054.5643000007
 10
6655.627199999988
 20
335054.6023999993
 10
6655.628399999812
 20
335054.6404999998
 10
6655.630900000222
 20
335054.6785000004
 10
6655.634800000116
 20
335054.7163999993
 10
6655.639999999664
 20
335054.7541000005
 10
6655.646399999969
 20
335054.7917
 10
6655.654199999758
 20
335054.8289999999
 10
6655.663300000131
 20
335054.8660000004
 10
6655.67360000033
 20
335054.9025999997
 10
6655.685200000182
 20
335054.9388999995
 10
6655.697999999858
 20
335054.9748
 10
6655.71210000012
 20
335055.0101999995
 10
6655.727400000206
 20
335055.0450999998
 10
6655.743900000118
 20
335055.0793999993
 10
6655.761599999853
 20
335055.1131999996
 10
6655.780399999581
 20
335055.1462999992
 10
6655.800400000065
 20
335055.1787000001
 10
6655.821399999783
 20
335055.2104000003
 10
6655.843600000254
 20
335055.2413999997
 10
6655.86679999996
 20
335055.2716000006
 10
6655.891099999658
 20
335055.3010000009
 10
6655.916299999692
 20
335055.329500001
 10
6655.942599999718
 20
335055.3571000006
 10
6655.969700000248
 20
335055.3838999998
 10
6655.997800000012
 20
335055.4096000009
 10
6656.026800000109
 20
335055.4343999997
 10
6656.056499999948
 20
335055.4581000004
 10
6656.087100000121
 20
335055.4807999991
 10
6656.118499999866
 20
335055.5023999997
 10
6656.150600000285
 20
335055.5229000003
 10
6656.183400000445
 20
335055.5423000008
 10
6656.216799999588
 20
335055.5605999995
 10
6656.250900000334
 20
335055.5777000002
 10
6656.285500000231
 20
335055.5935999994
 10
6656.32060000021
 20
335055.6082000006
 10
6656.356300000101
 20
335055.6217000001
 10
6656.392400000244
 20
335055.6338999998
 10
6656.428799999878
 20
335055.6448999998
 10
6656.465699999593
 20
335055.6546
 10
6656.5027999999
 20
335055.6630000007
 10
6669.082200000062
 20
335058.2820999995
 10
6669.107599999755
 20
335058.2869000007
 10
6669.13300000038
 20
335058.2907999996
 10
6669.158599999732
 20
335058.2939
 10
6669.184299999848
 20
335058.2960999999
 10
6669.210099999793
 20
335058.2973999996
 10
6669.235899999738
 20
335058.2978000008
 10
6669.261599999853
 20
335058.2972999998
 10
6669.287399999797
 20
335058.2960000001
 10
6669.313099999913
 20
335058.2937000003
 10
6669.338700000196
 20
335058.2906
 10
6669.364199999719
 20
335058.2865999993
 10
6669.389499999583
 20
335058.2818
 10
6669.414599999786
 20
335058.2760000005
 10
6669.439500000328
 20
335058.2694000006
 10
6669.464200000279
 20
335058.2620000002
 10
6669.488599999808
 20
335058.2536999993
 10
6669.512799999677
 20
335058.2445000001
 10
6669.536500000394
 20
335058.2346000001
 10
6669.559999999591
 20
335058.2237999998
 10
6669.582999999635
 20
335058.2122000009
 10
6669.60570000019
 20
335058.1998999994
 10
6669.62789999973
 20
335058.1867999994
 10
6669.64960000012
 20
335058.1729000006
 10
6669.670800000429
 20
335058.1582999993
 10
6669.691599999554
 20
335058.1428999994
 10
6669.711699999869
 20
335058.1269000005
 10
6669.731399999931
 20
335058.1100999992
 10
6669.750400000252
 20
335058.0928000007
 10
6669.768799999729
 20
335058.0746999998
 10
6669.786600000225
 20
335058.0560999997
 10
6669.803799999877
 20
335058.0368000009
 10
6669.820199999958
 20
335058.0170000009
 10
6669.836000000127
 20
335057.9966000002
 10
6669.851099999622
 20
335057.9756000005
 10
6669.865399999544
 20
335057.9541999996
 10
6669.878999999724
 20
335057.9322999995
 10
6669.891900000163
 20
335057.9099000004
 10
6669.903900000267
 20
335057.8871999998
 10
6669.915199999697
 20
335057.8640000001
 10
6669.925699999556
 20
335057.8403999992
 10
6669.935300000012
 20
335057.8165000007
 10
6669.944099999963
 20
335057.7923000008
 10
6669.952100000344
 20
335057.7676999998
 10
6669.959300000221
 20
335057.7430000007
 10
6669.965499999932
 20
335057.7179000005
 10
6669.970999999903
 20
335057.6927000005
 10
6669.97549999971
 20
335057.6674000006
 10
6669.979199999943
 20
335057.6417999994
 10
6669.981999999844
 20
335057.6162000001
 10
6669.983900000341
 20
335057.5905000009
 10
6670.027099999599
 20
335056.9778000005
 10
6670.086799999698
 20
335056.3664999996
 10
6670.16309999954
 20
335055.7569999993
 10
6670.166199999862
 20
335055.7311000005
 10
6670.168399999849
 20
335055.7051999998
 10
6670.169800000265
 20
335055.6791999992
 10
6670.170199999586
 20
335055.6532000005
 10
6670.169700000435
 20
335055.6271000002
 10
6670.16830000002
 20
335055.6010999997
 10
6670.1660000002
 20
335055.5752000008
 10
6670.162899999879
 20
335055.5493000001
 10
6670.158800000326
 20
335055.5236000009
 10
6670.153800000436
 20
335055.4979999997
 10
6670.148000000044
 20
335055.4726999998
 10
6670.141200000419
 20
335055.4474999998
 10
6670.133600000292
 20
335055.4225999993
 10
6670.12519999966
 20
335055.3980000001
 10
6670.115899999626
 20
335055.3736000005
 10
6670.105700000189
 20
335055.3497000002
 10
6670.094700000248
 20
335055.3259999994
 10
6670.082999999634
 20
335055.3027999997
 10
6670.07039999962
 20
335055.2799999994
 10
6670.05700000003
 20
335055.2577
 10
6670.042899999768
 20
335055.2358
 10
6670.027999999932
 20
335055.2144000009
 10
6670.012299999595
 20
335055.1936000009
 10
6669.996000000276
 20
335055.1732999999
 10
6669.979000000283
 20
335055.1535999998
 10
6669.961299999617
 20
335055.1345000007
 10
6669.94290000014
 20
335055.1161000002
 10
6669.92389999982
 20
335055.0982000009
 10
6669.904299999586
 20
335055.0811000001
 10
6669.884200000204
 20
335055.0646000002
 10
6669.863400000147
 20
335055.0489000008
 10
6669.84210000001
 20
335055.0338000004
 10
6669.820399999618
 20
335055.0196000003
 10
6669.798100000247
 20
335055.0061000009
 10
6669.775399999693
 20
335054.9933000002
 10
6669.752199999988
 20
335054.9813999999
 10
6669.728699999861
 20
335054.9703000002
 10
6669.704800000414
 20
335054.960000001
 10
6669.680499999784
 20
335054.9505000003
 10
6669.655899999664
 20
335054.9419
 10
6669.631099999882
 20
335054.9341000002
 10
6669.605999999679
 20
335054.9273000006
 10
6669.580599999986
 20
335054.9211999998
 10
6669.555100000464
 20
335054.9160999992
 10
6669.529400000349
 20
335054.9119000007
 10
6669.503600000403
 20
335054.9085000009
1001
AcMap_E615D161-C9D7-11d3-839F-0060B0FB6B57
1071
        1
1071
       23
  0
LWPOLYLINE
  5
E3D
330
1F
100
AcDbEntity
  8
Straßenverlauf_FBRD
100
AcDbPolyline
 90
       73
 70
     0
 43
0.0
 10
6707.196999999695
 20
335058.8847000003
 10
6707.141900000163
 20
335060.1483999994
 10
6706.976800000295
 20
335061.4025999997
 10
6706.702999999747
 20
335062.6374999992
 10
6706.322599999606
 20
335063.8440000005
 10
6705.838499999605
 20
335065.0125999991
 10
6705.254399999976
 20
335066.1347000003
 10
6704.574699999764
 20
335067.2015000004
 10
6703.804700000212
 20
335068.2050999999
 10
6702.950100000016
 20
335069.1377000008
 10
6702.017500000074
 20
335069.9923
 10
6701.013899999671
 20
335070.7623999995
 10
6699.946999999695
 20
335071.4419999999
 10
6698.825000000187
 20
335072.0261000004
 10
6697.656299999914
 20
335072.5101999995
 10
6696.449900000356
 20
335072.8905999996
 10
6695.214900000021
 20
335073.1644000001
 10
6693.960799999534
 20
335073.3295000009
 10
6692.696999999694
 20
335073.3847000003
 10
6691.433299999684
 20
335073.3295000009
 10
6690.1791000003
 20
335073.1644000001
 10
6688.944199999794
 20
335072.8905999996
 10
6687.737700000406
 20
335072.5101999995
 10
6686.569099999964
 20
335072.0261000004
 10
6685.446999999695
 20
335071.4419999999
 10
6684.380199999549
 20
335070.7623999995
 10
6683.376600000077
 20
335069.9923
 10
6682.444000000135
 20
335069.1377000008
 10
6681.589399999939
 20
335068.2050999999
 10
6680.819299999625
 20
335067.2015000004
 10
6680.139700000174
 20
335066.1347000003
 10
6679.555599999614
 20
335065.0125999991
 10
6679.071499999612
 20
335063.8440000005
 10
6678.691100000404
 20
335062.6374999992
 10
6678.417299999856
 20
335061.4025999997
 10
6678.252199999988
 20
335060.1483999994
 10
6678.196999999695
 20
335058.8847000003
 10
6678.252199999988
 20
335057.6208999996
 10
6678.417299999856
 20
335056.3668000009
 10
6678.691100000404
 20
335055.1317999997
 10
6679.071499999612
 20
335053.9254000001
 10
6679.555599999614
 20
335052.7566999998
 10
6680.139700000174
 20
335051.6347000003
 10
6680.819299999625
 20
335050.5678000003
 10
6681.589399999939
 20
335049.5643000007
 10
6682.444000000135
 20
335048.6316
 10
6683.376600000077
 20
335047.7770000007
 10
6684.380199999549
 20
335047.0069999993
 10
6685.446999999695
 20
335046.3272999991
 10
6686.569099999964
 20
335045.7432000004
 10
6687.737700000406
 20
335045.2590999995
 10
6688.944199999794
 20
335044.8786999994
 10
6690.1791000003
 20
335044.6050000004
 10
6691.433299999684
 20
335044.4398999997
 10
6692.696999999694
 20
335044.3847000003
 10
6693.960799999534
 20
335044.4398999997
 10
6695.214900000021
 20
335044.6050000004
 10
6696.449900000356
 20
335044.8786999994
 10
6697.656299999914
 20
335045.2590999995
 10
6698.825000000187
 20
335045.7432000004
 10
6699.946999999695
 20
335046.3272999991
 10
6701.013899999671
 20
335047.0069999993
 10
6702.017500000074
 20
335047.7770000007
 10
6702.950100000016
 20
335048.6316
 10
6703.804700000212
 20
335049.5643000007
 10
6704.574699999764
 20
335050.5678000003
 10
6705.254399999976
 20
335051.6347000003
 10
6705.838499999605
 20
335052.7566999998
 10
6706.322599999606
 20
335053.9254000001
 10
6706.702999999747
 20
335055.1317999997
 10
6706.976800000295
 20
335056.3668000009
 10
6707.141900000163
 20
335057.6208999996
 10
6707.196999999695
 20
335058.8847000003
1001
AcMap_E615D161-C9D7-11d3-839F-0060B0FB6B57
1071
        1
1071
       23
  0
LWPOLYLINE
  5
E3E
330
1F
100
AcDbEntity
  8
Straßenverlauf_FBRD
100
AcDbPolyline
 90
      188
 70
     0
 43
0.0
 10
6715.956399999559
 20
335062.4553999994
 10
6728.633399999701
 20
335063.6500000004
 10
6728.671400000341
 20
335063.6528999992
 10
6728.709400000051
 20
335063.6545000002
 10
6728.747499999591
 20
335063.6547999997
 10
6728.785600000062
 20
335063.6537999996
 10
6728.82359999977
 20
335063.6513999999
 10
6728.861499999649
 20
335063.6477000005
 10
6728.899299999699
 20
335063.6427999996
 10
6728.936900000087
 20
335063.6364999991
 10
6728.974200000056
 20
335063.6289000008
 10
6729.011199999601
 20
335063.6199999992
 10
6729.048000000418
 20
335063.6098999996
 10
6729.084300000221
 20
335063.5985000003
 10
6729.120199999773
 20
335063.5857999995
 10
6729.155700000003
 20
335063.5719000008
 10
6729.190700000152
 20
335063.5568000004
 10
6729.225100000388
 20
335063.5404000004
 10
6729.258899999783
 20
335063.5229000002
 10
6729.292100000195
 20
335063.5043000002
 10
6729.324699999764
 20
335063.4845000003
 10
6729.356499999761
 20
335063.4635000006
 10
6729.387600000016
 20
335063.4415000007
 10
6729.417899999768
 20
335063.4184000008
 10
6729.447399999947
 20
335063.3943000008
 10
6729.475999999792
 20
335063.3692000005
 10
6729.503800000064
 20
335063.3431000002
 10
6729.530600000173
 20
335063.3160999995
 10
6729.556499999948
 20
335063.2881000005
 10
6729.581399999559
 20
335063.2592999991
 10
6729.605299999938
 20
335063.2295999993
 10
6729.628100000322
 20
335063.1991000008
 10
6729.649899999611
 20
335063.1678999998
 10
6729.670599999838
 20
335063.1359000001
 10
6729.69020000007
 20
335063.1031999999
 10
6729.708599999547
 20
335063.0699000005
 10
6729.725800000131
 20
335063.0359000005
 10
6729.74189999979
 20
335063.0012999996
 10
6729.756699999794
 20
335062.9662999995
 10
6729.770399999805
 20
335062.9307000004
 10
6729.782800000162
 20
335062.8947000001
 10
6729.793899999932
 20
335062.8582000006
 10
6729.803799999878
 20
335062.8213999998
 10
6729.81240000017
 20
335062.7842999995
 10
6729.819699999876
 20
335062.7468999997
 10
6729.825699999928
 20
335062.7093000002
 10
6729.830400000327
 20
335062.6714999993
 10
6729.833700000309
 20
335062.6336000003
 10
6729.835799999534
 20
335062.5954999998
 10
6729.836600000038
 20
335062.5574999992
 10
6729.836000000126
 20
335062.5194000006
 10
6729.834099999628
 20
335062.4813000001
 10
6729.830900000408
 20
335062.4433999993
 10
6729.82639999967
 20
335062.4055000004
 10
6729.820600000209
 20
335062.3679000009
 10
6729.813400000335
 20
335062.3304999992
 10
6729.804999999702
 20
335062.2932999991
 10
6729.795300000347
 20
335062.2565000001
 10
6729.784400000237
 20
335062.2200000007
 10
6729.772099999711
 20
335062.1839000006
 10
6729.758700000123
 20
335062.1482999996
 10
6729.743999999948
 20
335062.1130999998
 10
6729.72809999995
 20
335062.0785000008
 10
6729.711000000127
 20
335062.0445000008
 10
6729.692699999549
 20
335062.011
 10
6729.673299999908
 20
335061.9781999998
 10
6729.652800000272
 20
335061.9462000002
 10
6729.631199999713
 20
335061.9147999995
 10
6729.60850000009
 20
335061.8841999993
 10
6729.584699999541
 20
335061.8543999996
 10
6729.55999999959
 20
335061.8255000003
 10
6729.534199999645
 20
335061.7973999996
 10
6729.507500000298
 20
335061.7701999992
 10
6729.479899999685
 20
335061.7440000009
 10
6729.451299999841
 20
335061.7186999992
 10
6729.422000000254
 20
335061.6944999993
 10
6729.391800000333
 20
335061.6712999996
 10
6729.360799999908
 20
335061.6491
 10
6729.328999999911
 20
335061.6281000004
 10
6729.296600000002
 20
335061.6081000008
 10
6729.26350000035
 20
335061.5892999992
 10
6729.229700000026
 20
335061.5715999995
 10
6729.195399999618
 20
335061.5550999996
 10
6729.16050000023
 20
335061.5397999995
 10
6729.12509999983
 20
335061.5258000009
 10
6729.089200000278
 20
335061.5129000005
 10
6729.052899999544
 20
335061.5012999997
 10
6729.01630000025
 20
335061.4910000004
 10
6728.979199999944
 20
335061.4820000008
 10
6728.941999999806
 20
335061.4741999991
 10
6716.318799999543
 20
335059.0750999991
 10
6716.29339999985
 20
335059.0706999991
 10
6716.267799999565
 20
335059.0671999995
 10
6716.242200000213
 20
335059.0646000002
 10
6716.216400000266
 20
335059.0627999995
 10
6716.190700000152
 20
335059.0620000009
 10
6716.164900000207
 20
335059.0620000009
 10
6716.139100000262
 20
335059.0628999994
 10
6716.113400000148
 20
335059.0647
 10
6716.087700000032
 20
335059.0673999992
 10
6716.062199999578
 20
335059.0710000004
 10
6716.036799999885
 20
335059.0754000005
 10
6716.011599999852
 20
335059.0807000008
 10
6715.98649999965
 20
335059.0868999996
 10
6715.961699999869
 20
335059.0940000005
 10
6715.937199999578
 20
335059.1018000003
 10
6715.91289999988
 20
335059.1106000003
 10
6715.889000000432
 20
335059.1201000009
 10
6715.865399999543
 20
335059.1305
 10
6715.842100000009
 20
335059.1416999996
 10
6715.819299999624
 20
335059.1535999999
 10
6715.796900000423
 20
335059.1664000005
 10
6715.774899999612
 20
335059.1798999999
 10
6715.753399999812
 20
335059.1941
 10
6715.732400000096
 20
335059.2091000006
 10
6715.712000000291
 20
335059.2248
 10
6715.692099999635
 20
335059.2412000001
 10
6715.672699999996
 20
335059.2583000008
 10
6715.654000000097
 20
335059.2760000006
 10
6715.63590000011
 20
335059.2943999991
 10
6715.618400000036
 20
335059.3133000006
 10
6715.601599999704
 20
335059.3329000008
 10
6715.585500000044
 20
335059.3530000001
 10
6715.570100000128
 20
335059.3737000004
 10
6715.555399999954
 20
335059.3948999998
 10
6715.541400000453
 20
335059.4165000003
 10
6715.528199999593
 20
335059.4386999998
 10
6715.515700000338
 20
335059.4613000005
 10
6715.504099999555
 20
335059.4843000006
 10
6715.493200000375
 20
335059.5076000001
 10
6715.483199999667
 20
335059.5314000007
 10
6715.473899999634
 20
335059.5555000007
 10
6715.465499999933
 20
335059.5799000003
 10
6715.457999999634
 20
335059.6044999995
 10
6715.45129999984
 20
335059.6294
 10
6715.445399999619
 20
335059.6545000002
 10
6715.44049999956
 20
335059.6798000001
 10
6715.436400000005
 20
335059.7052999996
 10
6715.433100000024
 20
335059.7309000008
 10
6715.430800000206
 20
335059.7565000002
 10
6715.42929999996
 20
335059.7822999992
 10
6715.282200000249
 20
335061.6185999997
 10
6715.279500000178
 20
335061.6445000004
 10
6715.277700000441
 20
335061.6704999991
 10
6715.276800000109
 20
335061.6964999996
 10
6715.276899999939
 20
335061.7226
 10
6715.277800000272
 20
335061.7486000005
 10
6715.279600000009
 20
335061.7745999992
 10
6715.282399999908
 20
335061.8004999999
 10
6715.286000000313
 20
335061.8263000008
 10
6715.290500000119
 20
335061.8519000001
 10
6715.29590000026
 20
335061.8773999997
 10
6715.302199999801
 20
335061.9025999997
 10
6715.309399999679
 20
335061.9276999999
 10
6715.317400000057
 20
335061.9525000006
 10
6715.326299999841
 20
335061.9769000001
 10
6715.336099999956
 20
335062.0011
 10
6715.346599999815
 20
335062.0249000006
 10
6715.358000000008
 20
335062.0483
 10
6715.370199999772
 20
335062.0713
 10
6715.38320000004
 20
335062.0939000007
 10
6715.39690000005
 20
335062.1160000005
 10
6715.411500000396
 20
335062.1375999991
 10
6715.426699999721
 20
335062.1587000005
 10
6715.442699999548
 20
335062.1793000009
 10
6715.459400000051
 20
335062.1993000004
 10
6715.476800000295
 20
335062.2186999992
 10
6715.494800000451
 20
335062.2375000007
 10
6715.51350000035
 20
335062.2555999998
 10
6715.532800000161
 20
335062.2730999999
 10
6715.552699999884
 20
335062.2898999993
 10
6715.573099999689
 20
335062.3059999999
 10
6715.594100000337
 20
335062.3213999998
 10
6715.615699999965
 20
335062.3361000009
 10
6715.637699999847
 20
335062.3498999998
 10
6715.660199999809
 20
335062.3630999998
 10
6715.683100000024
 20
335062.3753999994
 10
6715.70650000032
 20
335062.3869000003
 10
6715.730200000106
 20
335062.3976000007
 10
6715.754300000146
 20
335062.4075000007
 10
6715.778699999676
 20
335062.4166000002
 10
6715.803399999626
 20
335062.4246999994
 10
6715.828399999998
 20
335062.4320999999
 10
6715.853699999861
 20
335062.4385000002
 10
6715.879099999554
 20
335062.4441
 10
6715.904699999839
 20
335062.4487999995
 10
6715.930499999784
 20
335062.4525000006
 10
6715.956399999559
 20
335062.4553999994
1001
AcMap_E615D161-C9D7-11d3-839F-0060B0FB6B57
1071
        1
1071
       23
  0
LINE
  5
E3F
330
1F
100
AcDbEntity
  8
Straßenverlauf_FBRD
100
AcDbLine
 10
6837.385300000199
 20
335078.9537000004
 30
0.0
 11
6837.738400000147
 21
335079.0361000001
 31
0.0
1001
AcMap_E615D161-C9D7-11d3-839F-0060B0FB6B57
1071
        1
1071
       23
  0
LINE
  5
E40
330
1F
100
AcDbEntity
  8
Straßenverlauf_FBRD
100
AcDbLine
 10
6849.90739999991
 20
335081.8785999995
 30
0.0
 11
6850.041699999943
 21
335081.9100000002
 31
0.0
1001
AcMap_E615D161-C9D7-11d3-839F-0060B0FB6B57
1071
        1
1071
       23
  0
LWPOLYLINE
  5
E41
330
1F
100
AcDbEntity
  8
Straßenverlauf_FBRD
100
AcDbPolyline
 90
       74
 70
     0
 43
0.0
 10
6850.041699999943
 20
335081.9100000002
 10
6849.895299999975
 20
335081.8730999995
 10
6849.74749999959
 20
335081.8304999992
 10
6849.601200000383
 20
335081.7828000002
 10
6849.456600000151
 20
335081.7302000002
 10
6849.313900000416
 20
335081.6725999993
 10
6849.173299999907
 20
335081.610200001
 10
6849.034900000319
 20
335081.5430999995
 10
6848.898799999616
 20
335081.4712000005
 10
6848.765300000086
 20
335081.3947999999
 10
6848.634499999694
 20
335081.3137999997
 10
6848.506500000134
 20
335081.2283999995
 10
6848.381500000134
 20
335081.1385999993
 10
6848.259700000287
 20
335081.0447000004
 10
6848.141099999658
 20
335080.9465999995
 10
6848.025999999605
 20
335080.8444999997
 10
6847.914400000125
 20
335080.7386000008
 10
6847.806499999947
 20
335080.6289000008
 10
6847.702399999835
 20
335080.5155999996
 10
6847.602300000378
 20
335080.3988000006
 10
6847.506199999712
 20
335080.2785999999
 10
6847.414200000464
 20
335080.1552000009
 10
6847.326600000262
 20
335080.0287999995
 10
6847.243300000205
 20
335079.8993999995
 10
6847.164499999955
 20
335079.7673000005
 10
6847.090200000443
 20
335079.6325000003
 10
6847.020600000397
 20
335079.4953000006
 10
6846.955799999647
 20
335079.3557999991
 10
6846.895700000226
 20
335079.2140999995
 10
6846.840499999934
 20
335079.0704999994
 10
6846.79030000046
 20
335078.9251000006
 10
6846.745000000112
 20
335078.7780000009
 10
6846.704900000244
 20
335078.6294999998
 10
6846.669800000265
 20
335078.4796999991
 10
6846.639800000004
 20
335078.3287000004
 10
6846.615100000054
 20
335078.1768999994
 10
6846.595499999821
 20
335078.0242999997
 10
6842.199099999852
 20
335076.9974000007
 10
6842.114000000059
 20
335077.1254999992
 10
6842.024500000291
 20
335077.2507000007
 10
6841.930800000206
 20
335077.3727000002
 10
6841.832999999635
 20
335077.4914999995
 10
6841.731200000271
 20
335077.6067999993
 10
6841.625500000081
 20
335077.7185999993
 10
6841.515999999829
 20
335077.8267999999
 10
6841.402900000104
 20
335077.9310999997
 10
6841.286299999804
 20
335078.0315000005
 10
6841.166299999692
 20
335078.1278000009
 10
6841.043200000189
 20
335078.2200000007
 10
6840.916899999604
 20
335078.3079000004
 10
6840.787700000219
 20
335078.3915
 10
6840.655700000003
 20
335078.4705999997
 10
6840.521099999548
 20
335078.5450999998
 10
6840.383999999612
 20
335078.6150000003
 10
6840.24469999969
 20
335078.6801999994
 10
6840.103099999949
 20
335078.7404999994
 10
6839.959599999712
 20
335078.7960000001
 10
6839.814299999736
 20
335078.8465
 10
6839.667299999856
 20
335078.8921000008
 10
6839.51889999956
 20
335078.9326000009
 10
6839.369099999778
 20
335078.9680000004
 10
6839.218299999832
 20
335078.9981999994
 10
6839.066499999724
 20
335079.0232999996
 10
6838.913900000044
 20
335079.0431999993
 10
6838.760700000451
 20
335079.0579000004
 10
6838.607200000435
 20
335079.0672999993
 10
6838.453399999998
 20
335079.0713999998
 10
6838.299499999732
 20
335079.0702999998
 10
6838.145800000056
 20
335079.0638999995
 10
6837.992399999873
 20
335079.0523000006
 10
6837.839399999939
 20
335079.0354999993
 10
6837.687199999578
 20
335079.0133999996
 10
6837.535699999891
 20
335078.9860999994
 10
6837.385300000199
 20
335078.9537000004
1001
AcMap_E615D161-C9D7-11d3-839F-0060B0FB6B57
1071
        1
1071
       23
  0
LWPOLYLINE
  5
E42
330
1F
100
AcDbEntity
  8
Straßenverlauf_FBRD
100
AcDbPolyline
 90
       27
 70
     0
 43
0.0
 10
6850.041699999943
 20
335081.9100000002
 10
6850.044599999674
 20
335081.9107000008
 10
6866.212500000372
 20
335085.6872000005
 10
6870.429899999873
 20
335086.7245000005
 10
6871.979299999773
 20
335087.0228000004
 10
6873.291400000453
 20
335087.2649000008
 10
6874.610799999908
 20
335087.4630999994
 10
6875.935999999754
 20
335087.6173
 10
6894.598299999721
 20
335089.4726
 10
6915.883000000381
 20
335095.0368000008
 10
6920.550800000317
 20
335098.6638999991
 10
6920.811599999666
 20
335098.8597999998
 10
6921.078599999659
 20
335099.0471000001
 10
6921.351599999704
 20
335099.2256000005
 10
6921.630300000309
 20
335099.3950999994
 10
6921.914400000125
 20
335099.555400001
 10
6922.203499999828
 20
335099.7063999996
 10
6922.49739999976
 20
335099.8478999995
 10
6922.795800000429
 20
335099.9795999993
 10
6923.098299999721
 20
335100.1016000007
 10
6923.444099999965
 20
335100.2448999994
 10
6923.876699999905
 20
335100.3997000009
 10
6924.474799999967
 20
335100.6185999997
 10
6934.27740000002
 20
335103.2741
 10
6949.406600000337
 20
335107.8224999998
 10
6956.965499999933
 20
335110.1601
 10
6967.185899999924
 20
335113.2719999999
1001
AcMap_E615D161-C9D7-11d3-839F-0060B0FB6B57
1071
        1
1071
       23
  0
LWPOLYLINE
  5
E43
330
1F
100
AcDbEntity
  8
Straßenverlauf_FBRD
100
AcDbPolyline
 90
      191
 70
     0
 43
0.0
 10
6695.679100000299
 20
335082.2453000006
 10
6698.02170000039
 20
335094.7423999999
 10
6698.029400000348
 20
335094.7796999999
 10
6698.038300000131
 20
335094.8167000004
 10
6698.04860000033
 20
335094.8533999995
 10
6698.060100000351
 20
335094.8896999993
 10
6698.072800000199
 20
335094.9255999998
 10
6698.086799999699
 20
335094.961100001
 10
6698.101999999956
 20
335094.9959999994
 10
6698.118400000035
 20
335095.0304000006
 10
6698.13599999994
 20
335095.0642000009
 10
6698.154699999839
 20
335095.0974000003
 10
6698.174599999562
 20
335095.1298999991
 10
6698.19560000021
 20
335095.1615999993
 10
6698.217600000091
 20
335095.1927000005
 10
6698.240799999796
 20
335095.2228999995
 10
6698.264999999665
 20
335095.2523999997
 10
6698.290099999868
 20
335095.2809999995
 10
6698.316300000064
 20
335095.3087000009
 10
6698.343399999663
 20
335095.3355000001
 10
6698.371399999595
 20
335095.3613000009
 10
6698.400299999864
 20
335095.3860999998
 10
6698.429999999702
 20
335095.4099000003
 10
6698.460599999875
 20
335095.4327000007
 10
6698.49189999979
 20
335095.4543999993
 10
6698.523900000378
 20
335095.4749999996
 10
6698.556599999777
 20
335095.4945
 10
6698.589999999851
 20
335095.5128000006
 10
6698.623999999836
 20
335095.5299999994
 10
6698.658599999733
 20
335095.5460000001
 10
6698.693699999712
 20
335095.5607999992
 10
6698.729299999773
 20
335095.5743000004
 10
6698.765399999917
 20
335095.5866999999
 10
6698.80179999955
 20
335095.5976999998
 10
6698.838600000367
 20
335095.6074999999
 10
6698.875799999573
 20
335095.6160000004
 10
6698.913200000301
 20
335095.6231999994
 10
6698.950799999758
 20
335095.6292000004
 10
6698.988599999808
 20
335095.6338
 10
6699.026600000448
 20
335095.6371
 10
6699.064600000157
 20
335095.6391000003
 10
6699.102699999698
 20
335095.6396999992
 10
6699.140800000169
 20
335095.6391000003
 10
6699.178799999877
 20
335095.6371
 10
6699.216799999587
 20
335095.6338
 10
6699.254599999637
 20
335095.6292000004
 10
6699.292200000025
 20
335095.6232999992
 10
6699.329599999822
 20
335095.6161000002
 10
6699.36679999996
 20
335095.6075999998
 10
6699.403599999844
 20
335095.5977999997
 10
6699.440000000411
 20
335095.5867999997
 10
6699.476099999621
 20
335095.5745000001
 10
6699.511699999682
 20
335095.5609000009
 10
6699.546799999662
 20
335095.5461999998
 10
6699.581399999559
 20
335095.5302000008
 10
6699.615399999544
 20
335095.5130000003
 10
6699.648799999618
 20
335095.4946999997
 10
6699.681599999777
 20
335095.4751999993
 10
6699.713600000366
 20
335095.4546000008
 10
6699.744900000282
 20
335095.4329000004
 10
6699.775500000455
 20
335095.4101999998
 10
6699.805200000295
 20
335095.3862999995
 10
6699.834099999629
 20
335095.3615000006
 10
6699.862099999562
 20
335095.3356999998
 10
6699.889200000092
 20
335095.3089000006
 10
6699.915400000289
 20
335095.2811999992
 10
6699.940600000322
 20
335095.2526999992
 10
6699.964700000361
 20
335095.2232000009
 10
6699.987900000066
 20
335095.193
 10
6700.009999999777
 20
335095.1619000007
 10
6700.031000000425
 20
335095.1302000005
 10
6700.050900000147
 20
335095.0976999998
 10
6700.069600000046
 20
335095.0645000003
 10
6700.08719999995
 20
335095.0307
 10
6700.103600000031
 20
335094.9963000007
 10
6700.118800000288
 20
335094.9614000004
 10
6700.132799999789
 20
335094.9260000009
 10
6700.145600000396
 20
335094.8901000005
 10
6700.157100000419
 20
335094.8538000007
 10
6700.167299999856
 20
335094.8170999997
 10
6700.176300000399
 20
335094.7800999992
 10
6700.184000000358
 20
335094.7426999994
 10
6700.190399999731
 20
335094.7051999997
 10
6700.195399999619
 20
335094.6674000006
 10
6700.199199999683
 20
335094.6294999999
 10
6700.201700000092
 20
335094.5914999992
 10
6700.202800000086
 20
335094.5534000006
 10
6700.202600000427
 20
335094.5153000001
 10
6700.20110000018
 20
335094.4772999995
 10
6700.19830000028
 20
335094.4393000007
 10
6699.025100000203
 20
335081.6437999998
 10
6699.022300000303
 20
335081.6182000004
 10
6699.018600000069
 20
335081.5927000009
 10
6699.014000000431
 20
335081.5672999993
 10
6699.008600000292
 20
335081.5420999993
 10
6699.002299999818
 20
335081.5171000008
 10
6698.995199999771
 20
335081.4923000001
 10
6698.987200000323
 20
335081.4678000007
 10
6698.97840000037
 20
335081.4434999992
 10
6698.968700000086
 20
335081.4196000006
 10
6698.958300000056
 20
335081.3960999996
 10
6698.946999999694
 20
335081.3728999999
 10
6698.93489999976
 20
335081.3500999995
 10
6698.922100000084
 20
335081.3277000002
 10
6698.908499999904
 20
335081.3058000002
 10
6698.89410000015
 20
335081.2843999993
 10
6698.879099999555
 20
335081.2634999994
 10
6698.863300000318
 20
335081.2431000006
 10
6698.846800000407
 20
335081.2232000008
 10
6698.829699999653
 20
335081.204
 10
6698.811900000087
 20
335081.1853000001
 10
6698.793399999849
 20
335081.1673000008
 10
6698.774400000461
 20
335081.1499000005
 10
6698.754800000227
 20
335081.1331999992
 10
6698.734600000084
 20
335081.1171000004
 10
6698.713800000027
 20
335081.1018000003
 10
6698.692599999718
 20
335081.0872000009
 10
6698.670900000259
 20
335081.0733000003
 10
6698.648699999786
 20
335081.0602000002
 10
6698.626000000164
 20
335081.0478000008
 10
6698.603000000119
 20
335081.0362999998
 10
6698.579599999823
 20
335081.0254999995
 10
6698.555800000206
 20
335081.0155999996
 10
6698.531700000167
 20
335081.0064000003
 10
6698.507199999877
 20
335080.9980999996
 10
6698.482599999755
 20
335080.9907000009
 10
6698.457600000314
 20
335080.9840999991
 10
6698.432500000112
 20
335080.9782999996
 10
6698.407200000248
 20
335080.9735000004
 10
6698.381699999794
 20
335080.9694999997
 10
6698.356100000442
 20
335080.9663999994
 10
6698.330400000326
 20
335080.9640999995
 10
6698.304700000211
 20
335080.9627999999
 10
6698.278900000267
 20
335080.9623000007
 10
6698.253100000322
 20
335080.9627
 10
6698.227300000377
 20
335080.9639999997
 10
6698.201600000263
 20
335080.9661999997
 10
6698.175999999978
 20
335080.9693
 10
6698.150600000285
 20
335080.9732000008
 10
6698.12519999966
 20
335080.9781
 10
6698.100100000388
 20
335080.9837999996
 10
6697.501500000246
 20
335081.1216000002
 10
6696.899500000291
 20
335081.2432000004
 10
6696.294300000182
 20
335081.3485000003
 10
6696.268799999728
 20
335081.3530000002
 10
6696.243499999866
 20
335081.3584000003
 10
6696.218399999664
 20
335081.3647000008
 10
6696.193599999883
 20
335081.3717999999
 10
6696.168899999931
 20
335081.3797999993
 10
6696.144600000232
 20
335081.3886999991
 10
6696.120600000025
 20
335081.3983999994
 10
6696.097000000067
 20
335081.4089000002
 10
6696.0736999996
 20
335081.4201999996
 10
6696.050800000318
 20
335081.4322999995
 10
6696.028400000185
 20
335081.4452
 10
6696.006400000304
 20
335081.4587999992
 10
6695.984899999574
 20
335081.4732000009
 10
6695.963899999857
 20
335081.4882999994
 10
6695.943400000222
 20
335081.5042000004
 10
6695.923499999569
 20
335081.5207000002
 10
6695.904199999756
 20
335081.5380000007
 10
6695.885499999858
 20
335081.5558000002
 10
6695.867399999873
 20
335081.5744000003
 10
6695.849999999627
 20
335081.5934999995
 10
6695.833200000227
 20
335081.6131999996
 10
6695.817099999636
 20
335081.6335000005
 10
6695.80179999955
 20
335081.6543000006
 10
6695.787100000306
 20
335081.6755999998
 10
6695.773199999705
 20
335081.6974999998
 10
6695.760099999606
 20
335081.7197999992
 10
6695.747700000182
 20
335081.7424999998
 10
6695.736200000159
 20
335081.7656999994
 10
6695.725399999879
 20
335081.7892000005
 10
6695.715499999933
 20
335081.8131000008
 10
6695.70639999956
 20
335081.8373000007
 10
6695.698099999688
 20
335081.8618999999
 10
6695.690700000152
 20
335081.8866000008
 10
6695.684100000187
 20
335081.9116999991
 10
6695.678399999626
 20
335081.9368999992
 10
6695.673600000329
 20
335081.9624000005
 10
6695.669700000435
 20
335081.9879000001
 10
6695.666600000113
 20
335082.0135999993
 10
6695.664400000125
 20
335082.0394000002
 10
6695.663200000301
 20
335082.0653000009
 10
6695.662800000049
 20
335082.0911999997
 10
6695.663300000131
 20
335082.1170000005
 10
6695.664699999615
 20
335082.1428999994
 10
6695.667000000366
 20
335082.1686000005
 10
6695.670099999755
 20
335082.1942999996
 10
6695.674200000242
 20
335082.2199000009
 10
6695.679100000299
 20
335082.2453000006
1001
AcMap_E615D161-C9D7-11d3-839F-0060B0FB6B57
1071
        1
1071
       23
  0
LWPOLYLINE
  5
E44
330
1F
100
AcDbEntity
  8
Straßenverlauf_FBRD
100
AcDbPolyline
 90
      177
 70
     0
 43
0.0
 10
6943.382500000298
 20
335117.7858000007
 10
6943.425999999978
 20
335117.6173000001
 10
6943.463600000367
 20
335117.4473000001
 10
6943.495299999603
 20
335117.2761000004
 10
6943.520899999886
 20
335117.1040000003
 10
6943.540599999948
 20
335116.9309999999
 10
6943.554299999959
 20
335116.7575000003
 10
6943.561900000088
 20
335116.5835999996
 10
6943.563400000333
 20
335116.4094999992
 10
6943.558899999596
 20
335116.2355000005
 10
6943.548299999908
 20
335116.0616999995
 10
6943.531700000168
 20
335115.8884999995
 10
6943.508999999612
 20
335115.7159000002
 10
6943.480399999768
 20
335115.5441999995
 10
6943.44579999987
 20
335115.3736000006
 10
6943.405299999752
 20
335115.2042999994
 10
6943.35890000034
 20
335115.0364999995
 10
6943.306699999609
 20
335114.8704000004
 10
6943.248800000175
 20
335114.7062999998
 10
6943.185200000183
 20
335114.5441999995
 10
6943.115899999625
 20
335114.3845000006
 10
6943.041199999861
 20
335114.2272999994
 10
6942.961000000126
 20
335114.0727999993
 10
6942.875500000082
 20
335113.9211999998
 10
6942.784799999557
 20
335113.7726000008
 10
6942.689000000246
 20
335113.6272999998
 10
6942.588100000285
 20
335113.4854000006
 10
6942.482400000095
 20
335113.3471000009
 10
6942.371899999677
 20
335113.2126000003
 10
6942.256900000386
 20
335113.0820000005
 10
6942.137299999595
 20
335112.9553999995
 10
6942.013399999588
 20
335112.8332000003
 10
6941.885300000198
 20
335112.7152999994
 10
6941.753200000151
 20
335112.6019000002
 10
6941.617300000041
 20
335112.4932000004
 10
6941.477599999868
 20
335112.3892999999
 10
6941.334400000051
 20
335112.2903000005
 10
6941.187800000422
 20
335112.1963999998
 10
6941.03809999954
 20
335112.1075999998
 10
6940.885400000029
 20
335112.0241
 10
6940.729799999856
 20
335111.9460000005
 10
6940.571600000374
 20
335111.8732999992
 10
6940.411000000313
 20
335111.8061999996
 10
6940.248200000263
 20
335111.7446999997
 10
6939.79600000009
 20
335111.5906000007
 10
6937.256000000052
 20
335110.8830999993
 10
6934.407899999991
 20
335110.1040000003
 10
6933.519299999812
 20
335109.8870000001
 10
6932.356999999844
 20
335109.6460999996
 10
6931.187900000252
 20
335109.4398999997
 10
6930.013299999759
 20
335109.2683000006
 10
6928.83409999963
 20
335109.1317999997
 10
6914.70120000001
 20
335107.7070000004
 10
6893.424100000412
 20
335102.1133999992
 10
6889.219899999909
 20
335098.8372000009
 10
6888.941300000064
 20
335098.6278000009
 10
6888.655600000173
 20
335098.4283000008
 10
6888.363099999726
 20
335098.2388000004
 10
6888.064199999906
 20
335098.0595999994
 10
6887.759200000203
 20
335097.890900001
 10
6887.448499999941
 20
335097.7329999991
 10
6887.132500000298
 20
335097.5859999992
 10
6886.849700000137
 20
335097.4755000006
 10
6864.734000000172
 20
335092.0168999993
 10
6827.784900000319
 20
335083.3860999998
 10
6806.321600000373
 20
335078.6838000007
 10
6784.736899999902
 20
335074.5750999991
 10
6771.517300000414
 20
335072.4293000009
 10
6758.244900000281
 20
335070.6381999999
 10
6744.929299999959
 20
335069.2032999993
 10
6722.725300000049
 20
335067.1109999996
 10
6722.279799999668
 20
335067.0767000001
 10
6721.833499999717
 20
335067.0578000006
 10
6721.386699999682
 20
335067.0541999992
 10
6720.94010000024
 20
335067.0659999997
 10
6720.494199999608
 20
335067.0931000002
 10
6720.049399999901
 20
335067.1355000008
 10
6719.606399999931
 20
335067.1931999997
 10
6719.16559999995
 20
335067.2660000008
 10
6718.727599999867
 20
335067.3540000003
 10
6718.292899999767
 20
335067.4569000006
 10
6717.861899999902
 20
335067.5747999996
 10
6717.435300000012
 20
335067.7072999999
 10
6717.01350000035
 20
335067.8544999995
 10
6716.596900000237
 20
335068.0160000008
 10
6716.186200000345
 20
335068.1918000002
 10
6715.781799999998
 20
335068.3816
 10
6715.384100000374
 20
335068.5852000006
 10
6714.993599999695
 20
335068.8023000006
 10
6714.610799999907
 20
335069.0327000004
 10
6714.23620000016
 20
335069.2761000004
 10
6713.870199999772
 20
335069.5322999992
 10
6713.513199999929
 20
335069.8008999992
 10
6713.16559999995
 20
335070.0814999994
 10
6712.827899999917
 20
335070.3739999999
 10
6712.500400000251
 20
335070.6778999996
 10
6712.183500000276
 20
335070.9929000009
 10
6711.87770000007
 20
335071.3184999992
 10
6711.583200000227
 20
335071.6545000002
 10
6711.300499999897
 20
335072.0003999994
 10
6711.029799999669
 20
335072.3559000008
 10
6710.680499999783
 20
335072.8188000005
 10
6710.319400000386
 20
335073.2726000007
 10
6709.951899999753
 20
335073.7114000004
 10
6709.946999999694
 20
335073.7171
 10
6709.395899999887
 20
335074.3816999998
 10
6708.863599999808
 20
335075.0710000005
 10
6708.355600000359
 20
335075.7785000001
 10
6707.87249999959
 20
335076.5032000002
 10
6707.415000000037
 20
335077.2442000006
 10
6706.98359999992
 20
335078.0008000005
 10
6706.57880000025
 20
335078.7719000001
 10
6706.20110000018
 20
335079.5567000006
 10
6705.850999999791
 20
335080.3541000001
 10
6705.528800000436
 20
335081.1633000001
 10
6705.235100000165
 20
335081.9832000006
 10
6704.970099999569
 20
335082.8127999995
 10
6704.734100000002
 20
335083.6511000004
 10
6704.527499999851
 20
335084.4971999992
 10
6704.350399999879
 20
335085.3498999998
 10
6704.203200000339
 20
335086.2083000001
 10
6704.086000000128
 20
335087.0713
 10
6703.998900000006
 20
335087.9378999993
 10
6703.941999999806
 20
335088.8070000001
 10
6703.91540000029
 20
335089.6775000002
 10
6703.919200000354
 20
335090.5483999998
 10
6703.953300000168
 20
335091.4186000004
 10
6704.017699999734
 20
335092.2872000002
 10
6704.874800000339
 20
335101.6346000005
 10
6705.340599999764
 20
335107.7423999999
 10
6705.619199999609
 20
335113.8617000002
 10
6705.710199999623
 20
335119.9866000005
 10
6705.613599999807
 20
335126.1114000008
 10
6705.329499999992
 20
335132.2303999998
 10
6705.312699999661
 20
335132.6086
 10
6705.308899999597
 20
335132.9872999992
 10
6705.3180999998
 20
335133.3658000007
 10
6705.340300000273
 20
335133.7436999995
 10
6705.375599999912
 20
335134.1206999999
 10
6705.423700000159
 20
335134.4963000008
 10
6705.484799999744
 20
335134.8698999994
 10
6705.558699999937
 20
335135.2412999999
 10
6705.645399999806
 20
335135.6097999997
 10
6705.74459999986
 20
335135.9751999993
 10
6705.856399999932
 20
335136.3369999994
 10
6705.980600000359
 20
335136.6945999991
 10
6706.116999999619
 20
335137.0478000008
 10
6706.265499999746
 20
335137.3960999996
 10
6706.425900000147
 20
335137.7390999999
 10
6706.598000000231
 20
335138.0764000006
 10
6706.781600000337
 20
335138.4075000007
 10
6706.976499999874
 20
335138.7321000006
 10
6707.182400000282
 20
335139.0497999992
 10
6707.399100000039
 20
335139.3603000007
 10
6707.626400000416
 20
335139.6631000005
 10
6707.864000000061
 20
335139.9579000008
 10
6708.111600000411
 20
335140.2443000004
 10
6708.368999999947
 20
335140.5220999998
 10
6708.635700000449
 20
335140.7907999996
 10
6708.911500000394
 20
335141.0502000005
 10
6709.196000000462
 20
335141.3000000007
 10
6709.48900000006
 20
335141.5397999995
 10
6709.790099999867
 20
335141.7693000008
 10
6710.098899999633
 20
335141.9883999992
 10
6710.415099999868
 20
335142.1967999991
 10
6710.738199999557
 20
335142.3940999993
 10
6711.06799999997
 20
335142.5801999998
 10
6711.403900000266
 20
335142.7547999993
 10
6711.745699999854
 20
335142.9178
 10
6712.092799999751
 20
335143.0689000003
 10
6712.445000000298
 20
335143.2079000008
 10
6712.80169999972
 20
335143.3347999994
 10
6713.162600000389
 20
335143.4493000005
 10
6713.527200000361
 20
335143.5513000004
 10
6713.895100000314
 20
335143.6407999992
 10
6714.265899999998
 20
335143.7174999993
 10
6759.184399999679
 20
335152.2063999996
1001
AcMap_E615D161-C9D7-11d3-839F-0060B0FB6B57
1071
        1
1071
       23
  0
LWPOLYLINE
  5
E45
330
1F
100
AcDbEntity
  8
Straßenverlauf_FBRD
100
AcDbPolyline
 90
       11
 70
     0
 43
0.0
 10
6947.80179999955
 20
335118.7280000001
 10
6948.058600000106
 20
335118.0308999996
 10
6948.427799999715
 20
335117.3861999996
 10
6948.899100000038
 20
335116.8120000008
 10
6949.459300000221
 20
335116.3241000008
 10
6950.092899999582
 20
335115.9362000004
 10
6950.782200000249
 20
335115.659
 10
6951.50800000038
 20
335115.5003999993
 10
6952.250000000001
 20
335115.4648000002
 10
6952.987700000405
 20
335115.5529999994
 10
6965.105600000359
 20
335118.9925999996
1001
AcMap_E615D161-C9D7-11d3-839F-0060B0FB6B57
1071
        1
1071
       23
  0
LWPOLYLINE
  5
E46
330
1F
100
AcDbEntity
  8
Straßenverlauf_FBRD
100
AcDbPolyline
 90
       55
 70
     0
 43
0.0
 10
6758.070199999959
 20
335158.1020999998
 10
6714.752199999988
 20
335149.9156
 10
6714.377100000158
 20
335149.8513999992
 10
6714.0
 20
335149.8002000005
 10
6713.621299999767
 20
335149.7621
 10
6713.241600000299
 20
335149.7370999996
 10
6712.861200000159
 20
335149.7252999992
 10
6712.480600000358
 20
335149.7266000006
 10
6712.10030000005
 20
335149.7411000003
 10
6711.720700000412
 20
335149.7687999998
 10
6711.342299999668
 20
335149.8095999994
 10
6710.965599999763
 20
335149.8633999992
 10
6710.590900000184
 20
335149.9301999993
 10
6710.218799999914
 20
335150.0099999998
 10
6709.849600000307
 20
335150.1026000008
 10
6709.483900000342
 20
335150.2078000009
 10
6709.12200000044
 20
335150.3257
 10
6708.764399999752
 20
335150.4561000001
 10
6708.411600000225
 20
335150.5987
 10
6708.063900000415
 20
335150.7533999998
 10
6707.721800000406
 20
335150.9200999998
 10
6707.385599999688
 20
335151.0985000003
 10
6707.055800000205
 20
335151.2884
 10
6706.732800000347
 20
335151.4897000008
 10
6706.416899999604
 20
335151.7018999998
 10
6706.10850000009
 20
335151.9250000008
 10
6705.808100000024
 20
335152.1586000007
 10
6705.515899999999
 20
335152.4024999998
 10
6705.232300000266
 20
335152.6563000009
 10
6704.957700000145
 20
335152.9198000003
 10
6704.692400000059
 20
335153.1927000005
 10
6704.436599999666
 20
335153.4745000005
 10
6704.190799999982
 20
335153.7650000006
 10
6703.955199999734
 20
335154.0638999995
 10
6703.730000000447
 20
335154.3706999999
 10
6703.515599999576
 20
335154.6852000002
 10
6703.312199999579
 20
335155.0067999997
 10
6703.120000000112
 20
335155.3353000004
 10
6702.939299999737
 20
335155.6702999995
 10
6702.770299999975
 20
335156.0112999994
 10
6702.613300000317
 20
335156.3578999993
 10
6702.468299999833
 20
335156.7097999994
 10
6702.335500000045
 20
335157.0665000007
 10
6702.215200000442
 20
335157.4276000001
 10
6702.107400000095
 20
335157.7926000003
 10
6702.012400000356
 20
335158.1611000002
 10
6701.930100000463
 20
335158.5327000004
 10
6700.994800000451
 20
335162.818
 10
6699.937199999578
 20
335167.0748999995
 10
6698.75820000004
 20
335171.2996999995
 10
6695.648599999957
 20
335181.8571000006
 10
6691.967899999581
 20
335193.8005999997
 10
6691.506500000135
 20
335195.2338999994
 10
6687.825699999928
 20
335207.1776999999
 10
6685.070700000039
 20
335216.5308999996
1001
AcMap_E615D161-C9D7-11d3-839F-0060B0FB6B57
1071
        1
1071
       23
  0
ENDSEC
  0
SECTION
  2
OBJECTS
  0
DICTIONARY
  5
C
330
0
100
AcDbDictionary
281
     1
  3
ACAD_CIP_PREVIOUS_PRODUCT_INFO
350
1A5
  3
ACAD_COLOR
350
73
  3
ACAD_DETAILVIEWSTYLE
350
1AB
  3
ACAD_GROUP
350
D
  3
ACAD_LAYOUT
350
1A
  3
ACAD_MATERIAL
350
72
  3
ACAD_MLEADERSTYLE
350
D7
  3
ACAD_MLINESTYLE
350
17
  3
ACAD_PLOTSETTINGS
350
19
  3
ACAD_PLOTSTYLENAME
350
E
  3
ACAD_SCALELIST
350
B6
  3
ACAD_SECTIONVIEWSTYLE
350
1A8
  3
ACAD_TABLESTYLE
350
86
  3
ACAD_VISUALSTYLE
350
99
  3
ACDB_RECOMPOSE_DATA
350
E65
  3
AcDbVariableDictionary
350
66
  3
AcDsDecomposeData
350
E6B
  3
AcMap_E615D15E-C9D7-11d3-839F-0060B0FB6B57
350
344
  3
ADE_QUERY_LIBRARY
350
21B
  3
ASE_INDEX_DICTIONARY
350
329
  3
Autodesk_MAP
350
204
  3
IrdDscDictionary
350
348
1001
ADE
1000
ADE02C004
1000
[Query]
1000
CaseSensitiveMatch=0
1000
SaveCurrQueryInSession=1
1000
MkSelSetWithQryObj=0
1000
ShowBlockAsInsPt=0
1000
CreateAssociativeHatchObjects=0
1000
ReferenceBoundaryForAreaLocation=1
1000
ShowImageAsBoundary=1
1000
DefaultJoinOperator=2
1000
ColorForAdd=red
1000
ColorForRemove=red
1000
BlockLocnForQuery=1
1000
TextLocnForQuery=1
1000
IncludeAllObjectsInGroups=0
1000
AlwaysUseLibraryDefinitions=0
1000
PreviewDefinitionsFrom=2
1000
[Save Back]
1000
RedefineBlockDefinitions=1
1000
RedefineLayerDefinitions=1
1000
RedefineTextStyleDefinitions=1
1000
RemoveUnusedGroups=1
1000
EraseSavedBackObjects=1
1000
RemoveLockAfterSave=1
1000
CreateHistoryFileOfChanges=0
1000
CreateBackupFileOfSourceDwg=1
1000
DontAddObjectsToSaveSet=0
1000
MarkObjectsForEditingWithoutPrompting=0
1000
FdoDontAddObjsToSvSet=0
1000
FdoEditWithoutPrompt=1
1000
FdoRemUnusedGrps=1
1000
FdoEraseSvdBkObjs=1
1000
FdoRemoveLockOnSave=1
1000
FdoTesselationMaxPointsDistance=0
1000
FdoTesselationMaxCurvesDistance=0
1000
[Coordinate Transformation]
1000
RestoreLastActiveDwgsOnStartup=1
1000
ActivateDwgsOnAttach=1
1000
AdjustSizesAndScalesForChangesInUnits=1
1000
AdjustRotationsForMapDistortions=1
1000
AdjustSizesAndScalesForMapDistortions=1
1000
AdjustElevations=1
1000
AdjustZeroRotationObjects=1
1000
ReconnectDbOnWSOpen=1
1000
NoOfSQLConditionsInHistory=10
  0
SUN
  5
217
330
94
100
AcDbSun
 90
        1
290
     1
 63
     7
421
 16777215
 40
1.0
291
     1
 91
  2458230
 92
 36000000
292
     0
 70
     0
 71
   256
280
     1
1001
ACAD
1000
AcDbSavedByObjectVersion
1070
     0
1000
AcDbSavedByObjectVersion
1070
     0
1000
AcDbSavedByObjectVersion
1070
     0
1000
AcDbSavedByObjectVersion
1070
     0
1000
AcDbSavedByObjectVersion
1070
     0
  0
DICTIONARY
  5
18E
330
2
100
AcDbDictionary
280
     1
281
     1
  3
ACAD_LAYERSTATES
360
18F
  0
DICTIONARY
  5
E6
330
10
100
AcDbDictionary
280
     1
281
     1
  0
DICTIONARY
  5
15D
330
1F
100
AcDbDictionary
280
     1
281
     1
  3
ACAD_SORTENTS
360
214
  0
XRECORD
  5
1A5
102
{ACAD_REACTORS
330
C
102
}
330
C
100
AcDbXrecord
280
     1
300
MAP
300
2019
300
87091MAP_2019_0F
  0
DICTIONARY
  5
73
102
{ACAD_REACTORS
330
C
102
}
330
C
100
AcDbDictionary
281
     1
  0
DICTIONARY
  5
1AB
102
{ACAD_REACTORS
330
C
102
}
330
C
100
AcDbDictionary
281
     1
  3
Imperial24
350
1AC
  3
Metric50
350
239
  0
DICTIONARY
  5
D
102
{ACAD_REACTORS
330
C
102
}
330
C
100
AcDbDictionary
281
     1
  0
DICTIONARY
  5
1A
102
{ACAD_REACTORS
330
C
102
}
330
C
100
AcDbDictionary
281
     1
  3
Layout1
350
59
  3
Layout2
350
5E
  3
Model
350
22
  0
DICTIONARY
  5
72
102
{ACAD_REACTORS
330
C
102
}
330
C
100
AcDbDictionary
281
     1
  3
ByBlock
350
97
  3
ByLayer
350
96
  3
Global
350
98
  0
DICTIONARY
  5
D7
102
{ACAD_REACTORS
330
C
102
}
330
C
100
AcDbDictionary
281
     1
  3
Beschriftung
350
E5
  3
Standard
350
D8
  0
DICTIONARY
  5
17
102
{ACAD_REACTORS
330
C
102
}
330
C
100
AcDbDictionary
281
     1
  3
Standard
350
18
  0
DICTIONARY
  5
19
102
{ACAD_REACTORS
330
C
102
}
330
C
100
AcDbDictionary
281
     1
  0
ACDBDICTIONARYWDFLT
  5
E
102
{ACAD_REACTORS
330
C
102
}
330
C
100
AcDbDictionary
281
     1
  3
Normal
350
F
100
AcDbDictionaryWithDefault
340
F
  0
DICTIONARY
  5
B6
102
{ACAD_REACTORS
330
C
102
}
330
C
100
AcDbDictionary
281
     1
  3
A0
350
B7
  3
A1
350
124
  3
A2
350
125
  3
A3
350
126
  3
A4
350
127
  3
A5
350
128
  3
A6
350
129
  3
A7
350
12A
  3
A8
350
12B
  3
A9
350
12C
  3
B0
350
12D
  3
B1
350
12E
  3
B2
350
12F
  3
B3
350
130
  3
B4
350
131
  3
B5
350
132
  3
B6
350
133
  3
B7
350
134
  3
B8
350
135
  3
B9
350
136
  3
C0
350
137
  3
C1
350
138
  3
C2
350
139
  3
C3
350
13A
  3
C4
350
13B
  3
C5
350
13C
  3
C6
350
13D
  3
C7
350
13E
  3
C8
350
13F
  3
C9
350
140
  3
D0
350
141
  3
D1
350
142
  3
D2
350
143
  0
DICTIONARY
  5
1A8
102
{ACAD_REACTORS
330
C
102
}
330
C
100
AcDbDictionary
281
     1
  3
Imperial24
350
1AA
  3
Metric50
350
238
  0
DICTIONARY
  5
86
102
{ACAD_REACTORS
330
C
102
}
330
C
100
AcDbDictionary
281
     1
  3
Legend
350
20D
  3
Standard
350
87
  0
DICTIONARY
  5
99
102
{ACAD_REACTORS
330
C
102
}
330
C
100
AcDbDictionary
281
     1
  3
2dWireframe
350
9F
  3
Basic
350
9E
  3
Brighten
350
A5
  3
ColorChange
350
A9
  3
Conceptual
350
A2
  3
Dim
350
A4
  3
EdgeColorOff
350
175
  3
Facepattern
350
A8
  3
Flat
350
9A
  3
FlatWithEdges
350
9B
  3
Gouraud
350
9C
  3
GouraudWithEdges
350
9D
  3
Hidden
350
A1
  3
JitterOff
350
173
  3
Linepattern
350
A7
  3
OverhangOff
350
174
  3
Realistic
350
A3
  3
Shaded
350
182
  3
Shaded with edges
350
181
  3
Shades of Gray
350
17E
  3
Sketchy
350
17F
  3
Thicken
350
A6
  3
Wireframe
350
A0
  3
X-Ray
350
180
  0
XRECORD
  5
E65
102
{ACAD_REACTORS
330
C
102
}
330
C
100
AcDbXrecord
280
     1
 90
        1
330
87
330
20D
  0
DICTIONARY
  5
66
102
{ACAD_REACTORS
330
C
102
}
330
C
100
AcDbDictionary
281
     1
  3
CANNOSCALE
350
F0
  3
CMLEADERSTYLE
350
EF
  3
CTABLESTYLE
350
89
  3
CVIEWDETAILSTYLE
350
1B7
  3
CVIEWSECTIONSTYLE
350
1B8
  3
DIMASSOC
350
67
  3
HIDETEXT
350
6B
  3
LAYEREVAL
350
14D
  3
LAYERNOTIFY
350
14E
  0
DICTIONARY
  5
E6B
102
{ACAD_REACTORS
330
C
102
}
330
C
100
AcDbDictionary
281
     1
  3
AcDsRecords
350
E6D
  3
AcDsSchemas
350
E6C
1001
ACAD
1070
     2
  0
XRECORD
  5
344
102
{ACAD_REACTORS
330
C
102
}
330
C
100
AcDbXrecord
280
     1
 90
       23
  0
DICTIONARY
  5
21B
102
{ACAD_REACTORS
330
C
102
}
330
C
100
AcDbDictionary
281
     1
  3
_CurrQry
350
E5B
  0
DICTIONARY
  5
329
102
{ACAD_REACTORS
330
C
102
}
330
C
100
AcDbDictionary
281
     1
  3
ASEBlockHierarchyIndexRecord
350
32A
1001
DCO15
1040
2038291044.0
  0
DICTIONARY
  5
204
102
{ACAD_REACTORS
330
C
102
}
330
C
100
AcDbDictionary
281
     1
  3
AcMapDMStylizedEntities
350
215
  3
AcMapResourceManager
350
209
  3
MAP_DISPLAY_CUSTOMOBJ_REG_TABLE
350
208
  3
MAP_DISPLAY_MANAGEMENT_DICTIONARY
350
205
  3
MAP_DISPLAY_STYLELIBRARY_DICTIONARY
350
206
  3
MAP_RESOURCE_VERSION_MANAGEMENT_DICTIONARY
350
216
1001
MapGWS
1000
C:\ProgramData\Autodesk\Autodesk AutoCAD Map 3D 2019\R23.0\MapCache\L508_KV_Haeuperlkreuzung_StrassenverlaufGWS.xml
  0
IRD_DSC_DICT
  5
348
102
{ACAD_REACTORS
330
C
102
}
330
C
100
AcDbDictionary
281
     1
  3
*A1
350
349
  3
*A2
350
34A
  3
*A3
350
34B
100
CIrdDscDict
1040
0.0
  0
DICTIONARY
  5
18F
102
{ACAD_REACTORS
330
18E
102
}
330
18E
100
AcDbDictionary
281
     1
  0
SORTENTSTABLE
  5
214
102
{ACAD_REACTORS
330
15D
102
}
330
15D
100
AcDbSortentsTable
330
1F
  0
ACDBDETAILVIEWSTYLE
  5
1AC
102
{ACAD_XDICTIONARY
360
E70
102
}
102
{ACAD_REACTORS
330
1AB
102
}
330
1AB
100
AcDbModelDocViewStyle
 70
     0
  3
Imperial24
290
     0
100
AcDbDetailViewStyle
 70
     0
 71
     0
 90
        3
 71
     1
340
11
 62
   256
 40
0.24
340
0
 62
   256
 40
0.24
300

 40
0.36
280
     3
 71
     2
340
16
 90
       25
 62
   256
 71
     3
340
11
 62
   256
 40
0.24
 90
        1
 40
0.75
 90
        1
300
%<\AcVar ViewType \f "%tc1">% %<\AcVar ViewDetailId>%\PSCALE %<\AcVar ViewScale \f "%sn">%
 71
     4
340
16
 90
       25
 62
   256
340
16
 90
       25
 62
   256
280
     0
  0
ACDBDETAILVIEWSTYLE
  5
239
102
{ACAD_XDICTIONARY
360
E74
102
}
102
{ACAD_REACTORS
330
1AB
102
}
330
1AB
100
AcDbModelDocViewStyle
 70
     0
  3
Metric50
290
     0
100
AcDbDetailViewStyle
 70
     0
 71
     0
 90
        3
 71
     1
340
11
 62
   256
 40
5.0
340
0
 62
   256
 40
5.0
300

 40
0.0
280
     1
 71
     2
340
16
 90
       25
 62
   256
 71
     3
340
11
 62
   256
 40
5.0
 90
        0
 40
15.0
 90
        1
300
%<\AcVar ViewDetailId>% (%<\AcVar ViewScale \f "%sn">%)
 71
     4
340
16
 90
       25
 62
   256
340
16
 90
       25
 62
   256
280
     0
  0
LAYOUT
  5
59
102
{ACAD_REACTORS
330
1A
102
}
330
1A
100
AcDbPlotSettings
  1

  2
None
  4

  6

 40
0.0
 41
0.0
 42
0.0
 43
0.0
 44
0.0
 45
0.0
 46
0.0
 47
0.0
 48
0.0
 49
0.0
140
0.0
141
0.0
142
1.0
143
1.0
 70
   688
 72
     0
 73
     0
 74
     5
  7

 75
    16
147
1.0
 76
     0
 77
     2
 78
   300
148
0.0
149
0.0
100
AcDbLayout
  1
Layout1
 70
     1
 71
     1
 10
0.0
 20
0.0
 11
12.0
 21
9.0
 12
0.0
 22
0.0
 32
0.0
 14
0.0
 24
0.0
 34
0.0
 15
0.0
 25
0.0
 35
0.0
146
0.0
 13
0.0
 23
0.0
 33
0.0
 16
1.0
 26
0.0
 36
0.0
 17
0.0
 27
1.0
 37
0.0
 76
     0
330
58
  0
LAYOUT
  5
5E
102
{ACAD_REACTORS
330
1A
102
}
330
1A
100
AcDbPlotSettings
  1

  2
None
  4

  6

 40
0.0
 41
0.0
 42
0.0
 43
0.0
 44
0.0
 45
0.0
 46
0.0
 47
0.0
 48
0.0
 49
0.0
140
0.0
141
0.0
142
1.0
143
1.0
 70
   688
 72
     0
 73
     0
 74
     5
  7

 75
    16
147
1.0
 76
     0
 77
     2
 78
   300
148
0.0
149
0.0
100
AcDbLayout
  1
Layout2
 70
     1
 71
     2
 10
0.0
 20
0.0
 11
12.0
 21
9.0
 12
0.0
 22
0.0
 32
0.0
 14
0.0
 24
0.0
 34
0.0
 15
0.0
 25
0.0
 35
0.0
146
0.0
 13
0.0
 23
0.0
 33
0.0
 16
1.0
 26
0.0
 36
0.0
 17
0.0
 27
1.0
 37
0.0
 76
     0
330
5D
  0
LAYOUT
  5
22
102
{ACAD_XDICTIONARY
360
194
102
}
102
{ACAD_REACTORS
330
1A
102
}
330
1A
100
AcDbPlotSettings
  1

  2
none_device
  4
ANSI_A_(8.50_x_11.00_Inches)
  6

 40
6.349999904632567
 41
19.04999923706055
 42
6.350006103515625
 43
19.04998779296875
 44
215.8999938964844
 45
279.3999938964844
 46
0.0
 47
0.0
 48
0.0
 49
0.0
140
0.0
141
0.0
142
1.0
143
2.584895464708373
 70
 11952
 72
     0
 73
     1
 74
     0
  7

 75
     0
147
0.3868628397755418
 76
     0
 77
     2
 78
   300
148
0.0
149
0.0
100
AcDbLayout
  1
Model
 70
     1
 71
     0
 10
0.0
 20
0.0
 11
12.0
 21
9.0
 12
0.0
 22
0.0
 32
0.0
 14
0.0
 24
0.0
 34
0.0
 15
0.0
 25
0.0
 35
0.0
146
0.0
 13
0.0
 23
0.0
 33
0.0
 16
1.0
 26
0.0
 36
0.0
 17
0.0
 27
1.0
 37
0.0
 76
     0
330
1F
331
94
  0
MATERIAL
  5
97
102
{ACAD_XDICTIONARY
360
188
102
}
102
{ACAD_REACTORS
330
72
102
}
330
72
100
AcDbMaterial
  1
ByBlock
 94
       63
  0
MATERIAL
  5
96
102
{ACAD_XDICTIONARY
360
186
102
}
102
{ACAD_REACTORS
330
72
102
}
330
72
100
AcDbMaterial
  1
ByLayer
 94
       63
  0
MATERIAL
  5
98
102
{ACAD_XDICTIONARY
360
110
102
}
102
{ACAD_REACTORS
330
72
102
}
330
72
100
AcDbMaterial
  1
Global
 43
0.0208000000566244
 43
0.0
 43
0.0
 43
0.0
 43
0.0
 43
0.0208000000566244
 43
0.0
 43
0.0
 43
0.0
 43
0.0
 43
1.0
 43
0.0
 43
0.0
 43
0.0
 43
0.0
 43
1.0
 49
0.0208000000566244
 49
0.0
 49
0.0
 49
0.0
 49
0.0
 49
0.0208000000566244
 49
0.0
 49
0.0
 49
0.0
 49
0.0
 49
1.0
 49
0.0
 49
0.0
 49
0.0
 49
0.0
 49
1.0
142
0.0208000000566244
142
0.0
142
0.0
142
0.0
142
0.0
142
0.0208000000566244
142
0.0
142
0.0
142
0.0
142
0.0
142
1.0
142
0.0
142
0.0
142
0.0
142
0.0
142
1.0
144
0.0208000000566244
144
0.0
144
0.0
144
0.0
144
0.0
144
0.0208000000566244
144
0.0
144
0.0
144
0.0
144
0.0
144
1.0
144
0.0
144
0.0
144
0.0
144
0.0
144
1.0
 94
       63
1001
ACAD
1070
    -1
1070
     3
1070
     0
1000

1071
        0
1070
     0
  0
MLEADERSTYLE
  5
E5
102
{ACAD_REACTORS
330
D7
102
}
330
D7
100
AcDbMLeaderStyle
179
     2
170
     2
171
     1
172
     0
 90
        2
 40
0.0
 41
0.0
173
     1
 91
-1056964608
340
14
 92
       -2
290
     1
 42
0.09
291
     1
 43
0.36
  3
Standard
 44
0.18
300

342
11
174
     1
178
     1
175
     1
176
     0
 93
-1056964608
 45
0.18
292
     0
297
     0
 46
0.18
 94
-1056964608
 47
1.0
 49
1.0
140
1.0
293
     1
141
0.0
294
     1
177
     0
142
1.0
295
     0
296
     1
143
0.125
271
     0
272
     9
273
     9
298
     0
  0
MLEADERSTYLE
  5
D8
102
{ACAD_REACTORS
330
D7
102
}
330
D7
100
AcDbMLeaderStyle
179
     2
170
     2
171
     1
172
     0
 90
        2
 40
0.0
 41
0.0
173
     1
 91
-1056964608
340
14
 92
       -2
290
     1
 42
0.09
291
     1
 43
0.36
  3
Standard
 44
0.18
300

342
11
174
     1
178
     1
175
     1
176
     0
 93
-1056964608
 45
0.18
292
     0
297
     0
 46
0.18
 94
-1056964608
 47
1.0
 49
1.0
140
1.0
293
     1
141
0.0
294
     1
177
     0
142
1.0
295
     0
296
     0
143
0.125
271
     0
272
     9
273
     9
298
     0
  0
MLINESTYLE
  5
18
102
{ACAD_REACTORS
330
17
102
}
330
17
100
AcDbMlineStyle
  2
STANDARD
 70
     0
  3

 62
   256
 51
90.0
 52
90.0
 71
     2
 49
0.5
 62
   256
  6
BYLAYER
 49
-0.5
 62
   256
  6
BYLAYER
  0
ACDBPLACEHOLDER
  5
F
102
{ACAD_REACTORS
330
E
102
}
330
E
  0
SCALE
  5
B7
102
{ACAD_REACTORS
330
B6
102
}
330
B6
100
AcDbScale
 70
     0
300
1:1
140
1.0
141
1.0
290
     1
  0
SCALE
  5
124
102
{ACAD_REACTORS
330
B6
102
}
330
B6
100
AcDbScale
 70
     0
300
1:2
140
1.0
141
2.0
290
     0
  0
SCALE
  5
125
102
{ACAD_REACTORS
330
B6
102
}
330
B6
100
AcDbScale
 70
     0
300
1:4
140
1.0
141
4.0
290
     0
  0
SCALE
  5
126
102
{ACAD_REACTORS
330
B6
102
}
330
B6
100
AcDbScale
 70
     0
300
1:5
140
1.0
141
5.0
290
     0
  0
SCALE
  5
127
102
{ACAD_REACTORS
330
B6
102
}
330
B6
100
AcDbScale
 70
     0
300
1:8
140
1.0
141
8.0
290
     0
  0
SCALE
  5
128
102
{ACAD_REACTORS
330
B6
102
}
330
B6
100
AcDbScale
 70
     0
300
1:10
140
1.0
141
10.0
290
     0
  0
SCALE
  5
129
102
{ACAD_REACTORS
330
B6
102
}
330
B6
100
AcDbScale
 70
     0
300
1:16
140
1.0
141
16.0
290
     0
  0
SCALE
  5
12A
102
{ACAD_REACTORS
330
B6
102
}
330
B6
100
AcDbScale
 70
     0
300
1:20
140
1.0
141
20.0
290
     0
  0
SCALE
  5
12B
102
{ACAD_REACTORS
330
B6
102
}
330
B6
100
AcDbScale
 70
     0
300
1:30
140
1.0
141
30.0
290
     0
  0
SCALE
  5
12C
102
{ACAD_REACTORS
330
B6
102
}
330
B6
100
AcDbScale
 70
     0
300
1:40
140
1.0
141
40.0
290
     0
  0
SCALE
  5
12D
102
{ACAD_REACTORS
330
B6
102
}
330
B6
100
AcDbScale
 70
     0
300
1:50
140
1.0
141
50.0
290
     0
  0
SCALE
  5
12E
102
{ACAD_REACTORS
330
B6
102
}
330
B6
100
AcDbScale
 70
     0
300
1:100
140
1.0
141
100.0
290
     0
  0
SCALE
  5
12F
102
{ACAD_REACTORS
330
B6
102
}
330
B6
100
AcDbScale
 70
     0
300
2:1
140
2.0
141
1.0
290
     0
  0
SCALE
  5
130
102
{ACAD_REACTORS
330
B6
102
}
330
B6
100
AcDbScale
 70
     0
300
4:1
140
4.0
141
1.0
290
     0
  0
SCALE
  5
131
102
{ACAD_REACTORS
330
B6
102
}
330
B6
100
AcDbScale
 70
     0
300
8:1
140
8.0
141
1.0
290
     0
  0
SCALE
  5
132
102
{ACAD_REACTORS
330
B6
102
}
330
B6
100
AcDbScale
 70
     0
300
10:1
140
10.0
141
1.0
290
     0
  0
SCALE
  5
133
102
{ACAD_REACTORS
330
B6
102
}
330
B6
100
AcDbScale
 70
     0
300
100:1
140
100.0
141
1.0
290
     0
  0
SCALE
  5
134
102
{ACAD_REACTORS
330
B6
102
}
330
B6
100
AcDbScale
 70
     0
300
1/128" = 1'-0"
140
0.0078125
141
12.0
290
     0
  0
SCALE
  5
135
102
{ACAD_REACTORS
330
B6
102
}
330
B6
100
AcDbScale
 70
     0
300
1/64" = 1'-0"
140
0.015625
141
12.0
290
     0
  0
SCALE
  5
136
102
{ACAD_REACTORS
330
B6
102
}
330
B6
100
AcDbScale
 70
     0
300
1/32" = 1'-0"
140
0.03125
141
12.0
290
     0
  0
SCALE
  5
137
102
{ACAD_REACTORS
330
B6
102
}
330
B6
100
AcDbScale
 70
     0
300
1/16" = 1'-0"
140
0.0625
141
12.0
290
     0
  0
SCALE
  5
138
102
{ACAD_REACTORS
330
B6
102
}
330
B6
100
AcDbScale
 70
     0
300
3/32" = 1'-0"
140
0.09375
141
12.0
290
     0
  0
SCALE
  5
139
102
{ACAD_REACTORS
330
B6
102
}
330
B6
100
AcDbScale
 70
     0
300
1/8" = 1'-0"
140
0.125
141
12.0
290
     0
  0
SCALE
  5
13A
102
{ACAD_REACTORS
330
B6
102
}
330
B6
100
AcDbScale
 70
     0
300
3/16" = 1'-0"
140
0.1875
141
12.0
290
     0
  0
SCALE
  5
13B
102
{ACAD_REACTORS
330
B6
102
}
330
B6
100
AcDbScale
 70
     0
300
1/4" = 1'-0"
140
0.25
141
12.0
290
     0
  0
SCALE
  5
13C
102
{ACAD_REACTORS
330
B6
102
}
330
B6
100
AcDbScale
 70
     0
300
3/8" = 1'-0"
140
0.375
141
12.0
290
     0
  0
SCALE
  5
13D
102
{ACAD_REACTORS
330
B6
102
}
330
B6
100
AcDbScale
 70
     0
300
1/2" = 1'-0"
140
0.5
141
12.0
290
     0
  0
SCALE
  5
13E
102
{ACAD_REACTORS
330
B6
102
}
330
B6
100
AcDbScale
 70
     0
300
3/4" = 1'-0"
140
0.75
141
12.0
290
     0
  0
SCALE
  5
13F
102
{ACAD_REACTORS
330
B6
102
}
330
B6
100
AcDbScale
 70
     0
300
1" = 1'-0"
140
1.0
141
12.0
290
     0
  0
SCALE
  5
140
102
{ACAD_REACTORS
330
B6
102
}
330
B6
100
AcDbScale
 70
     0
300
1-1/2" = 1'-0"
140
1.5
141
12.0
290
     0
  0
SCALE
  5
141
102
{ACAD_REACTORS
330
B6
102
}
330
B6
100
AcDbScale
 70
     0
300
3" = 1'-0"
140
3.0
141
12.0
290
     0
  0
SCALE
  5
142
102
{ACAD_REACTORS
330
B6
102
}
330
B6
100
AcDbScale
 70
     0
300
6" = 1'-0"
140
6.0
141
12.0
290
     0
  0
SCALE
  5
143
102
{ACAD_REACTORS
330
B6
102
}
330
B6
100
AcDbScale
 70
     0
300
1'-0" = 1'-0"
140
12.0
141
12.0
290
     0
  0
ACDBSECTIONVIEWSTYLE
  5
1AA
102
{ACAD_XDICTIONARY
360
E6E
102
}
102
{ACAD_REACTORS
330
1A8
102
}
330
1A8
100
AcDbModelDocViewStyle
 70
     0
  3
Imperial24
290
     0
100
AcDbSectionViewStyle
 70
     0
 71
     0
 90
       78
 71
     1
340
11
 62
   256
 40
0.24
340
0
340
0
 62
   256
 40
0.24
300
I, O, Q, S, X, Z
 40
0.48
 90
        3
 40
0.18
 90
        1
 71
     2
340
16
 90
       25
 62
   256
340
16
 90
       50
 62
   256
 40
0.24
 40
0.0
 40
0.24
 71
     3
340
11
 62
   256
 40
0.24
 90
        1
 40
0.75
 90
        1
300
%<\AcVar ViewType \f "%tc1">% %<\AcVar ViewSectionStartId>%-%<\AcVar ViewSectionEndId>%\PSCALE %<\AcVar ViewScale \f "%sn">%
 71
     4
 62
   256
 62
   257
300
ANSI31
 40
1.0
 90
        0
290
     0
290
     0
 90
        6
 40
0.0
 40
1.570796326794896
 40
0.2617993877991494
 40
1.308996938995747
 40
-0.2617993877991494
 40
1.832595714594044
  0
ACDBSECTIONVIEWSTYLE
  5
238
102
{ACAD_XDICTIONARY
360
E72
102
}
102
{ACAD_REACTORS
330
1A8
102
}
330
1A8
100
AcDbModelDocViewStyle
 70
     0
  3
Metric50
290
     0
100
AcDbSectionViewStyle
 70
     0
 71
     0
 90
      102
 71
     1
340
11
 62
   256
 40
5.0
340
0
340
0
 62
   256
 40
5.0
300
I, O, Q, S, X, Z
 40
10.0
 90
        0
 40
2.5
 90
        0
 71
     2
340
16
 90
       25
 62
   256
340
16
 90
       50
 62
   256
 40
5.0
 40
2.5
 40
5.0
 71
     3
340
11
 62
   256
 40
5.0
 90
        0
 40
15.0
 90
        1
300
%<\AcVar ViewSectionStartId>%-%<\AcVar ViewSectionEndId>% (%<\AcVar ViewScale \f "%sn">%)
 71
     4
 62
   256
 62
   257
300
ANSI31
 40
1.0
 90
        0
290
     0
290
     0
 90
        6
 40
0.0
 40
1.570796326794896
 40
0.2617993877991494
 40
1.308996938995747
 40
-0.2617993877991494
 40
1.832595714594044
  0
TABLESTYLE
  5
20D
102
{ACAD_XDICTIONARY
360
886
102
}
102
{ACAD_REACTORS
330
86
102
}
330
86
100
AcDbTableStyle
280
     0
  3

 70
     0
 71
     3
 40
0.06
 41
0.06
280
     0
281
     0
  7
Legend
140
0.18
170
     4
 62
     0
 63
     7
283
     0
 90
      512
 91
        0
  1

274
    -2
284
     0
 64
     0
275
    -2
285
     0
 65
     0
276
    -2
286
     0
 66
     0
277
    -2
287
     0
 67
     0
278
    -2
288
     0
 68
     0
279
    -2
289
     0
 69
     0
  7
Legend
140
0.25
170
     5
 62
     0
 63
     7
283
     0
 90
      512
 91
        0
  1

274
    -2
284
     0
 64
     0
275
    -2
285
     0
 65
     0
276
    -2
286
     0
 66
     0
277
    -2
287
     0
 67
     0
278
    -2
288
     0
 68
     0
279
    -2
289
     0
 69
     0
  7
Legend
140
0.18
170
     4
 62
     0
 63
     7
283
     0
 90
      512
 91
        0
  1

274
    -2
284
     0
 64
     0
275
    -2
285
     0
 65
     0
276
    -2
286
     0
 66
     0
277
    -2
287
     0
 67
     0
278
    -2
288
     0
 68
     0
279
    -2
289
     0
 69
     0
  0
TABLESTYLE
  5
87
102
{ACAD_XDICTIONARY
360
104
102
}
102
{ACAD_REACTORS
330
86
102
}
330
86
100
AcDbTableStyle
280
     0
  3
Standard
 70
     0
 71
     0
 40
0.06
 41
0.06
280
     0
281
     0
  7
Standard
140
0.18
170
     2
 62
     0
 63
     7
283
     0
 90
      512
 91
        0
  1

274
    -2
284
     1
 64
     0
275
    -2
285
     1
 65
     0
276
    -2
286
     1
 66
     0
277
    -2
287
     1
 67
     0
278
    -2
288
     1
 68
     0
279
    -2
289
     1
 69
     0
  7
Standard
140
0.25
170
     5
 62
     0
 63
     7
283
     0
 90
      512
 91
        0
  1

274
    -2
284
     1
 64
     0
275
    -2
285
     1
 65
     0
276
    -2
286
     1
 66
     0
277
    -2
287
     1
 67
     0
278
    -2
288
     1
 68
     0
279
    -2
289
     1
 69
     0
  7
Standard
140
0.18
170
     5
 62
     0
 63
     7
283
     0
 90
      512
 91
        0
  1

274
    -2
284
     1
 64
     0
275
    -2
285
     1
 65
     0
276
    -2
286
     1
 66
     0
277
    -2
287
     1
 67
     0
278
    -2
288
     1
 68
     0
279
    -2
289
     1
 69
     0
  0
VISUALSTYLE
  5
9F
102
{ACAD_REACTORS
330
99
102
}
330
99
100
AcDbVisualStyle
  2
2dWireframe
 70
     4
177
     3
291
     0
 70
    58
 90
        0
176
     1
 90
        2
176
     1
 90
        1
176
     1
 90
        0
176
     1
 40
0.6
176
     1
 40
30.0
176
     1
 62
     7
420
 16777215
176
     1
 90
        1
176
     1
 90
        4
176
     1
 62
     7
176
     1
 62
   257
176
     1
 90
        1
176
     1
 90
        1
176
     1
 40
1.0
176
     1
 90
        0
176
     1
 62
   257
176
     1
 40
1.0
176
     1
 90
        1
176
     1
 90
        6
176
     1
 90
        2
176
     1
 62
     7
176
     1
 90
        5
176
     1
 90
        0
176
     1
 90
        0
176
     1
290
     0
176
     1
 90
        1
176
     1
 40
0.0
176
     1
 90
        0
176
     1
290
     1
176
     1
290
     1
176
     1
290
     0
176
     1
290
     0
176
     1
290
     0
176
     1
290
     0
176
     1
290
     0
176
     1
290
     0
176
     1
290
     0
176
     1
 90
       50
176
     1
 40
0.0
176
     1
 40
1.0
176
     1
 90
        0
176
     1
 62
    18
176
     1
 90
       50
176
     1
 90
        3
176
     1
 62
     5
420
      255
176
     1
290
     0
176
     1
 90
       50
176
     1
 90
       50
176
     1
 90
       50
176
     1
290
     0
176
     1
 90
       50
176
     1
 62
   256
176
     0
 40
1.0
176
     0
 90
        2
176
     1
  1
strokes_ogs.tif
176
     1
290
     0
176
     1
 40
1.0
176
     1
 40
1.0
176
     1
1001
ACAD
1000
AcDbSavedByObjectVersion
1070
     0
  0
VISUALSTYLE
  5
9E
102
{ACAD_REACTORS
330
99
102
}
330
99
100
AcDbVisualStyle
  2
Basic
 70
     7
177
     3
291
     1
 70
    58
 90
        1
176
     1
 90
        0
176
     1
 90
        1
176
     1
 90
        0
176
     1
 40
0.6
176
     1
 40
30.0
176
     1
 62
     7
420
 16777215
176
     1
 90
        0
176
     1
 90
        4
176
     1
 62
     7
176
     1
 62
   257
176
     1
 90
        1
176
     1
 90
        1
176
     1
 40
1.0
176
     1
 90
        8
176
     1
 62
     7
176
     1
 40
1.0
176
     1
 90
        1
176
     1
 90
        6
176
     1
 90
        2
176
     1
 62
     7
176
     1
 90
        5
176
     1
 90
        0
176
     1
 90
        0
176
     1
290
     0
176
     1
 90
        1
176
     1
 40
0.0
176
     1
 90
        0
176
     1
290
     0
176
     1
290
     1
176
     1
290
     1
176
     1
290
     0
176
     1
290
     0
176
     1
290
     0
176
     1
290
     0
176
     1
290
     0
176
     1
290
     0
176
     1
 90
       50
176
     1
 40
0.0
176
     1
 40
1.0
176
     1
 90
        0
176
     1
 62
    18
176
     1
 90
       50
176
     1
 90
        3
176
     1
 62
     5
420
      255
176
     1
290
     0
176
     1
 90
       50
176
     1
 90
       50
176
     1
 90
       50
176
     1
290
     0
176
     1
 90
       50
176
     1
 62
   256
176
     0
 40
1.0
176
     0
 90
        2
176
     1
  1
strokes_ogs.tif
176
     1
290
     0
176
     1
 40
1.0
176
     1
 40
1.0
176
     1
1001
ACAD
1000
AcDbSavedByObjectVersion
1070
     0
  0
VISUALSTYLE
  5
A5
102
{ACAD_REACTORS
330
99
102
}
330
99
100
AcDbVisualStyle
  2
Brighten
 70
    12
177
     3
291
     1
 70
    58
 90
        2
176
     1
 90
        2
176
     1
 90
        1
176
     1
 90
        0
176
     1
 40
0.6
176
     1
 40
30.0
176
     1
 62
     7
420
 16777215
176
     1
 90
        1
176
     1
 90
        4
176
     1
 62
     7
176
     1
 62
   257
176
     1
 90
        1
176
     1
 90
        1
176
     1
 40
1.0
176
     1
 90
        8
176
     1
 62
     7
176
     1
 40
1.0
176
     1
 90
        1
176
     1
 90
        6
176
     1
 90
        2
176
     1
 62
     7
176
     1
 90
        5
176
     1
 90
        0
176
     1
 90
        0
176
     1
290
     0
176
     1
 90
        1
176
     1
 40
50.0
176
     1
 90
        0
176
     1
290
     0
176
     1
290
     1
176
     1
290
     1
176
     1
290
     0
176
     1
290
     0
176
     1
290
     0
176
     1
290
     0
176
     1
290
     0
176
     1
290
     0
176
     1
 90
       50
176
     1
 40
0.0
176
     1
 40
1.0
176
     1
 90
        0
176
     1
 62
    18
176
     1
 90
       50
176
     1
 90
        3
176
     1
 62
     5
420
      255
176
     1
290
     0
176
     1
 90
       50
176
     1
 90
       50
176
     1
 90
       50
176
     1
290
     0
176
     1
 90
       50
176
     1
 62
   256
176
     0
 40
1.0
176
     0
 90
        2
176
     1
  1
strokes_ogs.tif
176
     1
290
     0
176
     1
 40
1.0
176
     1
 40
1.0
176
     1
1001
ACAD
1000
AcDbSavedByObjectVersion
1070
     0
  0
VISUALSTYLE
  5
A9
102
{ACAD_REACTORS
330
99
102
}
330
99
100
AcDbVisualStyle
  2
ColorChange
 70
    16
177
     3
291
     1
 70
    58
 90
        2
176
     1
 90
        2
176
     1
 90
        3
176
     1
 90
        0
176
     1
 40
0.6
176
     1
 40
30.0
176
     1
 62
     8
420
  8421504
176
     1
 90
        1
176
     1
 90
        4
176
     1
 62
     7
176
     1
 62
   257
176
     1
 90
        1
176
     1
 90
        1
176
     1
 40
1.0
176
     1
 90
        8
176
     1
 62
     8
420
  8421504
176
     1
 40
1.0
176
     1
 90
        1
176
     1
 90
        6
176
     1
 90
        2
176
     1
 62
     7
176
     1
 90
        5
176
     1
 90
        0
176
     1
 90
        0
176
     1
290
     0
176
     1
 90
        1
176
     1
 40
0.0
176
     1
 90
        0
176
     1
290
     0
176
     1
290
     1
176
     1
290
     1
176
     1
290
     0
176
     1
290
     0
176
     1
290
     0
176
     1
290
     0
176
     1
290
     0
176
     1
290
     0
176
     1
 90
       50
176
     1
 40
0.0
176
     1
 40
1.0
176
     1
 90
        0
176
     1
 62
    18
176
     1
 90
       50
176
     1
 90
        3
176
     1
 62
     5
420
      255
176
     1
290
     0
176
     1
 90
       50
176
     1
 90
       50
176
     1
 90
       50
176
     1
290
     0
176
     1
 90
       50
176
     1
 62
   256
176
     0
 40
1.0
176
     0
 90
        2
176
     1
  1
strokes_ogs.tif
176
     1
290
     0
176
     1
 40
1.0
176
     1
 40
1.0
176
     1
1001
ACAD
1000
AcDbSavedByObjectVersion
1070
     0
  0
VISUALSTYLE
  5
A2
102
{ACAD_REACTORS
330
99
102
}
330
99
100
AcDbVisualStyle
  2
Conceptual
 70
     9
177
     3
291
     0
 70
    58
 90
        3
176
     1
 90
        2
176
     1
 90
        1
176
     1
 90
        0
176
     1
 40
0.6
176
     1
 40
30.0
176
     1
 62
     7
420
 16777215
176
     1
 90
        2
176
     1
 90
        2
176
     1
 62
     7
176
     1
 62
   257
176
     1
 90
        1
176
     1
 90
        1
176
     1
 40
40.0
176
     1
 90
        8
176
     1
 62
     7
176
     1
 40
1.0
176
     1
 90
        1
176
     1
 90
        6
176
     1
 90
        2
176
     1
 62
     7
176
     1
 90
        3
176
     1
 90
        0
176
     1
 90
        0
176
     1
290
     0
176
     1
 90
        1
176
     1
 40
0.0
176
     1
 90
        0
176
     1
290
     0
176
     1
290
     1
176
     1
290
     1
176
     1
290
     0
176
     1
290
     0
176
     1
290
     0
176
     1
290
     0
176
     1
290
     0
176
     1
290
     0
176
     1
 90
       50
176
     1
 40
0.0
176
     1
 40
1.0
176
     1
 90
        0
176
     1
 62
    18
176
     1
 90
       50
176
     1
 90
        3
176
     1
 62
     5
420
      255
176
     1
290
     0
176
     1
 90
       50
176
     1
 90
       50
176
     1
 90
       50
176
     1
290
     0
176
     1
 90
       50
176
     1
 62
   256
176
     0
 40
1.0
176
     0
 90
        2
176
     1
  1
strokes_ogs.tif
176
     1
290
     0
176
     1
 40
1.0
176
     1
 40
1.0
176
     1
1001
ACAD
1000
AcDbSavedByObjectVersion
1070
     0
  0
VISUALSTYLE
  5
A4
102
{ACAD_REACTORS
330
99
102
}
330
99
100
AcDbVisualStyle
  2
Dim
 70
    11
177
     3
291
     1
 70
    58
 90
        2
176
     1
 90
        2
176
     1
 90
        1
176
     1
 90
        0
176
     1
 40
0.6
176
     1
 40
30.0
176
     1
 62
     7
420
 16777215
176
     1
 90
        1
176
     1
 90
        4
176
     1
 62
     7
176
     1
 62
   257
176
     1
 90
        1
176
     1
 90
        1
176
     1
 40
1.0
176
     1
 90
        8
176
     1
 62
     7
176
     1
 40
1.0
176
     1
 90
        1
176
     1
 90
        6
176
     1
 90
        2
176
     1
 62
     7
176
     1
 90
        5
176
     1
 90
        0
176
     1
 90
        0
176
     1
290
     0
176
     1
 90
        1
176
     1
 40
-50.0
176
     1
 90
        0
176
     1
290
     0
176
     1
290
     1
176
     1
290
     1
176
     1
290
     0
176
     1
290
     0
176
     1
290
     0
176
     1
290
     0
176
     1
290
     0
176
     1
290
     0
176
     1
 90
       50
176
     1
 40
0.0
176
     1
 40
1.0
176
     1
 90
        0
176
     1
 62
    18
176
     1
 90
       50
176
     1
 90
        3
176
     1
 62
     5
420
      255
176
     1
290
     0
176
     1
 90
       50
176
     1
 90
       50
176
     1
 90
       50
176
     1
290
     0
176
     1
 90
       50
176
     1
 62
   256
176
     0
 40
1.0
176
     0
 90
        2
176
     1
  1
strokes_ogs.tif
176
     1
290
     0
176
     1
 40
1.0
176
     1
 40
1.0
176
     1
1001
ACAD
1000
AcDbSavedByObjectVersion
1070
     0
  0
VISUALSTYLE
  5
175
102
{ACAD_REACTORS
330
99
102
}
330
99
100
AcDbVisualStyle
  2
EdgeColorOff
 70
    22
177
     3
291
     1
 70
    58
 90
        2
176
     0
 90
        2
176
     0
 90
        0
176
     0
 90
        0
176
     0
 40
0.6
176
     0
 40
30.0
176
     0
 62
     7
420
 16777215
176
     0
 90
        1
176
     0
 90
        4
176
     0
 62
     7
176
     0
 62
   257
176
     0
 90
        1
176
     0
 90
        1
176
     0
 40
1.0
176
     0
 90
        8
176
     2
 62
     7
176
     0
 40
1.0
176
     0
 90
        1
176
     0
 90
        6
176
     0
 90
        2
176
     0
 62
     7
176
     0
 90
        5
176
     0
 90
        0
176
     0
 90
        0
176
     0
290
     0
176
     0
 90
        1
176
     0
 40
0.0
176
     0
 90
        0
176
     0
290
     0
176
     1
290
     1
176
     1
290
     1
176
     1
290
     0
176
     1
290
     0
176
     1
290
     0
176
     1
290
     0
176
     1
290
     0
176
     1
290
     0
176
     1
 90
       50
176
     1
 40
0.0
176
     1
 40
1.0
176
     1
 90
        0
176
     1
 62
    18
176
     1
 90
       50
176
     1
 90
        3
176
     1
 62
     5
420
      255
176
     1
290
     0
176
     1
 90
       50
176
     1
 90
       50
176
     1
 90
       50
176
     1
290
     0
176
     1
 90
       50
176
     1
 62
   256
176
     0
 40
1.0
176
     0
 90
        2
176
     1
  1
strokes_ogs.tif
176
     1
290
     0
176
     1
 40
1.0
176
     1
 40
1.0
176
     1
1001
ACAD
1000
AcDbSavedByObjectVersion
1070
     0
  0
VISUALSTYLE
  5
A8
102
{ACAD_REACTORS
330
99
102
}
330
99
100
AcDbVisualStyle
  2
Facepattern
 70
    15
177
     3
291
     1
 70
    58
 90
        2
176
     1
 90
        2
176
     1
 90
        1
176
     1
 90
        0
176
     1
 40
0.6
176
     1
 40
30.0
176
     1
 62
     7
420
 16777215
176
     1
 90
        1
176
     1
 90
        4
176
     1
 62
     7
176
     1
 62
   257
176
     1
 90
        1
176
     1
 90
        1
176
     1
 40
1.0
176
     1
 90
        8
176
     1
 62
     7
176
     1
 40
1.0
176
     1
 90
        1
176
     1
 90
        6
176
     1
 90
        2
176
     1
 62
     7
176
     1
 90
        5
176
     1
 90
        0
176
     1
 90
        0
176
     1
290
     0
176
     1
 90
        1
176
     1
 40
0.0
176
     1
 90
        0
176
     1
290
     0
176
     1
290
     1
176
     1
290
     1
176
     1
290
     0
176
     1
290
     0
176
     1
290
     0
176
     1
290
     0
176
     1
290
     0
176
     1
290
     0
176
     1
 90
       50
176
     1
 40
0.0
176
     1
 40
1.0
176
     1
 90
        0
176
     1
 62
    18
176
     1
 90
       50
176
     1
 90
        3
176
     1
 62
     5
420
      255
176
     1
290
     0
176
     1
 90
       50
176
     1
 90
       50
176
     1
 90
       50
176
     1
290
     0
176
     1
 90
       50
176
     1
 62
   256
176
     0
 40
1.0
176
     0
 90
        2
176
     1
  1
strokes_ogs.tif
176
     1
290
     0
176
     1
 40
1.0
176
     1
 40
1.0
176
     1
1001
ACAD
1000
AcDbSavedByObjectVersion
1070
     0
  0
VISUALSTYLE
  5
9A
102
{ACAD_REACTORS
330
99
102
}
330
99
100
AcDbVisualStyle
  2
Flat
 70
     0
177
     3
291
     1
 70
    58
 90
        2
176
     1
 90
        1
176
     1
 90
        1
176
     1
 90
        2
176
     1
 40
0.6
176
     1
 40
30.0
176
     1
 62
     7
420
 16777215
176
     1
 90
        0
176
     1
 90
        0
176
     1
 62
     7
176
     1
 62
   257
176
     1
 90
        1
176
     1
 90
        1
176
     1
 40
1.0
176
     1
 90
        8
176
     1
 62
     7
176
     1
 40
1.0
176
     1
 90
        1
176
     1
 90
        6
176
     1
 90
        2
176
     1
 62
     7
176
     1
 90
        5
176
     1
 90
        0
176
     1
 90
        0
176
     1
290
     0
176
     1
 90
       13
176
     1
 40
0.0
176
     1
 90
        0
176
     1
290
     0
176
     1
290
     1
176
     1
290
     1
176
     1
290
     0
176
     1
290
     0
176
     1
290
     0
176
     1
290
     0
176
     1
290
     0
176
     1
290
     0
176
     1
 90
       50
176
     1
 40
0.0
176
     1
 40
1.0
176
     1
 90
        0
176
     1
 62
    18
176
     1
 90
       50
176
     1
 90
        3
176
     1
 62
     5
420
      255
176
     1
290
     0
176
     1
 90
       50
176
     1
 90
       50
176
     1
 90
       50
176
     1
290
     0
176
     1
 90
       50
176
     1
 62
   256
176
     0
 40
1.0
176
     0
 90
        2
176
     1
  1
strokes_ogs.tif
176
     1
290
     0
176
     1
 40
1.0
176
     1
 40
1.0
176
     1
1001
ACAD
1000
AcDbSavedByObjectVersion
1070
     0
  0
VISUALSTYLE
  5
9B
102
{ACAD_REACTORS
330
99
102
}
330
99
100
AcDbVisualStyle
  2
FlatWithEdges
 70
     1
177
     3
291
     1
 70
    58
 90
        2
176
     1
 90
        1
176
     1
 90
        1
176
     1
 90
        2
176
     1
 40
0.6
176
     1
 40
30.0
176
     1
 62
     7
420
 16777215
176
     1
 90
        1
176
     1
 90
        0
176
     1
 62
     7
176
     1
 62
   257
176
     1
 90
        1
176
     1
 90
        1
176
     1
 40
1.0
176
     1
 90
        0
176
     1
 62
   257
176
     1
 40
1.0
176
     1
 90
        1
176
     1
 90
        6
176
     1
 90
        2
176
     1
 62
     7
176
     1
 90
        5
176
     1
 90
        0
176
     1
 90
        0
176
     1
290
     0
176
     1
 90
       13
176
     1
 40
0.0
176
     1
 90
        0
176
     1
290
     0
176
     1
290
     1
176
     1
290
     1
176
     1
290
     0
176
     1
290
     0
176
     1
290
     0
176
     1
290
     0
176
     1
290
     0
176
     1
290
     0
176
     1
 90
       50
176
     1
 40
0.0
176
     1
 40
1.0
176
     1
 90
        0
176
     1
 62
    18
176
     1
 90
       50
176
     1
 90
        3
176
     1
 62
     5
420
      255
176
     1
290
     0
176
     1
 90
       50
176
     1
 90
       50
176
     1
 90
       50
176
     1
290
     0
176
     1
 90
       50
176
     1
 62
   256
176
     0
 40
1.0
176
     0
 90
        2
176
     1
  1
strokes_ogs.tif
176
     1
290
     0
176
     1
 40
1.0
176
     1
 40
1.0
176
     1
1001
ACAD
1000
AcDbSavedByObjectVersion
1070
     0
  0
VISUALSTYLE
  5
9C
102
{ACAD_REACTORS
330
99
102
}
330
99
100
AcDbVisualStyle
  2
Gouraud
 70
     2
177
     3
291
     1
 70
    58
 90
        2
176
     1
 90
        2
176
     1
 90
        1
176
     1
 90
        2
176
     1
 40
0.6
176
     1
 40
30.0
176
     1
 62
     7
420
 16777215
176
     1
 90
        0
176
     1
 90
        0
176
     1
 62
     7
176
     1
 62
   257
176
     1
 90
        1
176
     1
 90
        1
176
     1
 40
1.0
176
     1
 90
        0
176
     1
 62
     7
176
     1
 40
1.0
176
     1
 90
        1
176
     1
 90
        6
176
     1
 90
        2
176
     1
 62
     7
176
     1
 90
        5
176
     1
 90
        0
176
     1
 90
        0
176
     1
290
     0
176
     1
 90
       13
176
     1
 40
0.0
176
     1
 90
        0
176
     1
290
     0
176
     1
290
     1
176
     1
290
     1
176
     1
290
     0
176
     1
290
     0
176
     1
290
     0
176
     1
290
     0
176
     1
290
     0
176
     1
290
     0
176
     1
 90
       50
176
     1
 40
0.0
176
     1
 40
1.0
176
     1
 90
        0
176
     1
 62
    18
176
     1
 90
       50
176
     1
 90
        3
176
     1
 62
     5
420
      255
176
     1
290
     0
176
     1
 90
       50
176
     1
 90
       50
176
     1
 90
       50
176
     1
290
     0
176
     1
 90
       50
176
     1
 62
   256
176
     0
 40
1.0
176
     0
 90
        2
176
     1
  1
strokes_ogs.tif
176
     1
290
     0
176
     1
 40
1.0
176
     1
 40
1.0
176
     1
1001
ACAD
1000
AcDbSavedByObjectVersion
1070
     0
  0
VISUALSTYLE
  5
9D
102
{ACAD_REACTORS
330
99
102
}
330
99
100
AcDbVisualStyle
  2
GouraudWithEdges
 70
     3
177
     3
291
     1
 70
    58
 90
        2
176
     1
 90
        2
176
     1
 90
        1
176
     1
 90
        2
176
     1
 40
0.6
176
     1
 40
30.0
176
     1
 62
     7
420
 16777215
176
     1
 90
        1
176
     1
 90
        0
176
     1
 62
     7
176
     1
 62
   257
176
     1
 90
        1
176
     1
 90
        1
176
     1
 40
1.0
176
     1
 90
        0
176
     1
 62
   257
176
     1
 40
1.0
176
     1
 90
        1
176
     1
 90
        6
176
     1
 90
        2
176
     1
 62
     7
176
     1
 90
        5
176
     1
 90
        0
176
     1
 90
        0
176
     1
290
     0
176
     1
 90
       13
176
     1
 40
0.0
176
     1
 90
        0
176
     1
290
     0
176
     1
290
     1
176
     1
290
     1
176
     1
290
     0
176
     1
290
     0
176
     1
290
     0
176
     1
290
     0
176
     1
290
     0
176
     1
290
     0
176
     1
 90
       50
176
     1
 40
0.0
176
     1
 40
1.0
176
     1
 90
        0
176
     1
 62
    18
176
     1
 90
       50
176
     1
 90
        3
176
     1
 62
     5
420
      255
176
     1
290
     0
176
     1
 90
       50
176
     1
 90
       50
176
     1
 90
       50
176
     1
290
     0
176
     1
 90
       50
176
     1
 62
   256
176
     0
 40
1.0
176
     0
 90
        2
176
     1
  1
strokes_ogs.tif
176
     1
290
     0
176
     1
 40
1.0
176
     1
 40
1.0
176
     1
1001
ACAD
1000
AcDbSavedByObjectVersion
1070
     0
  0
VISUALSTYLE
  5
A1
102
{ACAD_REACTORS
330
99
102
}
330
99
100
AcDbVisualStyle
  2
Hidden
 70
     6
177
     3
291
     0
 70
    58
 90
        1
176
     1
 90
        2
176
     1
 90
        2
176
     1
 90
        0
176
     1
 40
0.6
176
     1
 40
30.0
176
     1
 62
     7
420
 16777215
176
     1
 90
        2
176
     1
 90
        2
176
     1
 62
     7
176
     1
 62
   257
176
     1
 90
        2
176
     1
 90
        1
176
     1
 40
40.0
176
     1
 90
        0
176
     1
 62
   257
176
     1
 40
1.0
176
     1
 90
        1
176
     1
 90
        6
176
     1
 90
        2
176
     1
 62
     7
176
     1
 90
        3
176
     1
 90
        0
176
     1
 90
        0
176
     1
290
     0
176
     1
 90
        1
176
     1
 40
0.0
176
     1
 90
        0
176
     1
290
     0
176
     1
290
     1
176
     1
290
     1
176
     1
290
     0
176
     1
290
     0
176
     1
290
     0
176
     1
290
     0
176
     1
290
     0
176
     1
290
     0
176
     1
 90
       50
176
     1
 40
0.0
176
     1
 40
1.0
176
     1
 90
        0
176
     1
 62
    18
176
     1
 90
       50
176
     1
 90
        3
176
     1
 62
     5
420
      255
176
     1
290
     0
176
     1
 90
       50
176
     1
 90
       50
176
     1
 90
       50
176
     1
290
     0
176
     1
 90
       50
176
     1
 62
   256
176
     0
 40
1.0
176
     0
 90
        2
176
     1
  1
strokes_ogs.tif
176
     1
290
     0
176
     1
 40
1.0
176
     1
 40
1.0
176
     1
1001
ACAD
1000
AcDbSavedByObjectVersion
1070
     0
  0
VISUALSTYLE
  5
173
102
{ACAD_REACTORS
330
99
102
}
330
99
100
AcDbVisualStyle
  2
JitterOff
 70
    20
177
     3
291
     1
 70
    58
 90
        2
176
     0
 90
        2
176
     0
 90
        0
176
     0
 90
        0
176
     0
 40
0.6
176
     0
 40
30.0
176
     0
 62
     7
420
 16777215
176
     0
 90
        1
176
     0
 90
        4
176
     0
 62
     7
176
     0
 62
   257
176
     0
 90
        1
176
     0
 90
        1
176
     0
 40
1.0
176
     0
 90
       10
176
     2
 62
     7
176
     0
 40
1.0
176
     0
 90
        1
176
     0
 90
        6
176
     0
 90
        2
176
     0
 62
     7
176
     0
 90
        5
176
     0
 90
        0
176
     0
 90
        0
176
     0
290
     0
176
     0
 90
        1
176
     0
 40
0.0
176
     0
 90
        0
176
     0
290
     0
176
     1
290
     1
176
     1
290
     1
176
     1
290
     0
176
     1
290
     0
176
     1
290
     0
176
     1
290
     0
176
     1
290
     0
176
     1
290
     0
176
     1
 90
       50
176
     1
 40
0.0
176
     1
 40
1.0
176
     1
 90
        0
176
     1
 62
    18
176
     1
 90
       50
176
     1
 90
        3
176
     1
 62
     5
420
      255
176
     1
290
     0
176
     1
 90
       50
176
     1
 90
       50
176
     1
 90
       50
176
     1
290
     0
176
     1
 90
       50
176
     1
 62
   256
176
     0
 40
1.0
176
     0
 90
        2
176
     1
  1
strokes_ogs.tif
176
     1
290
     0
176
     1
 40
1.0
176
     1
 40
1.0
176
     1
1001
ACAD
1000
AcDbSavedByObjectVersion
1070
     0
  0
VISUALSTYLE
  5
A7
102
{ACAD_REACTORS
330
99
102
}
330
99
100
AcDbVisualStyle
  2
Linepattern
 70
    14
177
     3
291
     1
 70
    58
 90
        2
176
     1
 90
        2
176
     1
 90
        1
176
     1
 90
        0
176
     1
 40
0.6
176
     1
 40
30.0
176
     1
 62
     7
420
 16777215
176
     1
 90
        1
176
     1
 90
        4
176
     1
 62
     7
176
     1
 62
   257
176
     1
 90
        7
176
     1
 90
        7
176
     1
 40
1.0
176
     1
 90
        8
176
     1
 62
     7
176
     1
 40
1.0
176
     1
 90
        1
176
     1
 90
        6
176
     1
 90
        2
176
     1
 62
     7
176
     1
 90
        5
176
     1
 90
        0
176
     1
 90
        0
176
     1
290
     0
176
     1
 90
        1
176
     1
 40
0.0
176
     1
 90
        0
176
     1
290
     0
176
     1
290
     1
176
     1
290
     1
176
     1
290
     0
176
     1
290
     0
176
     1
290
     0
176
     1
290
     0
176
     1
290
     0
176
     1
290
     0
176
     1
 90
       50
176
     1
 40
0.0
176
     1
 40
1.0
176
     1
 90
        0
176
     1
 62
    18
176
     1
 90
       50
176
     1
 90
        3
176
     1
 62
     5
420
      255
176
     1
290
     0
176
     1
 90
       50
176
     1
 90
       50
176
     1
 90
       50
176
     1
290
     0
176
     1
 90
       50
176
     1
 62
   256
176
     0
 40
1.0
176
     0
 90
        2
176
     1
  1
strokes_ogs.tif
176
     1
290
     0
176
     1
 40
1.0
176
     1
 40
1.0
176
     1
1001
ACAD
1000
AcDbSavedByObjectVersion
1070
     0
  0
VISUALSTYLE
  5
174
102
{ACAD_REACTORS
330
99
102
}
330
99
100
AcDbVisualStyle
  2
OverhangOff
 70
    21
177
     3
291
     1
 70
    58
 90
        2
176
     0
 90
        2
176
     0
 90
        0
176
     0
 90
        0
176
     0
 40
0.6
176
     0
 40
30.0
176
     0
 62
     7
420
 16777215
176
     0
 90
        1
176
     0
 90
        4
176
     0
 62
     7
176
     0
 62
   257
176
     0
 90
        1
176
     0
 90
        1
176
     0
 40
1.0
176
     0
 90
        9
176
     2
 62
     7
176
     0
 40
1.0
176
     0
 90
        1
176
     0
 90
        6
176
     0
 90
        2
176
     0
 62
     7
176
     0
 90
        5
176
     0
 90
        0
176
     0
 90
        0
176
     0
290
     0
176
     0
 90
        1
176
     0
 40
0.0
176
     0
 90
        0
176
     0
290
     0
176
     1
290
     1
176
     1
290
     1
176
     1
290
     0
176
     1
290
     0
176
     1
290
     0
176
     1
290
     0
176
     1
290
     0
176
     1
290
     0
176
     1
 90
       50
176
     1
 40
0.0
176
     1
 40
1.0
176
     1
 90
        0
176
     1
 62
    18
176
     1
 90
       50
176
     1
 90
        3
176
     1
 62
     5
420
      255
176
     1
290
     0
176
     1
 90
       50
176
     1
 90
       50
176
     1
 90
       50
176
     1
290
     0
176
     1
 90
       50
176
     1
 62
   256
176
     0
 40
1.0
176
     0
 90
        2
176
     1
  1
strokes_ogs.tif
176
     1
290
     0
176
     1
 40
1.0
176
     1
 40
1.0
176
     1
1001
ACAD
1000
AcDbSavedByObjectVersion
1070
     0
  0
VISUALSTYLE
  5
A3
102
{ACAD_REACTORS
330
99
102
}
330
99
100
AcDbVisualStyle
  2
Realistic
 70
     8
177
     3
291
     0
 70
    58
 90
        2
176
     1
 90
        3
176
     1
 90
        0
176
     1
 90
        2
176
     1
 40
0.6
176
     1
 40
30.0
176
     1
 62
     7
420
 16777215
176
     1
 90
        0
176
     1
 90
        0
176
     1
 62
     7
176
     1
 62
   257
176
     1
 90
        1
176
     1
 90
        1
176
     1
 40
1.0
176
     1
 90
        8
176
     1
 62
   257
176
     1
 40
1.0
176
     1
 90
        1
176
     1
 90
        6
176
     1
 90
        2
176
     1
 62
     7
176
     1
 90
        3
176
     1
 90
        0
176
     1
 90
        0
176
     1
290
     0
176
     1
 90
       13
176
     1
 40
0.0
176
     1
 90
        0
176
     1
290
     0
176
     1
290
     1
176
     1
290
     1
176
     1
290
     0
176
     1
290
     0
176
     1
290
     0
176
     1
290
     0
176
     1
290
     0
176
     1
290
     0
176
     1
 90
       50
176
     1
 40
0.0
176
     1
 40
1.0
176
     1
 90
        0
176
     1
 62
    18
176
     1
 90
       50
176
     1
 90
        3
176
     1
 62
     5
420
      255
176
     1
290
     0
176
     1
 90
       50
176
     1
 90
       50
176
     1
 90
       50
176
     1
290
     0
176
     1
 90
       50
176
     1
 62
   256
176
     0
 40
1.0
176
     0
 90
        2
176
     1
  1
strokes_ogs.tif
176
     1
290
     0
176
     1
 40
1.0
176
     1
 40
1.0
176
     1
1001
ACAD
1000
AcDbSavedByObjectVersion
1070
     0
  0
VISUALSTYLE
  5
182
102
{ACAD_REACTORS
330
99
102
}
330
99
100
AcDbVisualStyle
  2
Shaded
 70
    27
177
     3
291
     0
 70
    58
 90
        2
176
     1
 90
        2
176
     1
 90
        1
176
     1
 90
        2
176
     1
 40
0.6
176
     1
 40
30.0
176
     1
 62
     7
420
 16777215
176
     1
 90
        0
176
     1
 90
        4
176
     1
 62
     7
176
     1
 62
   257
176
     1
 90
        1
176
     1
 90
        1
176
     1
 40
1.0
176
     1
 90
        8
176
     1
 62
   257
176
     1
 40
1.0
176
     1
 90
        1
176
     1
 90
        6
176
     1
 90
        2
176
     1
 62
     8
420
  7895160
176
     1
 90
        3
176
     1
 90
        0
176
     1
 90
        0
176
     1
290
     0
176
     1
 90
        5
176
     1
 40
0.0
176
     1
 90
        0
176
     1
290
     0
176
     1
290
     1
176
     1
290
     1
176
     1
290
     0
176
     1
290
     0
176
     1
290
     0
176
     1
290
     0
176
     1
290
     0
176
     1
290
     0
176
     1
 90
       50
176
     1
 40
0.0
176
     1
 40
1.0
176
     1
 90
        0
176
     1
 62
    18
176
     1
 90
       50
176
     1
 90
        3
176
     1
 62
     5
420
      255
176
     1
290
     0
176
     1
 90
       50
176
     1
 90
       50
176
     1
 90
       50
176
     1
290
     0
176
     1
 90
       50
176
     1
 62
   256
176
     0
 40
1.0
176
     0
 90
        2
176
     1
  1
strokes_ogs.tif
176
     1
290
     0
176
     1
 40
1.0
176
     1
 40
1.0
176
     1
1001
ACAD
1000
AcDbSavedByObjectVersion
1070
     0
  0
VISUALSTYLE
  5
181
102
{ACAD_REACTORS
330
99
102
}
330
99
100
AcDbVisualStyle
  2
Shaded with edges
 70
    26
177
     3
291
     0
 70
    58
 90
        2
176
     1
 90
        2
176
     1
 90
        1
176
     1
 90
        2
176
     1
 40
0.6
176
     1
 40
30.0
176
     1
 62
     7
420
 16777215
176
     1
 90
        1
176
     1
 90
        2
176
     1
 62
     7
176
     1
 62
   257
176
     1
 90
        2
176
     1
 90
        1
176
     1
 40
1.0
176
     1
 90
        8
176
     1
 62
   257
176
     1
 40
1.0
176
     1
 90
        1
176
     1
 90
        6
176
     1
 90
        2
176
     1
 62
     7
176
     1
 90
        3
176
     1
 90
        0
176
     1
 90
        0
176
     1
290
     0
176
     1
 90
        5
176
     1
 40
0.0
176
     1
 90
        0
176
     1
290
     0
176
     1
290
     1
176
     1
290
     1
176
     1
290
     0
176
     1
290
     0
176
     1
290
     0
176
     1
290
     0
176
     1
290
     0
176
     1
290
     0
176
     1
 90
       50
176
     1
 40
0.0
176
     1
 40
1.0
176
     1
 90
        0
176
     1
 62
    18
176
     1
 90
       50
176
     1
 90
        3
176
     1
 62
     5
420
      255
176
     1
290
     0
176
     1
 90
       50
176
     1
 90
       50
176
     1
 90
       50
176
     1
290
     0
176
     1
 90
       50
176
     1
 62
   256
176
     0
 40
1.0
176
     0
 90
        2
176
     1
  1
strokes_ogs.tif
176
     1
290
     0
176
     1
 40
1.0
176
     1
 40
1.0
176
     1
1001
ACAD
1000
AcDbSavedByObjectVersion
1070
     0
  0
VISUALSTYLE
  5
17E
102
{ACAD_REACTORS
330
99
102
}
330
99
100
AcDbVisualStyle
  2
Shades of Gray
 70
    23
177
     3
291
     0
 70
    58
 90
        2
176
     1
 90
        2
176
     1
 90
        3
176
     1
 90
        0
176
     1
 40
0.6
176
     1
 40
30.0
176
     1
 62
     7
420
 16777215
176
     1
 90
        2
176
     1
 90
        2
176
     1
 62
     7
176
     1
 62
     7
176
     1
 90
        1
176
     1
 90
        1
176
     1
 40
40.0
176
     1
 90
        8
176
     1
 62
     7
176
     1
 40
1.0
176
     1
 90
        1
176
     1
 90
        6
176
     1
 90
        2
176
     1
 62
     7
176
     1
 90
        3
176
     1
 90
        0
176
     1
 90
        0
176
     1
290
     0
176
     1
 90
        1
176
     1
 40
0.0
176
     1
 90
        0
176
     1
290
     0
176
     1
290
     1
176
     1
290
     1
176
     1
290
     0
176
     1
290
     0
176
     1
290
     0
176
     1
290
     0
176
     1
290
     0
176
     1
290
     0
176
     1
 90
       50
176
     1
 40
0.0
176
     1
 40
1.0
176
     1
 90
        0
176
     1
 62
    18
176
     1
 90
       50
176
     1
 90
        3
176
     1
 62
     5
420
      255
176
     1
290
     0
176
     1
 90
       50
176
     1
 90
       50
176
     1
 90
       50
176
     1
290
     0
176
     1
 90
       50
176
     1
 62
   256
176
     0
 40
1.0
176
     0
 90
        2
176
     1
  1
strokes_ogs.tif
176
     1
290
     0
176
     1
 40
1.0
176
     1
 40
1.0
176
     1
1001
ACAD
1000
AcDbSavedByObjectVersion
1070
     0
  0
VISUALSTYLE
  5
17F
102
{ACAD_REACTORS
330
99
102
}
330
99
100
AcDbVisualStyle
  2
Sketchy
 70
    24
177
     3
291
     0
 70
    58
 90
        1
176
     1
 90
        2
176
     1
 90
        2
176
     1
 90
        0
176
     1
 40
0.6
176
     1
 40
30.0
176
     1
 62
     7
420
 16777215
176
     1
 90
        2
176
     1
 90
        2
176
     1
 62
     7
176
     1
 62
     7
176
     1
 90
        1
176
     1
 90
        1
176
     1
 40
40.0
176
     1
 90
       11
176
     1
 62
     7
176
     1
 40
1.0
176
     1
 90
        1
176
     1
 90
        6
176
     1
 90
        2
176
     1
 62
     7
176
     1
 90
        6
176
     1
 90
        0
176
     1
 90
        0
176
     1
290
     0
176
     1
 90
        1
176
     1
 40
0.0
176
     1
 90
        0
176
     1
290
     0
176
     1
290
     1
176
     1
290
     1
176
     1
290
     0
176
     1
290
     0
176
     1
290
     0
176
     1
290
     0
176
     1
290
     0
176
     1
290
     0
176
     1
 90
       50
176
     1
 40
0.0
176
     1
 40
1.0
176
     1
 90
        0
176
     1
 62
    18
176
     1
 90
       50
176
     1
 90
        3
176
     1
 62
     5
420
      255
176
     1
290
     0
176
     1
 90
       50
176
     1
 90
       50
176
     1
 90
       50
176
     1
290
     0
176
     1
 90
       50
176
     1
 62
   256
176
     0
 40
1.0
176
     0
 90
        2
176
     1
  1
strokes_ogs.tif
176
     1
290
     0
176
     1
 40
1.0
176
     1
 40
1.0
176
     1
1001
ACAD
1000
AcDbSavedByObjectVersion
1070
     0
  0
VISUALSTYLE
  5
A6
102
{ACAD_REACTORS
330
99
102
}
330
99
100
AcDbVisualStyle
  2
Thicken
 70
    13
177
     3
291
     1
 70
    58
 90
        2
176
     1
 90
        2
176
     1
 90
        1
176
     1
 90
        0
176
     1
 40
0.6
176
     1
 40
30.0
176
     1
 62
     7
420
 16777215
176
     1
 90
        1
176
     1
 90
        4
176
     1
 62
     7
176
     1
 62
   257
176
     1
 90
        1
176
     1
 90
        1
176
     1
 40
1.0
176
     1
 90
       12
176
     1
 62
     7
176
     1
 40
1.0
176
     1
 90
        1
176
     1
 90
        6
176
     1
 90
        2
176
     1
 62
     7
176
     1
 90
        5
176
     1
 90
        0
176
     1
 90
        0
176
     1
290
     0
176
     1
 90
        1
176
     1
 40
0.0
176
     1
 90
        0
176
     1
290
     0
176
     1
290
     1
176
     1
290
     1
176
     1
290
     0
176
     1
290
     0
176
     1
290
     0
176
     1
290
     0
176
     1
290
     0
176
     1
290
     0
176
     1
 90
       50
176
     1
 40
0.0
176
     1
 40
1.0
176
     1
 90
        0
176
     1
 62
    18
176
     1
 90
       50
176
     1
 90
        3
176
     1
 62
     5
420
      255
176
     1
290
     0
176
     1
 90
       50
176
     1
 90
       50
176
     1
 90
       50
176
     1
290
     0
176
     1
 90
       50
176
     1
 62
   256
176
     0
 40
1.0
176
     0
 90
        2
176
     1
  1
strokes_ogs.tif
176
     1
290
     0
176
     1
 40
1.0
176
     1
 40
1.0
176
     1
1001
ACAD
1000
AcDbSavedByObjectVersion
1070
     0
  0
VISUALSTYLE
  5
A0
102
{ACAD_REACTORS
330
99
102
}
330
99
100
AcDbVisualStyle
  2
Wireframe
 70
     5
177
     3
291
     0
 70
    58
 90
        0
176
     1
 90
        2
176
     1
 90
        0
176
     1
 90
        0
176
     1
 40
0.6
176
     1
 40
30.0
176
     1
 62
     7
420
 16777215
176
     1
 90
        1
176
     1
 90
        4
176
     1
 62
     7
176
     1
 62
   257
176
     1
 90
        1
176
     1
 90
        1
176
     1
 40
1.0
176
     1
 90
        0
176
     1
 62
   257
176
     1
 40
1.0
176
     1
 90
        1
176
     1
 90
        6
176
     1
 90
        2
176
     1
 62
     7
176
     1
 90
        3
176
     1
 90
        0
176
     1
 90
        0
176
     1
290
     0
176
     1
 90
        1
176
     1
 40
0.0
176
     1
 90
        0
176
     1
290
     0
176
     1
290
     1
176
     1
290
     1
176
     1
290
     0
176
     1
290
     0
176
     1
290
     0
176
     1
290
     0
176
     1
290
     0
176
     1
290
     0
176
     1
 90
       50
176
     1
 40
0.0
176
     1
 40
1.0
176
     1
 90
        0
176
     1
 62
    18
176
     1
 90
       50
176
     1
 90
        3
176
     1
 62
     5
420
      255
176
     1
290
     0
176
     1
 90
       50
176
     1
 90
       50
176
     1
 90
       50
176
     1
290
     0
176
     1
 90
       50
176
     1
 62
   256
176
     0
 40
1.0
176
     0
 90
        2
176
     1
  1
strokes_ogs.tif
176
     1
290
     0
176
     1
 40
1.0
176
     1
 40
1.0
176
     1
1001
ACAD
1000
AcDbSavedByObjectVersion
1070
     0
  0
VISUALSTYLE
  5
180
102
{ACAD_REACTORS
330
99
102
}
330
99
100
AcDbVisualStyle
  2
X-Ray
 70
    25
177
     3
291
     0
 70
    58
 90
        2
176
     1
 90
        2
176
     1
 90
        1
176
     1
 90
        1
176
     1
 40
0.5
176
     1
 40
30.0
176
     1
 62
     7
420
 16777215
176
     1
 90
        1
176
     1
 90
        0
176
     1
 62
     7
176
     1
 62
   257
176
     1
 90
        1
176
     1
 90
        1
176
     1
 40
1.0
176
     1
 90
        8
176
     1
 62
     7
176
     1
 40
1.0
176
     1
 90
        1
176
     1
 90
        6
176
     1
 90
        2
176
     1
 62
     7
176
     1
 90
        3
176
     1
 90
        0
176
     1
 90
        0
176
     1
290
     0
176
     1
 90
       13
176
     1
 40
0.0
176
     1
 90
        0
176
     1
290
     0
176
     1
290
     1
176
     1
290
     1
176
     1
290
     0
176
     1
290
     0
176
     1
290
     0
176
     1
290
     0
176
     1
290
     0
176
     1
290
     0
176
     1
 90
       50
176
     1
 40
0.0
176
     1
 40
1.0
176
     1
 90
        0
176
     1
 62
    18
176
     1
 90
       50
176
     1
 90
        3
176
     1
 62
     5
420
      255
176
     1
290
     0
176
     1
 90
       50
176
     1
 90
       50
176
     1
 90
       50
176
     1
290
     0
176
     1
 90
       50
176
     1
 62
   256
176
     0
 40
1.0
176
     0
 90
        2
176
     1
  1
strokes_ogs.tif
176
     1
290
     0
176
     1
 40
1.0
176
     1
 40
1.0
176
     1
1001
ACAD
1000
AcDbSavedByObjectVersion
1070
     0
  0
DICTIONARYVAR
  5
F0
102
{ACAD_REACTORS
330
66
102
}
330
66
100
DictionaryVariables
280
     0
  1
1:1
  0
DICTIONARYVAR
  5
EF
102
{ACAD_REACTORS
330
66
102
}
330
66
100
DictionaryVariables
280
     0
  1
STANDARD
  0
DICTIONARYVAR
  5
89
102
{ACAD_REACTORS
330
66
102
}
330
66
100
DictionaryVariables
280
     0
  1
STANDARD
  0
DICTIONARYVAR
  5
1B7
102
{ACAD_REACTORS
330
66
102
}
330
66
100
DictionaryVariables
280
     0
  1
Imperial24
  0
DICTIONARYVAR
  5
1B8
102
{ACAD_REACTORS
330
66
102
}
330
66
100
DictionaryVariables
280
     0
  1
Imperial24
  0
DICTIONARYVAR
  5
67
102
{ACAD_REACTORS
330
66
102
}
330
66
100
DictionaryVariables
280
     0
  1
2
  0
DICTIONARYVAR
  5
6B
102
{ACAD_REACTORS
330
66
102
}
330
66
100
DictionaryVariables
280
     0
  1
1
  0
DICTIONARYVAR
  5
14D
102
{ACAD_REACTORS
330
66
102
}
330
66
100
DictionaryVariables
280
     0
  1
0
  0
DICTIONARYVAR
  5
14E
102
{ACAD_REACTORS
330
66
102
}
330
66
100
DictionaryVariables
280
     0
  1
0
  0
DICTIONARY
  5
E6D
102
{ACAD_REACTORS
330
E6B
102
}
330
E6B
100
AcDbDictionary
281
     1
  0
DICTIONARY
  5
E6C
102
{ACAD_REACTORS
330
E6B
102
}
330
E6B
100
AcDbDictionary
281
     1
  3
2426644748768
350
E66
  3
2426644748784
350
E67
  3
2426644748800
350
E68
  3
2426644748816
350
E69
  3
2426644748832
350
E6A
  0
XRECORD
  5
E5B
102
{ACAD_REACTORS
330
21B
102
}
330
21B
100
AcDbXrecord
280
     1
1000
ADE02C001
1070
     1
1070
     0
1002
{
1002
}
1002
{
1002
}
1002
{
1002
}
1000

  0
XRECORD
  5
32A
102
{ACAD_REACTORS
330
329
102
}
330
329
100
AcDbXrecord
280
     1
  0
DMSTYLIZEDENTITIESTABLE
  5
215
102
{ACAD_REACTORS
330
204
102
}
330
204
100
AcMapDMStylizedEntitiesTable
 70
     1
  0
MAPRESOURCEMANAGEROBJECT
  5
209
102
{ACAD_REACTORS
330
204
102
}
330
204
100
AcMapResourceManager
 70
     1
 90
        0
  0
DATATABLE
  5
208
102
{ACAD_REACTORS
330
204
102
}
330
204
100
AcDbDataTable
 70
     2
 90
        4
 91
       15
  1

 92
        3
  2
OriginalClassName
  3
AcMapDMDefaultStyle
  3
AcMapDMEntityStyle
  3
AcMapDMRasterStyle
  3
AcMapDMSEAnnotationStyle
  3
AcMapDMSEHatchStyle
  3
AcMapDMSETextStyle
  3
AcMapDMThematicStyle
  3
AcMapDMBaseElement
  3
AcMapDMAttachedDwgsQueryElement
  3
AcMapDMFeatureElement
  3
AcMapDMLayerElement
  3
AcMapDMCurrentDwgQueryElement
  3
AcMapDMRasterElement
  3
AcMapDMTopoElement
  3
AcMapDMTopoQueryElement
 92
        3
  2
ProxyDisplayName
  3
Default
  3
Entity
  3
Raster
  3
Annotation
  3
Hatch
  3
Text
  3
Thematic
  3
Map Base
  3
Ade Query
  3
Feature Class
  3
Layer
  3
Ade Project Query
  3
Raster
  3
Topology
  3
Topology Query
 92
        1
  2
CustomObjectType
 93
        2
 93
        2
 93
        2
 93
        2
 93
        2
 93
        2
 93
        2
 93
        1
 93
        1
 93
        1
 93
        1
 93
        1
 93
        1
 93
        1
 93
        1
 92
        1
  2
StyleCoExistanceType
 93
        1
 93
        1
 93
        1
 93
        1
 93
        1
 93
        1
 93
        2
 93
        0
 93
        0
 93
        0
 93
        0
 93
        0
 93
        0
 93
        0
 93
        0
  0
DMMAPMANAGER
  5
205
102
{ACAD_REACTORS
330
204
102
}
330
204
100
AcDbDictionary
281
     1
  3
DisplayMap1
350
20B
100
AcDbDictionaryWithDefault
340
20B
100
AcMapDMMapManager
 70
     1
340
20B
  0
DMSTYLELIBRARY
  5
206
102
{ACAD_REACTORS
330
204
102
}
330
204
100
AcMapDMStyleLibrary
 70
     1
 70
     1
360
207
  0
DICTIONARY
  5
216
102
{ACAD_REACTORS
330
204
102
}
330
204
100
AcDbDictionary
281
     1
  0
IRD_DSC_RECORD
  5
349
102
{ACAD_REACTORS
330
348
102
}
330
348
100
CIrdBaseRecord
1070
   516
1071
        0
1004
0115000043006C0061007300730000004900720064000000000049007200640000005400680065002000620061007300650020007300750070006500720063006C006100730073000000490072006400200043006C0061007300730020005600200031002E0030003200000000000000
100
CIrdDscRecord
1071
     5377
1000
Class-_-Ird
1071
        0
  0
IRD_DSC_RECORD
  5
34A
102
{ACAD_REACTORS
330
348
102
}
330
348
100
CIrdBaseRecord
1070
   516
1071
        0
1004
0116000043006C0061007300730043006800610072000000490072006400000043006C006100730073000000490072006400000054006800650020006300680061007200610063007400650072002000760061006C00750065000000490072006400200043006C0061007300730020005600200031002E0030003200000000
1004
000000
100
CIrdDscRecord
1071
     5633
1000
ClassChar-_-Ird
1071
        0
  0
IRD_DSC_RECORD
  5
34B
102
{ACAD_REACTORS
330
348
102
}
330
348
100
CIrdBaseRecord
1070
   516
1071
        0
1004
013000005300740072006100DF0065006E00620061007500700072006F006A0065006B00740065005F004C0069006E00690065006E000000610064006500000043006C006100730073000000490072006400000000000000010000800000540059005000000043006C00610073007300430068006100720000004900720064
1004
0000000000000000000000
100
CIrdDscRecord
1071
    12289
1000
Straßenbauprojekte_Linien-_-ade
1071
        0
  0
DICTIONARY
  5
E70
330
1AC
100
AcDbDictionary
280
     1
281
     1
  3
ACAD_XREC_ROUNDTRIP
360
E71
  0
DICTIONARY
  5
E74
330
239
100
AcDbDictionary
280
     1
281
     1
  3
ACAD_XREC_ROUNDTRIP
360
E75
  0
DICTIONARY
  5
194
330
22
100
AcDbDictionary
280
     1
281
     1
  0
DICTIONARY
  5
188
330
97
100
AcDbDictionary
280
     1
281
     1
  3
FBXASSET
360
189
  0
DICTIONARY
  5
186
330
96
100
AcDbDictionary
280
     1
281
     1
  3
FBXASSET
360
187
  0
DICTIONARY
  5
110
330
98
100
AcDbDictionary
280
     1
281
     1
  3
BUMPTILE
360
112
  3
DIFFUSETILE
360
111
  3
FBXASSET
360
18A
  3
OPACITYTILE
360
113
  3
REFLECTIONTILE
360
114
  0
DICTIONARY
  5
E6E
330
1AA
100
AcDbDictionary
280
     1
281
     1
  3
ACAD_XREC_ROUNDTRIP
360
E6F
  0
DICTIONARY
  5
E72
330
238
100
AcDbDictionary
280
     1
281
     1
  3
ACAD_XREC_ROUNDTRIP
360
E73
  0
DICTIONARY
  5
886
330
20D
100
AcDbDictionary
280
     1
281
     1
  3
ACAD_ROUNDTRIP_2008_TABLESTYLE_CELLSTYLEMAP
360
E64
  0
DICTIONARY
  5
104
330
87
100
AcDbDictionary
280
     1
281
     1
  3
ACAD_ROUNDTRIP_2008_TABLESTYLE_CELLSTYLEMAP
360
E63
  0
XRECORD
  5
E66
102
{ACAD_REACTORS
330
E6C
102
}
330
E6C
100
AcDbXrecord
280
     1
  1
AcDb_Thumbnail_Schema
102
{ATTRRECORD
341
E67
  2
AcDbDs::TreatedAsObjectData
280
     1
291
     1
102
ATTRRECORD}
102
{ATTRRECORD
341
E68
  2
AcDbDs::Legacy
280
     1
291
     1
102
ATTRRECORD}
  2
AcDbDs::ID
280
    10
 91
        8
102
{ATTRRECORD
341
E69
  2
AcDs:Indexable
280
     1
291
     1
102
ATTRRECORD}
102
{ATTRRECORD
341
E6A
  2
AcDbDs::HandleAttribute
280
     7
282
     1
102
ATTRRECORD}
  2
Thumbnail_Data
280
    15
 91
        0
  0
XRECORD
  5
E67
102
{ACAD_REACTORS
330
E6C
102
}
330
E6C
100
AcDbXrecord
280
     1
  1
AcDbDs::TreatedAsObjectDataSchema
  2
AcDbDs::TreatedAsObjectData
280
     1
 91
        0
  0
XRECORD
  5
E68
102
{ACAD_REACTORS
330
E6C
102
}
330
E6C
100
AcDbXrecord
280
     1
  1
AcDbDs::LegacySchema
  2
AcDbDs::Legacy
280
     1
 91
        0
  0
XRECORD
  5
E69
102
{ACAD_REACTORS
330
E6C
102
}
330
E6C
100
AcDbXrecord
280
     1
  1
AcDbDs::IndexedPropertySchema
  2
AcDs:Indexable
280
     1
 91
        0
  0
XRECORD
  5
E6A
102
{ACAD_REACTORS
330
E6C
102
}
330
E6C
100
AcDbXrecord
280
     1
  1
AcDbDs::HandleAttributeSchema
  2
AcDbDs::HandleAttribute
280
     7
 91
        1
284
     1
  0
DMMAP
  5
20B
102
{ACAD_REACTORS
330
205
330
20E
102
}
330
205
100
AcMapDMMap
 70
     1
  1
Vorgabe
 70
     1
330
0
100
AcMapDMMap
 70
     1
 90
        1
360
20E
 90
        1
 40
1.797693134862314E+99
 70
     1
100
AcMapDMMap
 70
     6
 70
     0
 40
1.797693134862314E+99
290
     1
290
     1
 40
1.0
 40
3.0
  1
Legend
 90
        1
 40
1.797693134862314E+99
  1

 70
     0
 40
1.0
 70
     1
 90
        0
 90
        1
360
20F
 40
49.27742599861335
290
     0
290
     1
 40
1.0
 90
       40
290
     0
290
     1
 40
6367.771032249414
 40
334904.9480024836
 40
6968.717967750645
 40
335250.9165975155
  1

290
     1
 40
123.5167496935449
 40
51.4866775483815
  0
DMSTYLECATEGORY
  5
207
102
{ACAD_REACTORS
330
206
102
}
330
206
100
AcMapDMStyleCategory
 70
     1
  1
Anzeigestile
 70
     0
  0
XRECORD
  5
E71
102
{ACAD_REACTORS
330
E70
102
}
330
E70
100
AcDbXrecord
280
     1
102
DISPLAYNAME
  1
Imperial24
102
FLAGS
 90
        0
  0
XRECORD
  5
E75
102
{ACAD_REACTORS
330
E74
102
}
330
E74
100
AcDbXrecord
280
     1
102
DISPLAYNAME
  1
Metric50
102
FLAGS
 90
        0
  0
XRECORD
  5
189
102
{ACAD_REACTORS
330
188
102
}
330
188
100
AcDbXrecord
280
     1
 70
     1
 90
429727718
  1
508B35C9-AEE7-456F-BE74-D52651303AC6
310
504B03040A0000080000B670623B3DEE336E79000000790000001B0000006175746F6465736B2D64657369676E2D7061636B6167652E786D6C3C3F786D6C2076657273696F6E3D22312E302220656E636F64696E673D227574662D3822203F3E3C666F726D6174733E3C666F726D61743E687474703A2F2F736368656D612E
310
6175746F6465736B2E636F6D2F64657369676E2D7061636B6167652F323030393C2F666F726D61743E3C2F666F726D6174733E504B0304140006080800B670623BD486FD9CA0000000F4000000130000005B436F6E74656E745F54797065735D2E786D6C7D8EC10E82300C865F65E91D8A1E8C310C0EEA1BF002731658846E
310
D98AC1B77784ABF1D8FE5FBFBF75BBCE937A534CCEB38643598122B6FEE978D0B0485F9C41B54DDD7D022595594E1A469170414C76A4D9A4D207E29CF43ECE46F218070CC6BECC4078ACAA135ACF422C856C0E68EA1BF5669944DDD7BCDE7B1F8E415D77AECB980613C2E4AC91FC167A2B244592486606FC29C8FD7F045B9A
310
EF7053A7E60B504B0304140006080800B670623B28ED286BEB0000007C01000008000000636F72652E786D6C8D90416EC3201045AF82665B6183218D6D61A254764FD00B204C5C94182C03558F5F9C3852BBEB6A467FFE9B197D71FA9E6FE8CBACC17AD7012D0820E3B41FAD9B3A48F1826B40272956EFE32F1B20A766D3C1
310
268314D3EAD3B24BDABB685CCCAAF3A3D94515828980F42D371D04FD696655A814B3235C8B45E9AB9A4C419F5D8653B2237A1CB163DE672FD6AC209BF3C08E0D1B30EB19C3FC9D72FCC6EB231EFA33EDE96BDD341517E5064B11EDFCBCAF57A3A2194156843498524CAA0FCA5B7268F9E185D42D21A2DCEC7FA0B48CFF8492
310
759155FBBB0F2C80A4F991FB408A72CB22977B50B96EB9C91F504B0304140006080800B670623B55019EA25F0000007C00000007000000636E782E786D6C4DCB3B0E80201045D1AD90E915ED2CF8AC45050C11660C8261F98AB1B07AC9C97D42D718D865D3E909258CFD00CCE24AC6E326A164D74DC0B4128928FF32603847
310
2BA13128B1252AC747C6BAB984FC68F0B87FE8960A5C09FE86CFB69FBA01504B0304140006080800B670623B7BC41AC871010000D40300000C0000006662782F636F72652E786D6CC553ED6E8320147D15C2DF4501B56B6D90A64BBB27D80B50A5CE54C120983EFEAE1F4DD7A56BBA5FF3879273EEE59E7310BE393735EA95
310
ED2AA333CC428A91D2B9292A5D66D8BB63B0C26823B835C67D2BC348CB46657880B1E0A535BE9DA1DC68A7B403549B42CDA0EC3AE530CA6B5864B8CB3F552343E91D5474A7B095F949962A6421D0502778E72C0840D390E18DC5F170E664C205F7BE2A66B62A605A75AC94C522DDEEE3651AEF837817C741F2CE92E02D592D
310
83FD6ECB76EC7595A651C2C9D02CB8AB9A8BBADC2AE954814544691A3016D0E883256BBA58278B17BA5A53CAC9507ED3E4DBE2C9265F691747B3DCA9ADC382819091F8E1162272A8933DE82182932144F88C09DF060D8140C84E1EEA8B8F1340BDCA9DB1093085F157AA97B557309586747CD0EF0B4EA64E983A6E0EAEEFCE
310
889E9EF17847386AA94B30211D2C0FDE0D3AF9A4610EAD5536E8DD1969631B593F67E381C33F5157F17725E5A636F6BF1491F980C8FC7B90E13E8A2F504B0304140006080800B670623B70102A487D0000009D0000000B0000006662782F636E782E786D6C4DCCD10A83201886E15B91FFDC95A5C30335ACCDFB886521330D
310
A76397BF1A1DECE883878F57749FD5A3B74D2F17830472A901D9F088930B8B849267CC01754AA418F3DF0D5018572BE160506249B16C274D761E8BCFBB7A179E27F65CB39A0F14D396184C9921B81F34C3ACA1B4B99ABB6E6F062A25AA5F69DF23ACBE504B0304140006080800B670623B3610CA3329010000120200003100
310
00006662782F42384135303843342D343331462D343546312D424341352D3532343432364645413344462F636F72652E786D6C8D515B6EC32010BC0AE22B55850D0E446E848992B43E412FE000495162B07854397EA176A4F62F3F2C9A9D991D58BEBB8F37F0AD7D30CE76905418026DA553C65E3A98E219B510EC04F7CEC5
310
3F3408EC30EA0E16180A7EF12E4D0B249D8DDAC68C5AA7F4020E21E80881BCE54B0783FCD2E3500D296646B856D320AFC34557A4CAEDCC133C449F0380794839A138B47B86DB2345744D7A44594FD0E1B867883594369BFE63BF7EEF793D0B054FC9A8456E548E63CE46FB674D8A58F068C6477CE9F510B582A2C1F80D1182
310
70F349E816B32D65AFB8DD62CCEB42FF274A937A52948C8DEB66893BCB021484D7734370E5D2E9F608A3EF93F3119479ABA0E50B14B8C298119A43CCC4FCFCECB8A18B6388CEE7EF5D5D4F994BD86CBBA182D76543B9FCAE2FD7B24DF103504B0304140006080800B670623B1B8617914E0100003303000030000000666278
310
2F42384135303843342D343331462D343546312D424341352D3532343432364645413344462F636E782E786D6CD593C16EC32010447F0571AD6CE3D489D20813A9877E410FBD62D82434182CC055F3F75D1292E692438FBD206B7698593D61BEFD1E2DF982108D773D6D6B460938E5B571FB9ECE6957AD29D90A1EBC4F7736
310
4A9C1CA1A759A682EF839FA72269D8C9D92654AD71C72206887E0E0A22CAF926B15E498B01E0AA19451807D01A34B919F16B070157417138917400F2F6FA41FCF0092A45DEE414C19BDC21783E4BD39D891265658C3D8DEA00A3ACE59CBC8678ACB54CB26EEB6BD7839D7E9348BE70AD9C8321B9BCA7F9A4A26C542347DEE0
310
50F09802D22BA6749A800A394DD62899107273365E3C82CFC6A55557BC06C10774B7ABE7AEC3B0F34CF06446280E154026D0542C187BA9DAB6628BF7B6DBB0E5A65B3EB1F58631DE64BBE083F7B65CC218087E22CABB042E51D1F2268F1FE12B3EA24D40D63E9CFE00120194D60B9D5BC67FE6D39CDF37E20AF817881F504B
310
0304140006080800B670623BBFEF2E3B690500003C100000340000006662782F42384135303843342D343331462D343546312D424341352D3532343432364645413344462F6F626A656374732E786D6CAD575D739B3814FD2B0CFB0C98D84E931D4227B6938EA793B6534F3BFB90198F0099B001899144EAECAFDF231018B0
310
D37A3FFC609090EEE7B94757C1FB7D915B2F54C88CB31BDB7727B64559CC938CA53776A576CE956DBD0F03C1B9EA2DB32D460A7A63EB693B0C52C1ABD24C257447AA5C8D66EF177F5832A68CDA569C13296F6C193FD182B8A4523CA1F2D94D88226EBADBBBBEDB2C1C8A4D05299F46424B222853B014F30C52ACC6287F389C
310
D85E1878FA7B18E87FB36AFAF62AAFF667A83F635211161F291B8999FAB3D5DDC5FCDA99CF6653677679E13B8BFBC5CAF1DF4D27CBCBE5F2FAF6EE1A8AA51290642C117467871F101B91C581D77CEA2C36869F3229E68CD1B8F61F1ED6361B89092D294B90C78C4A68EB793D190E7D1D9BDEE7A91E1B95FDE9F3BCEAEFE809
310
6A6D6F9F7D4B79F4275C90E7A04248AA51D5C4C738DAE06F72885AC4796EBE65D22A88A22223B995679120E2D50EB1542F098381188D4EA111AE3DB043FF20AF6F2B4AE3D7D83D65E5AECA730D4D3BAC91BD05FEA992B565D95F549CD6069B90AB2A63EACA38A45E4B6A87D781574F86817E4C2FCCC72690D62E2729520E37
310
9BAF234797BAF6D62B3BFC781FED37BA1E4F2B2F052FA9501A3E80569BB8F6A9A364D4FA67654E6F803383981F82F21591FF84F23D9882BC896C3FDBCF8C162508933B2E0AE4C69DD43F6BD2BE38DDDBF10BF86CB4FA784D37F3AF16075E67EC9030DECA1FC0A55373F5DFF3378C591FA9BDF485C10B0A8C8BA909E5262639
310
A8E72163488806A595734C81CB77D1DE0ED7604A303B76913CEC0272F412782FF88EFF4636D8AA56DF7B322474C4B767303F625997056C7B032C473C592B36CEBD15F3F9FF5233B7ABCDC74D257624A60F8658567497B14CE1EC3C80B76FD02011038F9EE9EB0F2E12387A9C844D3F09855125116D1D731DF8B43D2CF4E0A0
310
79A020C6BE946BCE0B7EA1E1219331CD73C228AF5A2DDD31A4B1DA918CE91350854D40A71723140BFA92E94E62B0626016CEFA5864A50E5977E8753CEDBEE1CBB7F52780D20E17AF0BA0F5F9B02A3AD07DCC732EB6D1EBB661421BE0C39E21BABF0FE16D22EA6929407C8DE596724C88B749B6DB5512BC7B228ADFD7CB7EA6
310
3A22397E690BA8D5D8D4E40CEC8CDA23C2C0B7D5898640101CEC9C6D331CE328CB93CAFBBAC70A642DF70DF95155945B52F08AA973C23469FD69ADEF84F7BB18F983A8F8C90E37F5D35980B2139A1C523540813E824EF83448CF7C72B598CE97D7CEEDDDDD3B6736BFBC771677EF66CE6A7E7139F7A793E9EDF2B2B3A8B624
310
0CDA13AA5F8388264EC4A0129909F3B7F5A16CEDF08128E97D680ACA4B9BE7B7B58BB638F0B00700EF36AE8B32A705658A68F83EE897FC2B41573190D1CCAF0B92D233A47CFEB019D9809933F67DD1A5467F8CF69AD9A5AE859342D45355448C64F968A371DC2D596ADC6E43D93D1B466F877A64E2893E54F23C4B40388995
310
525E5005DA3983ED45412510D3EFCA13737B3863F74BD30F2A12E5B4B5E489A025CE25500DB855B11ACE5BBFA185D35DD48D8DC3CE7DC69F2944DB42AA6F6CF09BCA622ADD08C7A36E7C6AE18000BAB08E040135C2D21C9D75B3A91B77BB746C403F38018DFE6EC939DD92F16B40BC05294B9CDA035AAD6D330AE27FE4786B
310
8E45145EA34A75BE1C263A676A35A8ACC6297337400BF16C54EF515F3F77CB77EB3583889C754FFA29081AA98E2222ADEF05DA3E63D2EDEA8B8756C05A7FB6CABC4A91CBF325398202CC952E70A008A830324BA200D5E5EF8F5F04C75DB4B0EE3340E071C98B823333B83577596BF3849B69F2085AA0FAFA212F26BEFF5877
310
FDE622B28D88A42E49E43326DA82D31E8CB006401E1DA726059ECEC168F97A6599036306A135688F9AD2E61A6EA178F4CD51974A9F2CCB9F36FE5EBD14601068D9C3BF01504B0304140006080000B670623B000000000000000000000000350000006662782F42384135303843342D343331462D343546312D424341352D35
310
32343432364645413344462F76657274696365732E62696E504B0304140006080800B670623BF270F1330600000004000000360000006662782F42384135303843342D343331462D343546312D424341352D3532343432364645413344462F747269616E676C65732E62696E636660600000504B0304140006080000B67062
310
3B000000000000000000000000370000006662782F42384135303843342D343331462D343546312D424341352D3532343432364645413344462F617474726962757465732E62696E504B0304140006080800B670623B08DA0BD19000000041010000360000006662782F42384135303843342D343331462D343546312D4243
310
41352D3532343432364645413344462F6469726563746F72792E786D6C858F410AC3201045AF22B36F53E9A60B35CBEEBAE80D244E44489C6234F4F835464A48035D0DF398FF9F8AF63D0E6CC63039F212F8F9020C7D47C6792B21C5FE7403D62A1188E2E60C98D7234A5830286103A55745067B9D86B8A3CF9C7F90C11DE6
310
07FB144396D7B6A82D282E9A152AD114D5EF2CB866EEE831B8EEA07A7BB5A8D7D61A2BAAEB7FD5F70921FF497D00504B0304140006080800B670623B3B4606F3FE000000A00100003B0000006662782F42384135303843342D343331462D343546312D424341352D3532343432364645413344462F7265736F75726365732F
310
636F72652E786D6C8D504B6E833010BD0A9A6D65B08134808CA354A427E8052C332156828DFCA97AFC9A40A576D7CDCCE87D344F8F9FBEE647F689CE6B6B7A6039850C8DB2A336530F315C4903D94970676DF82583CCC8197B5861107C72362E3BA4AC096842428D1D7107A5F71820538F74F4E0D50D6799CB1892C2DFF345
310
AABB9C306779A2934E701F5C0A906D4FD609C2A1B7D129F4BCD858C163D4E3AED163FAA9AF1A1D88F67CA98E6D35906AA82A52BFB39ABCD5CD915C86331BD86BD3B665CD8BD52C78D0F34F46E550061C419494B6843142CB0F5677F4D0D58717DA7494F26295FF31C565FCA7296A13AA728FBBD93C0896823C09C18BB5AFB4
310
9E65A6BD762BBE01504B010214000A0000080000B670623B3DEE336E79000000790000001B00000000000000000000000000000000006175746F6465736B2D64657369676E2D7061636B6167652E786D6C504B01021400140006080800B670623BD486FD9CA0000000F40000001300000000000000000000000000B2000000
310
5B436F6E74656E745F54797065735D2E786D6C504B01021400140006080800B670623B28ED286BEB0000007C010000080000000000000000000000000083010000636F72652E786D6C504B01021400140006080800B670623B55019EA25F0000007C000000070000000000000000000000000094020000636E782E786D6C50
310
4B01021400140006080800B670623B7BC41AC871010000D40300000C00000000000000000000000000180300006662782F636F72652E786D6C504B01021400140006080800B670623B70102A487D0000009D0000000B00000000000000000000000000B30400006662782F636E782E786D6C504B01021400140006080800B6
310
70623B3610CA3329010000120200003100000000000000000000000000590500006662782F42384135303843342D343331462D343546312D424341352D3532343432364645413344462F636F72652E786D6C504B01021400140006080800B670623B1B8617914E010000330300003000000000000000000000000000D10600
310
006662782F42384135303843342D343331462D343546312D424341352D3532343432364645413344462F636E782E786D6C504B01021400140006080800B670623BBFEF2E3B690500003C10000034000000000000000000000000006D0800006662782F42384135303843342D343331462D343546312D424341352D35323434
310
32364645413344462F6F626A656374732E786D6C504B01021400140006080000B670623B0000000000000000000000003500000000000000000000000000280E00006662782F42384135303843342D343331462D343546312D424341352D3532343432364645413344462F76657274696365732E62696E504B010214001400
310
06080800B670623BF270F133060000000400000036000000000000000000000000007B0E00006662782F42384135303843342D343331462D343546312D424341352D3532343432364645413344462F747269616E676C65732E62696E504B01021400140006080000B670623B00000000000000000000000037000000000000
310
00000000000000D50E00006662782F42384135303843342D343331462D343546312D424341352D3532343432364645413344462F617474726962757465732E62696E504B01021400140006080800B670623B08DA0BD1900000004101000036000000000000000000000000002A0F00006662782F42384135303843342D3433
310
31462D343546312D424341352D3532343432364645413344462F6469726563746F72792E786D6C504B01021400140006080800B670623B3B4606F3FE000000A00100003B000000000000000000000000000E1000006662782F42384135303843342D343331462D343546312D424341352D3532343432364645413344462F72
310
65736F75726365732F636F72652E786D6C504B0506000000000E000E0080040000651100000000
  0
XRECORD
  5
187
102
{ACAD_REACTORS
330
186
102
}
330
186
100
AcDbXrecord
280
     1
 70
     1
 90
429727718
  1
887D55A9-D0DD-414E-B741-A7DCD4DA2B4C
310
504B03040A0000080000B670623B3DEE336E79000000790000001B0000006175746F6465736B2D64657369676E2D7061636B6167652E786D6C3C3F786D6C2076657273696F6E3D22312E302220656E636F64696E673D227574662D3822203F3E3C666F726D6174733E3C666F726D61743E687474703A2F2F736368656D612E
310
6175746F6465736B2E636F6D2F64657369676E2D7061636B6167652F323030393C2F666F726D61743E3C2F666F726D6174733E504B0304140006080800B670623BD486FD9CA0000000F4000000130000005B436F6E74656E745F54797065735D2E786D6C7D8EC10E82300C865F65E91D8A1E8C310C0EEA1BF002731658846E
310
D98AC1B77784ABF1D8FE5FBFBF75BBCE937A534CCEB38643598122B6FEE978D0B0485F9C41B54DDD7D022595594E1A469170414C76A4D9A4D207E29CF43ECE46F218070CC6BECC4078ACAA135ACF422C856C0E68EA1BF5669944DDD7BCDE7B1F8E415D77AECB980613C2E4AC91FC167A2B244592486606FC29C8FD7F045B9A
310
EF7053A7E60B504B0304140006080800B670623BBC1638F5EC0000007C01000008000000636F72652E786D6C8D90416EC3201045AF82665B61836BE2D8C24471DB9CA01740401C94182C03558F5F9C3852BBEB6A467FFE9B197D7EF89E6EE8CB2CC17AD7032D0820E394D7D68D3DA478C67B4007C117EFE32F1B202727D3C3
310
2A83E0E3E2D3BC49CABB685CCCAAF3DA6CA20CC14440EA969B1E82BA98491632C5EC08D76296EA2A4753D06797E194AC468F2356E77DF66CCD02825543D50CACC62D39ED70FDC68EB8FD68F6F8787A6784342D1DDA1D2F5758F068A7E77DB518198D065111D2624A31A93E69DD11D6D5EC85EC3B4278B9DAFF4069D6FF8492
310
75F1B5DADE7D600104CD8FDC0782976B16B9DC83CA75CD4DFC00504B0304140006080800B670623B55019EA25F0000007C00000007000000636E782E786D6C4DCB3B0E80201045D1AD90E915ED2CF8AC45050C11660C8261F98AB1B07AC9C97D42D718D865D3E909258CFD00CCE24AC6E326A164D74DC0B4128928FF326038
310
472BA13128B1252AC747C6BAB984FC68F0B87FE8960A5C09FE86CFB69FBA01504B0304140006080800B670623B3586FFB671010000D40300000C0000006662782F636F72652E786D6CC553ED6E8320147D15C2DF4541A76D6D90A6DDD627D80B50A4CE54C120983EFEAE1F4DD7A55BBA5FF3879273EEE59E7310B6393735EA
310
95ED2AA3731C851423A5A5292A5DE6D8BB63B0C268C39935C67D29C3488B46E578803167A535BE9D2169B453DA01AA4DA16650749D7218C91A1639EEE4876A4428BC838AEE14B6429E44A9C228041AEA38EB9C0501681A32BC313F1ECE8C4C3867DE57C5CC56054CAB8E95B298A7F12E5EEED224C8E87E11242FE936C8DE96
310
AB60BB7F4D295D66D12E5B30323473E6AAE6A24E5A259C2A308F29CD82280A68FC1E256B9AAE93F489AED694323294DF34F9B678B0C957DA3DC7B3DCA9ADC33C022123F1CD2D44E450277AD04338234388F01913BE0D1A0281909D38D4171F27807A259DB1093085F157AA17B557309586747CD0CF0B46A64E983A6E0EAEEF
310
CE881F9EF1FB8E70D44297604238581EBC1B74B249C31C5AAB6CD0BB33D2C636A27ECCC62F0EFF445DC5DF95244D6DEC7F2922F30191F9F720C37DE49F504B0304140006080800B670623B4220A0FF7D0000009D0000000B0000006662782F636E782E786D6C4DCCD10A83201886E15B91FFDCE542CB0335D0EC3E6259C84A
310
C3E9D8E5AF46073BFAE0E1E315DD675BD1DBA5978F41C2FD4600B9F088930F8B849267CC01754AA418F3DF0D50183727E164506249B1EC174D6E1ECB9A0F5D7D785E68DB8151CD286E5A5363CA6B8A39E90D36D40E96B086F55A43A544F52B1D7B86D517504B0304140006080800B670623B2FA3FEDE290100001202000031
310
0000006662782F45374635344235342D363743322D343832342D383044432D4334454645303536354442422F636F72652E786D6C8D515B6EC32010BC0AE22B55850D2E386E848994D7097A0117488A1283C5A3CAF10BB523B57FF961D1ECCCECC0F2ED7DBC816FED8371B687A4C210682B9D32F6D2C314CFA883602BB8772E
310
FEA141608751F7B0C050F08B77695A20E96CD43666D43AA5177008414708E42D5F7A18E4971E876A483133C2B59A06791D2EBA22556E679EE021FA1C00CC43CA09C5717D6274C7286AD7FB06D1AEA1A8C3873DDAD3E3E98859CB0EBB1DAF67A1E02919B5C88DCA71CCD968FFAC49110B1ECDF8882FBD1EA256503418BF2342
310
106E3E08DD60B6A1EC15771B8C795DE8FF4469524F8A92B1F1AD59E2CEB20005E1F5DC105CB9F4797B84D1F7C9F908CABC55D0F2050A5C61CC1AD2F27A26E6E767C7962E8E213A9FBF7775FDCC5CC266DB960A5E970DE5F2BBBE5CCB36C50F504B0304140006080800B670623B1B8617914E01000033030000300000006662
310
782F45374635344235342D363743322D343832342D383044432D4334454645303536354442422F636E782E786D6CD593C16EC32010447F0571AD6CE3D489D20813A9877E410FBD62D82434182CC055F3F75D1292E692438FBD206B7698593D61BEFD1E2DF982108D773D6D6B460938E5B571FB9ECE6957AD29D90A1EBC4F77
310
364A9C1CA1A759A682EF839FA72269D8C9D92654AD71C72206887E0E0A22CAF926B15E498B01E0AA19451807D01A34B919F16B070157417138917400F2F6FA41FCF0092A45DEE414C19BDC21783E4BD39D891265658C3D8DEA00A3ACE59CBC8678ACB54CB26EEB6BD7839D7E9348BE70AD9C8321B9BCA7F9A4A26C542347DE
310
E050F09802D22BA6749A800A394DD62899107273365E3C82CFC6A55557BC06C10774B7ABE7AEC3B0F34CF06446280E154026D0542C187BA9DAB6628BF7B6DBB0E5A65B3EB1F58631DE64BBE083F7B65CC218087E22CABB042E51D1F2268F1FE12B3EA24D40D63E9CFE00120194D60B9D5BC67FE6D39CDF37E20AF817881F50
310
4B0304140006080800B670623B29652116630500003C100000340000006662782F45374635344235342D363743322D343832342D383044432D4334454645303536354442422F6F626A656374732E786D6CAD575D739B3814FD2B0CFB0C989834C90EA1639B24E3E9A6EDD4D3CE3E64C623834CD8006224913AFDF57B040203
310
B65BEF871F0C12D2FD3CF7E8CA7FBFCB33E3957291B2E2D674ED8969D02262715A24B76625B7D6B569BC0F7CCE98EC2D338D82E4F4D654D366E0279C55A59E8AE99654991CCDDECFFF3444440B6A1A514684B83545F44C7362934AB2988A173B2692D8C97667BB76B3702836E1A47C1E092D09A78584A5982F20C5688C7287
310
C389E904BEA3BE07BEFAD7ABA6A75739B53F43FD69212429A20365233153D70BEF2E2E6FAC4BCF9B5ADEBB0BD79ADFCF43CBBD9A4E16EF168B9BD9DD0D140BC921495BC2E9D60C1E101B9E46BED37CEA2CD6861F3329624541A3DA7F7858DBAC25C6B4A4458C3CA654405BCFEBC970E8AAD8F43E4FD558ABEC4F9FE7557F47
310
4F506B7BFBEC5BCA367FC105710E2AB8A00A554D7CB4A30DFE26FBA86D18CBF4B75418399194A72433B274C3097F33032C554B027F2046A1932B842B0FCCC0DDCBEBDB8AD2F835768F59B9ADB24C41D30C6A64AF817F2A456D59FA83F2E3DA60137255A585BCD60EC9B7929AC18DEFD49381AF1ED30BFDB109A4B1CD488294
310
C3CDE6EBC8D185AABD6568061FEE37BB95AAC7E3CA4BCE4ACAA5820FA0D526AE7DAA2869B5EE5999531BE0CC20E6FBA07C41E43FA27CF7A6206F3CDD793B4F6B919C1462CB788EDCD893FA674CDA17AB7B3B7C019F8D561FAEE966FED562DFE98C1D12C6A9FC015C2A35D7FF3D7FC398F591DA4B5FE0BFA2C0189FEA50AE22
310
92817A1ED3020951A03432862970F976B33383259812CC8E5D240BBA801CBCF8CE2BBEE3BF910DB6AAD5F79E05123AE2DB33981FB1ACCB02B69D00CB014FD68AB573A7627EF9BFD4CC2C5C7D58557C4B22FAA88925A4DBB44825CECE3D78FB060D1231F0E885BE7D673C86A3874958F593906B5502D1563157814FDAC3420D
310
F69A070A22EC4B98E23CFF171A1E5311D12C23056555ABA53B8614563B92D17D02AAB009E8F46284624E5F53D5490C560CCCC2591FF1B45421EB0EBD8EA7ED13BE7C5D7E0428CD60FEF60779EB13E6664FF711CB185F6FDED60D139A001FF60CD1FD6D086F1D51474901E26B2CB794A343BC8ED3EDB612E0DD2351FCB65CF4
310
33D511C9E14B5B40ADC6A6263DB0336A8F700DDF56271A024E70B0B3629DE21847591E55DED73D56206AB927E46FAABC5C939C55853C274C93D69FD6FA4E78BF8B11DF898C9ECD60553FAD39283BA6F18984AA23E8884F83F45C5F5F859797B31B2B9C84A1E5B9DE9D35BFF25C6B76152E422F9C5DCC3D847F5801ED09D5AF
310
41441327A25FF15487F9EB725FB666F048A4701E9A827292E6F97569A32DF61DEC01C0BB8DCBBCCC684E0B49147C1FD54BF685A0AB18C868E6973949E819523E3DAC463660E68C7D9F55A9D1EFA3BD7A76A16AE1A810F95CE59B82A4D968A376DC2E8B44BBDD86B27B368CDE0ED548C7137DA860591A83706223A12CA712B4
310
7306DBF39C0A20A6DF95C7FAF670C6EED7A61F946493D1D6926782963813403548A78AE470DEF80D2D9CEAA26E4D1C76F60BFE74219A06527D6B82DF641A51616F703CAAC6A7160E08A00BEB4810A0274592A1B36E3675E36E978A0DE80727A0D6DF2D39A75BD27E0D8837276589537B40ABB56D5A41F48F1C6FCD3188C4EB
310
A6929D2FFB89CE995A4D00AE813BDD032DC48B56BD437DFDDC2DD7AED70C2272D63DE9A72068A45A92F0A4BE17A8A06B9366E16707AD80B1FC649459952097E74BB23805982B55E0401150A165964402AA8BDF9F3E7386BB686EDCA780C0D382E5392BF460A6EFB2C6EA1937D3F809B440D5F5435C4C5CF7A9EEFAF54564BD
310
2182DA24162F98680B4E7930C21A0079709CEAEB99A372305ABE0C0D7D6078105A83F6A0296DAEE1068A47DD1C55A9F4C9B2FC69E3EFD44B81028E963DF81B504B0304140006080000B670623B000000000000000000000000350000006662782F45374635344235342D363743322D343832342D383044432D433445464530
310
3536354442422F76657274696365732E62696E504B0304140006080800B670623BF270F1330600000004000000360000006662782F45374635344235342D363743322D343832342D383044432D4334454645303536354442422F747269616E676C65732E62696E636660600000504B0304140006080000B670623B00000000
310
0000000000000000370000006662782F45374635344235342D363743322D343832342D383044432D4334454645303536354442422F617474726962757465732E62696E504B0304140006080800B670623B08DA0BD19000000041010000360000006662782F45374635344235342D363743322D343832342D383044432D4334
310
454645303536354442422F6469726563746F72792E786D6C858F410AC3201045AF22B36F53E9A60B35CBEEBAE80D244E44489C6234F4F835464A48035D0DF398FF9F8AF63D0E6CC63039F212F8F9020C7D47C6792B21C5FE7403D62A1188E2E60C98D7234A5830286103A55745067B9D86B8A3CF9C7F90C11DE607FB144396
310
D7B6A82D282E9A152AD114D5EF2CB866EEE831B8EEA07A7BB5A8D7D61A2BAAEB7FD5F70921FF497D00504B0304140006080800B670623B6378F24DFF000000A00100003B0000006662782F45374635344235342D363743322D343832342D383044432D4334454645303536354442422F7265736F75726365732F636F72652E
310
786D6C8D504B6E833010BD0A9A6D65B0094E42641C85B639412F6099496225D8C89FAAC7AF09546A77DDCC8CDE47F3F4C4F16B7C149FE88371B603565228D06A37187BED20C50BD9437194C23B177FC9A0B06AC40E6618A4B87A97A615D2CE46B431A3D60DB8822A048C50E8473E3A08FA86A32A558A5911EEE5A4F45D5DB1
310
6465A6B34E8A107D0E502C4FE609D26370C96B0CA25A58295232C3AA3143FE692E063D485EF7F5AEE71BD2D2F39634AFFC44DAF7DD9E9CCE6F9CD25DCBFA762BAAD92C4534E34F46ED51451C40D694B6843142EB0FD61C283F34FC85EE0F948A6A96FF31A569F8A729191B37F51A77B105902C0779125254735F793DCBCC7B
310
EE567E03504B010214000A0000080000B670623B3DEE336E79000000790000001B00000000000000000000000000000000006175746F6465736B2D64657369676E2D7061636B6167652E786D6C504B01021400140006080800B670623BD486FD9CA0000000F40000001300000000000000000000000000B20000005B436F6E
310
74656E745F54797065735D2E786D6C504B01021400140006080800B670623BBC1638F5EC0000007C010000080000000000000000000000000083010000636F72652E786D6C504B01021400140006080800B670623B55019EA25F0000007C000000070000000000000000000000000095020000636E782E786D6C504B010214
310
00140006080800B670623B3586FFB671010000D40300000C00000000000000000000000000190300006662782F636F72652E786D6C504B01021400140006080800B670623B4220A0FF7D0000009D0000000B00000000000000000000000000B40400006662782F636E782E786D6C504B01021400140006080800B670623B2F
310
A3FEDE290100001202000031000000000000000000000000005A0500006662782F45374635344235342D363743322D343832342D383044432D4334454645303536354442422F636F72652E786D6C504B01021400140006080800B670623B1B8617914E010000330300003000000000000000000000000000D2060000666278
310
2F45374635344235342D363743322D343832342D383044432D4334454645303536354442422F636E782E786D6C504B01021400140006080800B670623B29652116630500003C10000034000000000000000000000000006E0800006662782F45374635344235342D363743322D343832342D383044432D4334454645303536
310
354442422F6F626A656374732E786D6C504B01021400140006080000B670623B0000000000000000000000003500000000000000000000000000230E00006662782F45374635344235342D363743322D343832342D383044432D4334454645303536354442422F76657274696365732E62696E504B01021400140006080800
310
B670623BF270F13306000000040000003600000000000000000000000000760E00006662782F45374635344235342D363743322D343832342D383044432D4334454645303536354442422F747269616E676C65732E62696E504B01021400140006080000B670623B0000000000000000000000003700000000000000000000
310
000000D00E00006662782F45374635344235342D363743322D343832342D383044432D4334454645303536354442422F617474726962757465732E62696E504B01021400140006080800B670623B08DA0BD190000000410100003600000000000000000000000000250F00006662782F45374635344235342D363743322D34
310
3832342D383044432D4334454645303536354442422F6469726563746F72792E786D6C504B01021400140006080800B670623B6378F24DFF000000A00100003B00000000000000000000000000091000006662782F45374635344235342D363743322D343832342D383044432D4334454645303536354442422F7265736F75
310
726365732F636F72652E786D6C504B0506000000000E000E0080040000611100000000
  0
XRECORD
  5
112
102
{ACAD_REACTORS
330
110
102
}
330
110
100
AcDbXrecord
280
     1
270
     1
271
     1
  0
XRECORD
  5
111
102
{ACAD_REACTORS
330
110
102
}
330
110
100
AcDbXrecord
280
     1
270
     1
271
     1
  0
XRECORD
  5
18A
102
{ACAD_REACTORS
330
110
102
}
330
110
100
AcDbXrecord
280
     1
 70
     0
 90
1778669749
  1
9BF507EE-FAF7-4A99-A33D-4EE51894BC40
310
504B03040A0000080000B670623B3DEE336E79000000790000001B0000006175746F6465736B2D64657369676E2D7061636B6167652E786D6C3C3F786D6C2076657273696F6E3D22312E302220656E636F64696E673D227574662D3822203F3E3C666F726D6174733E3C666F726D61743E687474703A2F2F736368656D612E
310
6175746F6465736B2E636F6D2F64657369676E2D7061636B6167652F323030393C2F666F726D61743E3C2F666F726D6174733E504B0304140006080800B670623BD486FD9CA0000000F4000000130000005B436F6E74656E745F54797065735D2E786D6C7D8EC10E82300C865F65E91D8A1E8C310C0EEA1BF002731658846E
310
D98AC1B77784ABF1D8FE5FBFBF75BBCE937A534CCEB38643598122B6FEE978D0B0485F9C41B54DDD7D022595594E1A469170414C76A4D9A4D207E29CF43ECE46F218070CC6BECC4078ACAA135ACF422C856C0E68EA1BF5669944DDD7BCDE7B1F8E415D77AECB980613C2E4AC91FC167A2B244592486606FC29C8FD7F045B9A
310
EF7053A7E60B504B0304140006080800B670623BCA089DFFEC0000007C01000008000000636F72652E786D6C8D90416E83301045AF62CDB632D8402020E32882F604BD80653BC44AB011B6AB1EBF262152BBEB6A467FFE9B197D76FA9EEFE84BAFDE38DB03CD08206DA553C64E3DC470C1474027CE56E7C22F1B202B66DDC3
310
260367D3EAE2B24BD2D9A06D48AA754AEFA2F05E0740F29E9A1EBCBCEA59642286E4F0B76C11F226269DD15797E0188D42CF2346A57DE662F40ABCAEC77628C6120F654571D50C04B7F5B9C1E3997CD4F550BE3745C3F20DE62C98F9755FAE5A04AD801784B498524C8A4F5A75E4D055873772EC0861F966FF03C545FD138A
310
C686B2D8DF7D621E384D8F3C069CE55B16A93C824A75CB8DFF00504B0304140006080800B670623B55019EA25F0000007C00000007000000636E782E786D6C4DCB3B0E80201045D1AD90E915ED2CF8AC45050C11660C8261F98AB1B07AC9C97D42D718D865D3E909258CFD00CCE24AC6E326A164D74DC0B4128928FF326038
310
472BA13128B1252AC747C6BAB984FC68F0B87FE8960A5C09FE86CFB69FBA01504B0304140006080800B670623B68FC0B7272010000D40300000C0000006662782F636F72652E786D6CC5535B6E833010BC8AE5DF0A6C1E8124328E22D29EA01770C0A128602363A31CBFCB234A53A555FA553EC09AD9F5CE8C31DB5DDA060D
310
D2F4B556190E7C8A9154852E6B5565D8D993B7C668C799D1DA7E29C3488956667884316795D1AE5BA0422B2B950554E9522EA0E87B69312A1A5864B82F3E642B7CE12C54F467BF13C55954D20F7CA0A18EB3DE1A1080E621E31BF3D3F1C2C88C73E65C5D2E6C5DC2B4FA544B8379921C36797888BC3C8A032F4E73EA6D927D
310
EA1DF6F42D49F2E8350D5346C666CE6CDD5ED515460A2B4BCC434A375E1078347C0FE22D5D6DE3D50B5D6F2965642CBF6B725DF96493AB958DC245EEDCD6631E809089F8E61622B2A81703E8219C913144F84C09DF070D8140C8561C9BAB8F3340832CAC363130A576376A108D933095FA747AD0CF0B46E64E983A6D0EAE1F
310
CE089F9EF1FB8E70D44255604258581E9D1D75B259C3125A278D37D80B52DAB4A279CEC62F0EFF44DDC43F9454E8469BFF5244960322CBEF41C6FBC83F01504B0304140006080800B670623B0F71DDB67E0000009D0000000B0000006662782F636E782E786D6C4DCCD10A83201886E15B91FFDCA54DB73F502386BB8F5816
310
32D3703976F9ABD1C18E3E78F87855FB990379BBFCF2296AE02706C4C5471A7C9C349475A408A4352AA7B4FEDD80C47E761A7606A3A69CCA72D0E0C6BE8475D3E0E3F3409428EA6B27A84079A782899AA2EC1A7AE3ECCC2FD858CB2D544655BFD2B67BD87C01504B0304140006080800B670623BE134B4FB28010000120200
310
00310000006662782F38353834323741342D343835462D343034322D383541392D4331303331363839454531452F636F72652E786D6C8D515B6EC32010BC0AE22B55850D0EA424C24451959EA0172086A42831583CAA1CBF503B52FB971F16CDCECC0EACD8DFC71BF836215AEF7A481A0C817183D7D65D7A98D3197108F652
310
04EFD31F1A044E8DA6871586525C82CFD3020DDE25E352419DD76601558C264130DCCAA58771F832A36A544E8511AFCDA486ABBA988634A55D7852C4144A00300FA927949C71DABD1D28A29C7D208A6987383B6CD13BC16BB2E1DBE3911C453B0BA5C8D9EA456E758963CFD684674DAA588A64C747FC2118958C86B2C3788B
310
0841B8FB247487D98EB257CC77188BB6D2FF89F2A49F1465EBD2BA5BE2CEB2082511EDDC9042FB7CBA3DC298FBE4430275DE2A9AE1054ADC60CC08E3A29D89E5F9C5714317C7987C28DFBBBA9E0A97B0D97643A568EB864AF95D5FA9759BF207504B0304140006080800B670623B1B8617914E010000330300003000000066
310
62782F38353834323741342D343835462D343034322D383541392D4331303331363839454531452F636E782E786D6CD593C16EC32010447F0571AD6CE3D489D20813A9877E410FBD62D82434182CC055F3F75D1292E692438FBD206B7698593D61BEFD1E2DF982108D773D6D6B460938E5B571FB9ECE6957AD29D90A1EBC4F
310
77364A9C1CA1A759A682EF839FA72269D8C9D92654AD71C72206887E0E0A22CAF926B15E498B01E0AA19451807D01A34B919F16B070157417138917400F2F6FA41FCF0092A45DEE414C19BDC21783E4BD39D891265658C3D8DEA00A3ACE59CBC8678ACB54CB26EEB6BD7839D7E9348BE70AD9C8321B9BCA7F9A4A26C542347
310
DEE050F09802D22BA6749A800A394DD62899107273365E3C82CFC6A55557BC06C10774B7ABE7AEC3B0F34CF06446280E154026D0542C187BA9DAB6628BF7B6DBB0E5A65B3EB1F58631DE64BBE083F7B65CC218087E22CABB042E51D1F2268F1FE12B3EA24D40D63E9CFE00120194D60B9D5BC67FE6D39CDF37E20AF817881F
310
504B0304140006080800B670623B5933D422630500003B100000340000006662782F38353834323741342D343835462D343034322D383541392D4331303331363839454531452F6F626A656374732E786D6CAD575B6FA33814FE2B887D0642934E9B156594264D158D3A534DD4D13E548A0C38942D60649B4EBABF7E3F8321
310
40924EF6928780CDF1B97EE762EFF32E4B8D37CA45C2F21BD3B547A641F39045491EDF98A5DC5AD7A6F1D9F73863B243661A39C9E88DA9B64DDF8B392B0BBD15D12D295339D85DDEFE618890E6D434C2940871638AF08566C426A5641115AF764424B1E3EDCE76ED9AB0CF36E6A47819302D08A7B984A6D8CFC1C5A89572FB
310
CB91E9F89EA3BEFB9EFAD754E3D3544E654F5F7E920B49F2F040D880CDD89D2CEE2E2EA7D6E56432B6269F2E5CEB7679BBB0DCABF168FE693E9FCEEEA6102C240727AD09A75BD3BF876F78127A4EFDA9D5582B7E4CA590E5390D2BFB6161A5B3E618D182E611E2985001691DAB47FDA5AB7CD3F93C566B2DB2BB7D9E55DD13
310
1D468DEECDB3AB290BFE8409E21C54704115AA6AFF68436BFC8DF65E0B184BF5B74418199194272435D224E084BF9B3E481589EFF5D828747285706581E9BB7B7E5D5D911ABFC6EE312DB7659A2A689A7E85EC0DF04FA5A8344BFEA2FCB834E8845895492EAFB541F2BDA0A63FF59C6AD3F7D4637CA13FD68E34B629891172
310
98597F1D183A57B9B75A98FE9765B05BAB7C3C2EBCE0ACA05C2AF8005A4DE09AA7F29216EB9E15397500C6F47CBE77CA7778FE2BD277AF0AE2C693DD6437D1522427B9D8329E2136F6A8FA19A3E6C56ADF0E5F50CF06D48734EDCEBF22F69C56D97EC138153F804B85E6FABFC7AFEFB32E523BE1F3BD372418E363EDCA7548
310
52949E8724474014288D94610BB57C1BEC4C7F854A89CA8E5324F55B871CBC78CE1BBEE3BFE68D6A5589EF3C730474506FCFA8FCF0659516D0ED04580EEA6425581B77CAE797FF4BCECC16EB2FEB926F49481F746159D06D922712BD730FDEAE42BD40F42C7AA5EF3F198F60E86110D6DD20645A9480B795CF95E3E3A659A8
310
C55E724F408873315335CFFB8584874484344D494E59D94869DB90C26A5B64F49C802CAC1D3ABE18A098D3B7444D123D8A9E5AE8F5214F0AE5B2B6E9B575DA3E61CBD3EA2B4009FA940524DD1305FB6A1FB294F14DF0BEA90BA109ECE1481FDC3FFAE8D60E75141700BE82725371B4873751B2DD960265F788137FACE6DD40
310
B575E4F0A5C99F46629D92131467A41EE11ABD8D4CCC039CA0AFB37C93A08B232B8F0AEFCA1E0A1015DF13FC83322B362463652ECF71D3A8B1A7D1BE65DE1D62C44F22C317D35F574FEB16153BA2D13E543D10A80E74C4A65E78A6B7CBCBD1D5DD9DB59C2DAFACC96C3AB566E3F1C29ADCDD5DBAD7D3C9ED7C822ED74F80A6
310
41755310DE4443F44A9E68373FADF6596BFA0F440AE7BECE2727AE9F4F2B1B53B1E7E00CF0DD1E5C65454A339A4BA2D0FBA05ED2EF0443458F47BDBFCA484CCFE0F2ED7E3DD0013B679C7B5499467F0ECEEADDB9CA85A34CE44B99053949D2C1416DB85DE4B136BB7165FBAC0B7AB3542BED4F8CA182A549847A1319316519
310
95A83A67147B9E5101C47487F2485F1ECE38FD568F839204296D3479219888530154036E6528FBFBC66F98E0D4107563A2D7D9AFF8D389681A08F58D89F22693900A3B407754734FC51C10C010D6D640809EE4718AC1BA3ED4AEDB53CA37283F68805A7E4B72CEB0A4EDEAD5DD8C14059A76AFAA56BA6901E13F32BC51C720
310
12AF41295B5BF61BAD3195181FB506E6B40F4C10AF5AF40EF9F5B159AE5DD1F43C72D635E94310D45C2D49785C5D0B94D3B54AB3C5A38349C0587D338AB48C11CBF339599C02CCA54A70A008A8D03C0B2201D5F9EFCF8F9CE12A9A19CB0410789EB32C63B95ECCF455D658BFE0621A3DA32C5075FB101723D77DAE867E7D0F
310
D90444509B44E2151B4DC2290B065803200FBAA9BE9D392A0603F2D5C2D00D6302A615680F66D2FA166E2079D4C551A54AB758161FCEFD4E450A14704CECFEDF504B0304140006080000B670623B000000000000000000000000350000006662782F38353834323741342D343835462D343034322D383541392D4331303331
310
363839454531452F76657274696365732E62696E504B0304140006080800B670623BF270F1330600000004000000360000006662782F38353834323741342D343835462D343034322D383541392D4331303331363839454531452F747269616E676C65732E62696E636660600000504B0304140006080000B670623B000000
310
000000000000000000370000006662782F38353834323741342D343835462D343034322D383541392D4331303331363839454531452F617474726962757465732E62696E504B0304140006080800B670623B08DA0BD19000000041010000360000006662782F38353834323741342D343835462D343034322D383541392D43
310
31303331363839454531452F6469726563746F72792E786D6C858F410AC3201045AF22B36F53E9A60B35CBEEBAE80D244E44489C6234F4F835464A48035D0DF398FF9F8AF63D0E6CC63039F212F8F9020C7D47C6792B21C5FE7403D62A1188E2E60C98D7234A5830286103A55745067B9D86B8A3CF9C7F90C11DE607FB1443
310
96D7B6A82D282E9A152AD114D5EF2CB866EEE831B8EEA07A7BB5A8D7D61A2BAAEB7FD5F70921FF497D00504B0304140006080800B670623BD9A3B367FE000000A00100003B0000006662782F38353834323741342D343835462D343034322D383541392D4331303331363839454531452F7265736F75726365732F636F7265
310
2E786D6C8D504B6E833010BD0A9A6D65B01D0201194711694FD00B586642AD043BF2A7EAF16B122AB5BB6E6646EFA3797AE2F8B5DC8A4FF4C1383B002B291468B59B8C9D0748F1420E501CA5F0CEC55F3228AC5A708015062966EFD27D83B4B3116DCCA875136EA00A012314FA968F0182FEC045952AC5AC08D7F2AEF455CD
310
58B232D3592745883E07289E4FD609D26370C96B0CA27AB252A464A64D63A6FCD35C0C7A904D73EE467EE664DCD58CD4ED4849D79C5A723ED1B7A61977AF2D6F45B59AA58866F9C9A83DAA8813484E6947182394BFB3BAA7FBBEDEBFD0434FA9A856F91F53BA4FFF342563E38E6F719FB60092E5200F428A6AED2BAF479979
310
AFDDCA6F504B010214000A0000080000B670623B3DEE336E79000000790000001B00000000000000000000000000000000006175746F6465736B2D64657369676E2D7061636B6167652E786D6C504B01021400140006080800B670623BD486FD9CA0000000F40000001300000000000000000000000000B20000005B436F6E
310
74656E745F54797065735D2E786D6C504B01021400140006080800B670623BCA089DFFEC0000007C010000080000000000000000000000000083010000636F72652E786D6C504B01021400140006080800B670623B55019EA25F0000007C000000070000000000000000000000000095020000636E782E786D6C504B010214
310
00140006080800B670623B68FC0B7272010000D40300000C00000000000000000000000000190300006662782F636F72652E786D6C504B01021400140006080800B670623B0F71DDB67E0000009D0000000B00000000000000000000000000B50400006662782F636E782E786D6C504B01021400140006080800B670623BE1
310
34B4FB280100001202000031000000000000000000000000005C0500006662782F38353834323741342D343835462D343034322D383541392D4331303331363839454531452F636F72652E786D6C504B01021400140006080800B670623B1B8617914E010000330300003000000000000000000000000000D3060000666278
310
2F38353834323741342D343835462D343034322D383541392D4331303331363839454531452F636E782E786D6C504B01021400140006080800B670623B5933D422630500003B10000034000000000000000000000000006F0800006662782F38353834323741342D343835462D343034322D383541392D4331303331363839
310
454531452F6F626A656374732E786D6C504B01021400140006080000B670623B0000000000000000000000003500000000000000000000000000240E00006662782F38353834323741342D343835462D343034322D383541392D4331303331363839454531452F76657274696365732E62696E504B01021400140006080800
310
B670623BF270F13306000000040000003600000000000000000000000000770E00006662782F38353834323741342D343835462D343034322D383541392D4331303331363839454531452F747269616E676C65732E62696E504B01021400140006080000B670623B0000000000000000000000003700000000000000000000
310
000000D10E00006662782F38353834323741342D343835462D343034322D383541392D4331303331363839454531452F617474726962757465732E62696E504B01021400140006080800B670623B08DA0BD190000000410100003600000000000000000000000000260F00006662782F38353834323741342D343835462D34
310
3034322D383541392D4331303331363839454531452F6469726563746F72792E786D6C504B01021400140006080800B670623BD9A3B367FE000000A00100003B000000000000000000000000000A1000006662782F38353834323741342D343835462D343034322D383541392D4331303331363839454531452F7265736F75
310
726365732F636F72652E786D6C504B0506000000000E000E0080040000611100000000
  0
XRECORD
  5
113
102
{ACAD_REACTORS
330
110
102
}
330
110
100
AcDbXrecord
280
     1
270
     1
271
     1
  0
XRECORD
  5
114
102
{ACAD_REACTORS
330
110
102
}
330
110
100
AcDbXrecord
280
     1
270
     1
271
     1
  0
XRECORD
  5
E6F
102
{ACAD_REACTORS
330
E6E
102
}
330
E6E
100
AcDbXrecord
280
     1
102
DISPLAYNAME
  1
Imperial24
102
FLAGS
 90
        0
  0
XRECORD
  5
E73
102
{ACAD_REACTORS
330
E72
102
}
330
E72
100
AcDbXrecord
280
     1
102
DISPLAYNAME
  1
Metric50
102
FLAGS
 90
        0
  0
CELLSTYLEMAP
  5
E64
102
{ACAD_REACTORS
330
886
102
}
330
886
100
AcDbCellStyleMap
 90
        3
300
CELLSTYLE
  1
TABLEFORMAT_BEGIN
 90
        5
170
     1
 91
        0
 92
    32768
 62
   257
 93
        1
300
CONTENTFORMAT
  1
CONTENTFORMAT_BEGIN
 90
        0
 91
        0
 92
      512
 93
        0
300

 40
0.0
140
1.0
 94
        5
 62
     0
340
20C
144
0.25
309
CONTENTFORMAT_END
171
     1
301
MARGIN
  1
CELLMARGIN_BEGIN
 40
0.06
 40
0.06
 40
0.06
 40
0.06
 40
0.18
 40
0.18
309
CELLMARGIN_END
 94
        6
 95
        1
302
GRIDFORMAT
  1
GRIDFORMAT_BEGIN
 90
        0
 91
        1
 62
     0
 92
       -2
340
0
 93
        1
 40
0.045
309
GRIDFORMAT_END
 95
        2
302
GRIDFORMAT
  1
GRIDFORMAT_BEGIN
 90
        0
 91
        1
 62
     0
 92
       -2
340
0
 93
        1
 40
0.045
309
GRIDFORMAT_END
 95
        4
302
GRIDFORMAT
  1
GRIDFORMAT_BEGIN
 90
        0
 91
        1
 62
     0
 92
       -2
340
0
 93
        1
 40
0.045
309
GRIDFORMAT_END
 95
        8
302
GRIDFORMAT
  1
GRIDFORMAT_BEGIN
 90
        0
 91
        1
 62
     0
 92
       -2
340
0
 93
        1
 40
0.045
309
GRIDFORMAT_END
 95
       16
302
GRIDFORMAT
  1
GRIDFORMAT_BEGIN
 90
        0
 91
        1
 62
     0
 92
       -2
340
0
 93
        1
 40
0.045
309
GRIDFORMAT_END
 95
       32
302
GRIDFORMAT
  1
GRIDFORMAT_BEGIN
 90
        0
 91
        1
 62
     0
 92
       -2
340
0
 93
        1
 40
0.045
309
GRIDFORMAT_END
309
TABLEFORMAT_END
  1
CELLSTYLE_BEGIN
 90
        1
 91
        1
300
_TITLE
309
CELLSTYLE_END
300
CELLSTYLE
  1
TABLEFORMAT_BEGIN
 90
        5
170
     1
 91
        0
 92
        0
 62
   257
 93
        1
300
CONTENTFORMAT
  1
CONTENTFORMAT_BEGIN
 90
        0
 91
        0
 92
      512
 93
        0
300

 40
0.0
140
1.0
 94
        4
 62
     0
340
20C
144
0.18
309
CONTENTFORMAT_END
171
     1
301
MARGIN
  1
CELLMARGIN_BEGIN
 40
0.06
 40
0.06
 40
0.06
 40
0.06
 40
0.18
 40
0.18
309
CELLMARGIN_END
 94
        6
 95
        1
302
GRIDFORMAT
  1
GRIDFORMAT_BEGIN
 90
        0
 91
        1
 62
     0
 92
       -2
340
0
 93
        1
 40
0.045
309
GRIDFORMAT_END
 95
        2
302
GRIDFORMAT
  1
GRIDFORMAT_BEGIN
 90
        0
 91
        1
 62
     0
 92
       -2
340
0
 93
        1
 40
0.045
309
GRIDFORMAT_END
 95
        4
302
GRIDFORMAT
  1
GRIDFORMAT_BEGIN
 90
        0
 91
        1
 62
     0
 92
       -2
340
0
 93
        1
 40
0.045
309
GRIDFORMAT_END
 95
        8
302
GRIDFORMAT
  1
GRIDFORMAT_BEGIN
 90
        0
 91
        1
 62
     0
 92
       -2
340
0
 93
        1
 40
0.045
309
GRIDFORMAT_END
 95
       16
302
GRIDFORMAT
  1
GRIDFORMAT_BEGIN
 90
        0
 91
        1
 62
     0
 92
       -2
340
0
 93
        1
 40
0.045
309
GRIDFORMAT_END
 95
       32
302
GRIDFORMAT
  1
GRIDFORMAT_BEGIN
 90
        0
 91
        1
 62
     0
 92
       -2
340
0
 93
        1
 40
0.045
309
GRIDFORMAT_END
309
TABLEFORMAT_END
  1
CELLSTYLE_BEGIN
 90
        2
 91
        1
300
_HEADER
309
CELLSTYLE_END
300
CELLSTYLE
  1
TABLEFORMAT_BEGIN
 90
        5
170
     1
 91
        0
 92
        0
 62
   257
 93
        1
300
CONTENTFORMAT
  1
CONTENTFORMAT_BEGIN
 90
        0
 91
        0
 92
      512
 93
        0
300

 40
0.0
140
1.0
 94
        4
 62
     0
340
20C
144
0.18
309
CONTENTFORMAT_END
171
     1
301
MARGIN
  1
CELLMARGIN_BEGIN
 40
0.06
 40
0.06
 40
0.06
 40
0.06
 40
0.18
 40
0.18
309
CELLMARGIN_END
 94
        6
 95
        1
302
GRIDFORMAT
  1
GRIDFORMAT_BEGIN
 90
        0
 91
        1
 62
     0
 92
       -2
340
0
 93
        1
 40
0.045
309
GRIDFORMAT_END
 95
        2
302
GRIDFORMAT
  1
GRIDFORMAT_BEGIN
 90
        0
 91
        1
 62
     0
 92
       -2
340
0
 93
        1
 40
0.045
309
GRIDFORMAT_END
 95
        4
302
GRIDFORMAT
  1
GRIDFORMAT_BEGIN
 90
        0
 91
        1
 62
     0
 92
       -2
340
0
 93
        1
 40
0.045
309
GRIDFORMAT_END
 95
        8
302
GRIDFORMAT
  1
GRIDFORMAT_BEGIN
 90
        0
 91
        1
 62
     0
 92
       -2
340
0
 93
        1
 40
0.045
309
GRIDFORMAT_END
 95
       16
302
GRIDFORMAT
  1
GRIDFORMAT_BEGIN
 90
        0
 91
        1
 62
     0
 92
       -2
340
0
 93
        1
 40
0.045
309
GRIDFORMAT_END
 95
       32
302
GRIDFORMAT
  1
GRIDFORMAT_BEGIN
 90
        0
 91
        1
 62
     0
 92
       -2
340
0
 93
        1
 40
0.045
309
GRIDFORMAT_END
309
TABLEFORMAT_END
  1
CELLSTYLE_BEGIN
 90
        3
 91
        2
300
_DATA
309
CELLSTYLE_END
  0
CELLSTYLEMAP
  5
E63
102
{ACAD_REACTORS
330
104
102
}
330
104
100
AcDbCellStyleMap
 90
        3
300
CELLSTYLE
  1
TABLEFORMAT_BEGIN
 90
        5
170
     1
 91
        0
 92
    32768
 62
   257
 93
        1
300
CONTENTFORMAT
  1
CONTENTFORMAT_BEGIN
 90
        0
 91
        0
 92
      512
 93
        0
300

 40
0.0
140
1.0
 94
        5
 62
     0
340
11
144
0.25
309
CONTENTFORMAT_END
171
     1
301
MARGIN
  1
CELLMARGIN_BEGIN
 40
0.06
 40
0.06
 40
0.06
 40
0.06
 40
0.18
 40
0.18
309
CELLMARGIN_END
 94
        6
 95
        1
302
GRIDFORMAT
  1
GRIDFORMAT_BEGIN
 90
        0
 91
        1
 62
     0
 92
       -2
340
0
 93
        0
 40
0.045
309
GRIDFORMAT_END
 95
        2
302
GRIDFORMAT
  1
GRIDFORMAT_BEGIN
 90
        0
 91
        1
 62
     0
 92
       -2
340
0
 93
        0
 40
0.045
309
GRIDFORMAT_END
 95
        4
302
GRIDFORMAT
  1
GRIDFORMAT_BEGIN
 90
        0
 91
        1
 62
     0
 92
       -2
340
0
 93
        0
 40
0.045
309
GRIDFORMAT_END
 95
        8
302
GRIDFORMAT
  1
GRIDFORMAT_BEGIN
 90
        0
 91
        1
 62
     0
 92
       -2
340
0
 93
        0
 40
0.045
309
GRIDFORMAT_END
 95
       16
302
GRIDFORMAT
  1
GRIDFORMAT_BEGIN
 90
        0
 91
        1
 62
     0
 92
       -2
340
0
 93
        0
 40
0.045
309
GRIDFORMAT_END
 95
       32
302
GRIDFORMAT
  1
GRIDFORMAT_BEGIN
 90
        0
 91
        1
 62
     0
 92
       -2
340
0
 93
        0
 40
0.045
309
GRIDFORMAT_END
309
TABLEFORMAT_END
  1
CELLSTYLE_BEGIN
 90
        1
 91
        1
300
_TITLE
309
CELLSTYLE_END
300
CELLSTYLE
  1
TABLEFORMAT_BEGIN
 90
        5
170
     1
 91
        0
 92
        0
 62
   257
 93
        1
300
CONTENTFORMAT
  1
CONTENTFORMAT_BEGIN
 90
        0
 91
        0
 92
      512
 93
        0
300

 40
0.0
140
1.0
 94
        5
 62
     0
340
11
144
0.18
309
CONTENTFORMAT_END
171
     1
301
MARGIN
  1
CELLMARGIN_BEGIN
 40
0.06
 40
0.06
 40
0.06
 40
0.06
 40
0.18
 40
0.18
309
CELLMARGIN_END
 94
        6
 95
        1
302
GRIDFORMAT
  1
GRIDFORMAT_BEGIN
 90
        0
 91
        1
 62
     0
 92
       -2
340
0
 93
        0
 40
0.045
309
GRIDFORMAT_END
 95
        2
302
GRIDFORMAT
  1
GRIDFORMAT_BEGIN
 90
        0
 91
        1
 62
     0
 92
       -2
340
0
 93
        0
 40
0.045
309
GRIDFORMAT_END
 95
        4
302
GRIDFORMAT
  1
GRIDFORMAT_BEGIN
 90
        0
 91
        1
 62
     0
 92
       -2
340
0
 93
        0
 40
0.045
309
GRIDFORMAT_END
 95
        8
302
GRIDFORMAT
  1
GRIDFORMAT_BEGIN
 90
        0
 91
        1
 62
     0
 92
       -2
340
0
 93
        0
 40
0.045
309
GRIDFORMAT_END
 95
       16
302
GRIDFORMAT
  1
GRIDFORMAT_BEGIN
 90
        0
 91
        1
 62
     0
 92
       -2
340
0
 93
        0
 40
0.045
309
GRIDFORMAT_END
 95
       32
302
GRIDFORMAT
  1
GRIDFORMAT_BEGIN
 90
        0
 91
        1
 62
     0
 92
       -2
340
0
 93
        0
 40
0.045
309
GRIDFORMAT_END
309
TABLEFORMAT_END
  1
CELLSTYLE_BEGIN
 90
        2
 91
        1
300
_HEADER
309
CELLSTYLE_END
300
CELLSTYLE
  1
TABLEFORMAT_BEGIN
 90
        5
170
     1
 91
        0
 92
        0
 62
   257
 93
        1
300
CONTENTFORMAT
  1
CONTENTFORMAT_BEGIN
 90
        0
 91
        0
 92
      512
 93
        0
300

 40
0.0
140
1.0
 94
        2
 62
     0
340
11
144
0.18
309
CONTENTFORMAT_END
171
     1
301
MARGIN
  1
CELLMARGIN_BEGIN
 40
0.06
 40
0.06
 40
0.06
 40
0.06
 40
0.18
 40
0.18
309
CELLMARGIN_END
 94
        6
 95
        1
302
GRIDFORMAT
  1
GRIDFORMAT_BEGIN
 90
        0
 91
        1
 62
     0
 92
       -2
340
0
 93
        0
 40
0.045
309
GRIDFORMAT_END
 95
        2
302
GRIDFORMAT
  1
GRIDFORMAT_BEGIN
 90
        0
 91
        1
 62
     0
 92
       -2
340
0
 93
        0
 40
0.045
309
GRIDFORMAT_END
 95
        4
302
GRIDFORMAT
  1
GRIDFORMAT_BEGIN
 90
        0
 91
        1
 62
     0
 92
       -2
340
0
 93
        0
 40
0.045
309
GRIDFORMAT_END
 95
        8
302
GRIDFORMAT
  1
GRIDFORMAT_BEGIN
 90
        0
 91
        1
 62
     0
 92
       -2
340
0
 93
        0
 40
0.045
309
GRIDFORMAT_END
 95
       16
302
GRIDFORMAT
  1
GRIDFORMAT_BEGIN
 90
        0
 91
        1
 62
     0
 92
       -2
340
0
 93
        0
 40
0.045
309
GRIDFORMAT_END
 95
       32
302
GRIDFORMAT
  1
GRIDFORMAT_BEGIN
 90
        0
 91
        1
 62
     0
 92
       -2
340
0
 93
        0
 40
0.045
309
GRIDFORMAT_END
309
TABLEFORMAT_END
  1
CELLSTYLE_BEGIN
 90
        3
 91
        2
300
_DATA
309
CELLSTYLE_END
  0
DMBASEELEMENT
  5
20E
102
{ACAD_XDICTIONARY
360
212
102
}
102
{ACAD_REACTORS
330
20B
102
}
330
20B
100
AcMapDMBaseElement
 70
     1
  1
Kartenbasis
 70
     1
330
20B
100
AcMapDMBaseElement
 70
     2
  1

 70
     2
  1

 70
     1
 40
1.797693134862314E+99
 70
        1
 70
     1
 70
     1
 70
     1
360
211
100
AcMapDMBaseElement
 70
     1
  0
DMDEFAULTSTYLE
  5
20F
102
{ACAD_REACTORS
330
20B
102
}
330
20B
100
AcMapDMDefaultStyle
 70
     1
 90
        1
  1
Vorgabe
100
AcMapDMDefaultStyle
 70
     1
280
   100
 90
        0
1001
AcMapDMDisplayStyleRegapp
1070
     2
1071
        1
1000
Vorgabe
1000

  0
DICTIONARY
  5
212
330
20E
100
AcDbDictionary
280
     1
281
     1
  3
AcMapDMSurrogateStyleSets
360
213
  0
DMSTYLEREFERENCE
  5
211
330
20E
100
AcMapDMStyleReference
 70
     1
 70
     0
340
20F
330
20B
  0
DMSURROGATESTYLESETS
  5
213
102
{ACAD_REACTORS
330
212
102
}
330
212
100
AcMapDMSurrogateStyleSets
 70
     1
  1
Kartenbasis
 70
     1
 40
1.797693134862314E+99
 70
        1
 70
     1
 70
     1
 70
     1
330
211
 70
     0
  0
ENDSEC
  0
SECTION
  2
ACDSDATA
 70
     2
 71
     8
  0
ACDSSCHEMA
 90
        0
  1
AcDb_Thumbnail_Schema
  2
AcDbDs::ID
280
    10
 91
        8
  2
Thumbnail_Data
280
    15
 91
        0
101
ACDSRECORD
 95
        0
 90
        1
  2
AcDbDs::TreatedAsObjectData
280
     1
291
     1
101
ACDSRECORD
 95
        0
 90
        2
  2
AcDbDs::Legacy
280
     1
291
     1
101
ACDSRECORD
  1
AcDbDs::ID
 90
        3
  2
AcDs:Indexable
280
     1
291
     1
101
ACDSRECORD
  1
AcDbDs::ID
 90
        4
  2
AcDbDs::HandleAttribute
280
     7
282
     1
  0
ACDSSCHEMA
 90
        1
  1
AcDbDs::TreatedAsObjectDataSchema
  2
AcDbDs::TreatedAsObjectData
280
     1
 91
        0
  0
ACDSSCHEMA
 90
        2
  1
AcDbDs::LegacySchema
  2
AcDbDs::Legacy
280
     1
 91
        0
  0
ACDSSCHEMA
 90
        3
  1
AcDbDs::IndexedPropertySchema
  2
AcDs:Indexable
280
     1
 91
        0
  0
ACDSSCHEMA
 90
        4
  1
AcDbDs::HandleAttributeSchema
  2
AcDbDs::HandleAttribute
280
     7
 91
        1
284
     1
  0
ACDSRECORD
 90
        0
  2
AcDbDs::ID
280
    10
320
22
  2
Thumbnail_Data
280
    15
 94
     1600
310
89504E470D0A1A0A0000000D49484452000001000000009308030000005629370D00000300504C5445000000FFFFFF0000000000000000000000000000000000000000000000000000000000330000660000990000CC0000FF0033000033330033660033990033CC0033FF0066000066330066660066990066CC0066FF0099
310
000099330099660099990099CC0099FF00CC0000CC3300CC6600CC9900CCCC00CCFF00FF0000FF3300FF6600FF9900FFCC00FFFF3300003300333300663300993300CC3300FF3333003333333333663333993333CC3333FF3366003366333366663366993366CC3366FF3399003399333399663399993399CC3399FF33CC00
310
33CC3333CC6633CC9933CCCC33CCFF33FF0033FF3333FF6633FF9933FFCC33FFFF6600006600336600666600996600CC6600FF6633006633336633666633996633CC6633FF6666006666336666666666996666CC6666FF6699006699336699666699996699CC6699FF66CC0066CC3366CC6666CC9966CCCC66CCFF66FF0066
310
FF3366FF6666FF9966FFCC66FFFF9900009900339900669900999900CC9900FF9933009933339933669933999933CC9933FF9966009966339966669966999966CC9966FF9999009999339999669999999999CC9999FF99CC0099CC3399CC6699CC9999CCCC99CCFF99FF0099FF3399FF6699FF9999FFCC99FFFFCC0000CC00
310
33CC0066CC0099CC00CCCC00FFCC3300CC3333CC3366CC3399CC33CCCC33FFCC6600CC6633CC6666CC6699CC66CCCC66FFCC9900CC9933CC9966CC9999CC99CCCC99FFCCCC00CCCC33CCCC66CCCC99CCCCCCCCCCFFCCFF00CCFF33CCFF66CCFF99CCFFCCCCFFFFFF0000FF0033FF0066FF0099FF00CCFF00FFFF3300FF3333
310
FF3366FF3399FF33CCFF33FFFF6600FF6633FF6666FF6699FF66CCFF66FFFF9900FF9933FF9966FF9999FF99CCFF99FFFFCC00FFCC33FFCC66FFCC99FFCCCCFFCCFFFFFF00FFFF33FFFF66FFFF99FFFFCCFFFFFF0000000D0D0D1A1A1A2828283535354343435050505D5D5D6B6B6B787878868686939393A1A1A1AEAEAEBB
310
BBBBC9C9C9D6D6D6E4E4E4F1F1F1FFFFFF0000000000000000000000000000000000000000000000000000000000003AE5ACE9000002FB4944415478DAED9D6B4EC4300C8473FF43CD497C18B6CD3BB4B00B6DEDC4333F901012743E3B4E9C7443081445511445511445511445690812400024400004E018401016018E01EF
310
29C031C0314000CE2742A600017031C89500C700538000580609806380F300C7C0F003C02D00C08BFB54043098F75704A2E72EF07E40BC00F4DEE16B0444003EADB7005C5A2FD3C0E6DFF542C0B5FF7D21E07A2DC87E900008800008800008E081BF935B4E83EDF03300528B2DE212400CBC88984B812700E4D08BC196F3CE
310
972450B499179B0DF76D001ABBD1BCD1B9E61E00D5AE69F33701287EB7BC37BFD7703D0054F3214CE0FF5A005BBA4B365F689806005CF594D9FC511D5C1D008ECC4FD1625C00A0CCF3DDE43F4B2784EDFD005C621E339EAB20FC1DC0687ECA56F8AF001AF3139F29ED0FBE7DF9CC403FE6E73D53484F2EEFCFD6436383B9CF
310
52CB72F5F730B656C5FCDAFE13FFD5D799A336C625F0610521BB96CCE230ECD5BAAC75805E3D4BCD8671212359EBBD2FD3F9CF35B0AD715D3FB3DCE1711AF6B5068654DFE282FE7818AC641FA107F0725EE7B583EAB79CFB680D6590E7218185C35E7C45735BE71A935DDA6D8B15ACE3D4FA58E3BFD58015C23EF43518D731
310
7D85EB678125B2BE1E408ECB98D2B735298004A049880500A03F90101CB62D8580ACE2BFF59842FE63397FB31798C97959C0BDD7A7A22B8213ECDEE2ACBACB38C63FFA8D328BFF304E64E9FCA1ECCB7C3E83E72238CFF6F5E01BF8E7B64CDE109B63908F23FC8AB82172B56D1C43A25FBD6CB0F9D242ADEBCDF7D7C70A3613
310
A054F661A6C64D95C55CF04FA6341700AAFB07E7165BB9FFEC16DC5668602AFA0F07C4120095CF2E1902A073A9D30EC004817D5B562DEFD41940ED1683FD3373EA0014EF3433F16909CD4F2E5A00A0FA0C0600E83E82FE152ACA215007A07DA7A33600F53B2D9501E8DFE909DF09E8BE022902407E4FD9ED1CB49FE9E82FC2
310
7473D03B0003F7D8290330D087896FFF01EE6FD6E67DA2044000AEFDF3BF0B10004B0001700430010880A2288AA2288AA2288AA2A8FBF505A8F2B098E1155B280000000049454E44AE426082
  0
ENDSEC
  0
EOF
