  0
SECTION
  2
HEADER
  9
$ACADVER
  1
AC1027
  9
$ACADMAINTVER
 70
   125
  9
$DWGCODEPAGE
  3
ANSI_1252
  9
$LASTSAVEDBY
  1
P04857991
  9
$REQUIREDVERSIONS
160
                 0
  9
$INSBASE
 10
0.0
 20
0.0
 30
0.0
  9
$EXTMIN
 10
76484.00380000007
 20
376424.0946999994
 30
0.0
  9
$EXTMAX
 10
76851.48280000035
 20
378354.6560999994
 30
0.0
  9
$LIMMIN
 10
0.0
 20
0.0
  9
$LIMMAX
 10
12.0
 20
9.0
  9
$ORTHOMODE
 70
     0
  9
$REGENMODE
 70
     1
  9
$FILLMODE
 70
     1
  9
$QTEXTMODE
 70
     0
  9
$MIRRTEXT
 70
     0
  9
$LTSCALE
 40
1.0
  9
$ATTMODE
 70
     1
  9
$TEXTSIZE
 40
0.2
  9
$TRACEWID
 40
0.05
  9
$TEXTSTYLE
  7
Legend
  9
$CLAYER
  8
0
  9
$CELTYPE
  6
ByLayer
  9
$CECOLOR
 62
   256
  9
$CELTSCALE
 40
1.0
  9
$DISPSILH
 70
     0
  9
$DIMSCALE
 40
1.0
  9
$DIMASZ
 40
0.18
  9
$DIMEXO
 40
0.0625
  9
$DIMDLI
 40
0.38
  9
$DIMRND
 40
0.0
  9
$DIMDLE
 40
0.0
  9
$DIMEXE
 40
0.18
  9
$DIMTP
 40
0.0
  9
$DIMTM
 40
0.0
  9
$DIMTXT
 40
0.18
  9
$DIMCEN
 40
0.09
  9
$DIMTSZ
 40
0.0
  9
$DIMTOL
 70
     0
  9
$DIMLIM
 70
     0
  9
$DIMTIH
 70
     1
  9
$DIMTOH
 70
     1
  9
$DIMSE1
 70
     0
  9
$DIMSE2
 70
     0
  9
$DIMTAD
 70
     0
  9
$DIMZIN
 70
     0
  9
$DIMBLK
  1

  9
$DIMASO
 70
     1
  9
$DIMSHO
 70
     1
  9
$DIMPOST
  1

  9
$DIMAPOST
  1

  9
$DIMALT
 70
     0
  9
$DIMALTD
 70
     2
  9
$DIMALTF
 40
25.4
  9
$DIMLFAC
 40
1.0
  9
$DIMTOFL
 70
     0
  9
$DIMTVP
 40
0.0
  9
$DIMTIX
 70
     0
  9
$DIMSOXD
 70
     0
  9
$DIMSAH
 70
     0
  9
$DIMBLK1
  1

  9
$DIMBLK2
  1

  9
$DIMSTYLE
  2
Standard
  9
$DIMCLRD
 70
     0
  9
$DIMCLRE
 70
     0
  9
$DIMCLRT
 70
     0
  9
$DIMTFAC
 40
1.0
  9
$DIMGAP
 40
0.09
  9
$DIMJUST
 70
     0
  9
$DIMSD1
 70
     0
  9
$DIMSD2
 70
     0
  9
$DIMTOLJ
 70
     1
  9
$DIMTZIN
 70
     0
  9
$DIMALTZ
 70
     0
  9
$DIMALTTZ
 70
     0
  9
$DIMUPT
 70
     0
  9
$DIMDEC
 70
     4
  9
$DIMTDEC
 70
     4
  9
$DIMALTU
 70
     2
  9
$DIMALTTD
 70
     2
  9
$DIMTXSTY
  7
Standard
  9
$DIMAUNIT
 70
     0
  9
$DIMADEC
 70
     0
  9
$DIMALTRND
 40
0.0
  9
$DIMAZIN
 70
     0
  9
$DIMDSEP
 70
    46
  9
$DIMATFIT
 70
     3
  9
$DIMFRAC
 70
     0
  9
$DIMLDRBLK
  1

  9
$DIMLUNIT
 70
     2
  9
$DIMLWD
 70
    -2
  9
$DIMLWE
 70
    -2
  9
$DIMTMOVE
 70
     0
  9
$DIMFXL
 40
1.0
  9
$DIMFXLON
 70
     0
  9
$DIMJOGANG
 40
0.7853981633974483
  9
$DIMTFILL
 70
     0
  9
$DIMTFILLCLR
 70
     0
  9
$DIMARCSYM
 70
     0
  9
$DIMLTYPE
  6

  9
$DIMLTEX1
  6

  9
$DIMLTEX2
  6

  9
$DIMTXTDIRECTION
 70
     0
  9
$LUNITS
 70
     2
  9
$LUPREC
 70
     4
  9
$SKETCHINC
 40
0.1
  9
$FILLETRAD
 40
0.0
  9
$AUNITS
 70
     0
  9
$AUPREC
 70
     0
  9
$MENU
  1
.
  9
$ELEVATION
 40
0.0
  9
$PELEVATION
 40
0.0
  9
$THICKNESS
 40
0.0
  9
$LIMCHECK
 70
     0
  9
$CHAMFERA
 40
0.0
  9
$CHAMFERB
 40
0.0
  9
$CHAMFERC
 40
0.0
  9
$CHAMFERD
 40
0.0
  9
$SKPOLY
 70
     0
  9
$TDCREATE
 40
2459597.385266204
  9
$TDUCREATE
 40
2459597.343599537
  9
$TDUPDATE
 40
2459597.390671297
  9
$TDUUPDATE
 40
2459597.349004630
  9
$TDINDWG
 40
0.0054050926
  9
$TDUSRTIMER
 40
0.0054050926
  9
$USRTIMER
 70
     1
  9
$ANGBASE
 50
0.0
  9
$ANGDIR
 70
     0
  9
$PDMODE
 70
     0
  9
$PDSIZE
 40
0.0
  9
$PLINEWID
 40
0.0
  9
$SPLFRAME
 70
     0
  9
$SPLINETYPE
 70
     6
  9
$SPLINESEGS
 70
     8
  9
$HANDSEED
  5
2A5
  9
$SURFTAB1
 70
     6
  9
$SURFTAB2
 70
     6
  9
$SURFTYPE
 70
     6
  9
$SURFU
 70
     6
  9
$SURFV
 70
     6
  9
$UCSBASE
  2

  9
$UCSNAME
  2

  9
$UCSORG
 10
0.0
 20
0.0
 30
0.0
  9
$UCSXDIR
 10
1.0
 20
0.0
 30
0.0
  9
$UCSYDIR
 10
0.0
 20
1.0
 30
0.0
  9
$UCSORTHOREF
  2

  9
$UCSORTHOVIEW
 70
     0
  9
$UCSORGTOP
 10
0.0
 20
0.0
 30
0.0
  9
$UCSORGBOTTOM
 10
0.0
 20
0.0
 30
0.0
  9
$UCSORGLEFT
 10
0.0
 20
0.0
 30
0.0
  9
$UCSORGRIGHT
 10
0.0
 20
0.0
 30
0.0
  9
$UCSORGFRONT
 10
0.0
 20
0.0
 30
0.0
  9
$UCSORGBACK
 10
0.0
 20
0.0
 30
0.0
  9
$PUCSBASE
  2

  9
$PUCSNAME
  2

  9
$PUCSORG
 10
0.0
 20
0.0
 30
0.0
  9
$PUCSXDIR
 10
1.0
 20
0.0
 30
0.0
  9
$PUCSYDIR
 10
0.0
 20
1.0
 30
0.0
  9
$PUCSORTHOREF
  2

  9
$PUCSORTHOVIEW
 70
     0
  9
$PUCSORGTOP
 10
0.0
 20
0.0
 30
0.0
  9
$PUCSORGBOTTOM
 10
0.0
 20
0.0
 30
0.0
  9
$PUCSORGLEFT
 10
0.0
 20
0.0
 30
0.0
  9
$PUCSORGRIGHT
 10
0.0
 20
0.0
 30
0.0
  9
$PUCSORGFRONT
 10
0.0
 20
0.0
 30
0.0
  9
$PUCSORGBACK
 10
0.0
 20
0.0
 30
0.0
  9
$USERI1
 70
     0
  9
$USERI2
 70
     0
  9
$USERI3
 70
     0
  9
$USERI4
 70
     0
  9
$USERI5
 70
     0
  9
$USERR1
 40
0.0
  9
$USERR2
 40
0.0
  9
$USERR3
 40
0.0
  9
$USERR4
 40
0.0
  9
$USERR5
 40
0.0
  9
$WORLDVIEW
 70
     1
  9
$SHADEDGE
 70
     3
  9
$SHADEDIF
 70
    70
  9
$TILEMODE
 70
     1
  9
$MAXACTVP
 70
    64
  9
$PINSBASE
 10
0.0
 20
0.0
 30
0.0
  9
$PLIMCHECK
 70
     0
  9
$PEXTMIN
 10
0.0
 20
0.0
 30
0.0
  9
$PEXTMAX
 10
0.0
 20
0.0
 30
0.0
  9
$PLIMMIN
 10
0.0
 20
0.0
  9
$PLIMMAX
 10
12.0
 20
9.0
  9
$UNITMODE
 70
     0
  9
$VISRETAIN
 70
     1
  9
$PLINEGEN
 70
     0
  9
$PSLTSCALE
 70
     1
  9
$TREEDEPTH
 70
  3020
  9
$CMLSTYLE
  2
Standard
  9
$CMLJUST
 70
     0
  9
$CMLSCALE
 40
1.0
  9
$PROXYGRAPHICS
 70
     1
  9
$MEASUREMENT
 70
     1
  9
$CELWEIGHT
370
    -1
  9
$ENDCAPS
280
     0
  9
$JOINSTYLE
280
     0
  9
$LWDISPLAY
290
     0
  9
$INSUNITS
 70
     1
  9
$HYPERLINKBASE
  1

  9
$STYLESHEET
  1

  9
$XEDIT
290
     1
  9
$CEPSNTYPE
380
     0
  9
$PSTYLEMODE
290
     1
  9
$FINGERPRINTGUID
  2
{6FA63E72-09C5-E546-904A-28FFF1001CDE}
  9
$VERSIONGUID
  2
{79AF1655-9EF8-7D4A-87CA-24048AB2143E}
  9
$EXTNAMES
290
     1
  9
$PSVPSCALE
 40
0.0
  9
$OLESTARTUP
290
     0
  9
$SORTENTS
280
   127
  9
$INDEXCTL
280
     0
  9
$HIDETEXT
280
     1
  9
$XCLIPFRAME
280
     2
  9
$HALOGAP
280
     0
  9
$OBSCOLOR
 70
   257
  9
$OBSLTYPE
280
     0
  9
$INTERSECTIONDISPLAY
280
     0
  9
$INTERSECTIONCOLOR
 70
   257
  9
$DIMASSOC
280
     2
  9
$PROJECTNAME
  1

  9
$CAMERADISPLAY
290
     0
  9
$LENSLENGTH
 40
50.0
  9
$CAMERAHEIGHT
 40
0.0
  9
$STEPSPERSEC
 40
2.0
  9
$STEPSIZE
 40
100.0
  9
$3DDWFPREC
 40
2.0
  9
$PSOLWIDTH
 40
0.25
  9
$PSOLHEIGHT
 40
4.0
  9
$LOFTANG1
 40
1.570796326794896
  9
$LOFTANG2
 40
1.570796326794896
  9
$LOFTMAG1
 40
0.0
  9
$LOFTMAG2
 40
0.0
  9
$LOFTPARAM
 70
     7
  9
$LOFTNORMALS
280
     1
  9
$LATITUDE
 40
37.795
  9
$LONGITUDE
 40
-122.394
  9
$NORTHDIRECTION
 40
0.0
  9
$TIMEZONE
 70
 -8000
  9
$LIGHTGLYPHDISPLAY
280
     1
  9
$TILEMODELIGHTSYNCH
280
     1
  9
$CMATERIAL
347
96
  9
$SOLIDHIST
280
     0
  9
$SHOWHIST
280
     1
  9
$DWFFRAME
280
     2
  9
$DGNFRAME
280
     0
  9
$REALWORLDSCALE
290
     1
  9
$INTERFERECOLOR
 62
     1
  9
$INTERFEREOBJVS
345
A3
  9
$INTERFEREVPVS
346
A0
  9
$CSHADOW
280
     0
  9
$SHADOWPLANELOCATION
 40
0.0
  0
ENDSEC
  0
SECTION
  2
CLASSES
  0
CLASS
  1
ACDBDICTIONARYWDFLT
  2
AcDbDictionaryWithDefault
  3
ObjectDBX Classes
 90
        0
 91
        1
280
     0
281
     0
  0
CLASS
  1
DICTIONARYVAR
  2
AcDbDictionaryVar
  3
ObjectDBX Classes
 90
        0
 91
        9
280
     0
281
     0
  0
CLASS
  1
TABLESTYLE
  2
AcDbTableStyle
  3
ObjectDBX Classes
 90
     4095
 91
        2
280
     0
281
     0
  0
CLASS
  1
MATERIAL
  2
AcDbMaterial
  3
ObjectDBX Classes
 90
     1153
 91
        3
280
     0
281
     0
  0
CLASS
  1
VISUALSTYLE
  2
AcDbVisualStyle
  3
ObjectDBX Classes
 90
     4095
 91
       24
280
     0
281
     0
  0
CLASS
  1
SCALE
  2
AcDbScale
  3
ObjectDBX Classes
 90
     1153
 91
       33
280
     0
281
     0
  0
CLASS
  1
MLEADERSTYLE
  2
AcDbMLeaderStyle
  3
ACDB_MLEADERSTYLE_CLASS
 90
     4095
 91
        2
280
     0
281
     0
  0
CLASS
  1
CELLSTYLEMAP
  2
AcDbCellStyleMap
  3
ObjectDBX Classes
 90
     1152
 91
        2
280
     0
281
     0
  0
CLASS
  1
EXACXREFPANELOBJECT
  2
ExAcXREFPanelObject
  3
EXAC_ESW
 90
     1025
 91
        0
280
     0
281
     0
  0
CLASS
  1
NPOCOLLECTION
  2
AcDbImpNonPersistentObjectsCollection
  3
ObjectDBX Classes
 90
     1153
 91
        0
280
     0
281
     0
  0
CLASS
  1
LAYER_INDEX
  2
AcDbLayerIndex
  3
ObjectDBX Classes
 90
        0
 91
        0
280
     0
281
     0
  0
CLASS
  1
SPATIAL_INDEX
  2
AcDbSpatialIndex
  3
ObjectDBX Classes
 90
        0
 91
        0
280
     0
281
     0
  0
CLASS
  1
IDBUFFER
  2
AcDbIdBuffer
  3
ObjectDBX Classes
 90
        0
 91
        0
280
     0
281
     0
  0
CLASS
  1
ACDBSECTIONVIEWSTYLE
  2
AcDbSectionViewStyle
  3
ObjectDBX Classes
 90
     1025
 91
        2
280
     0
281
     0
  0
CLASS
  1
ACDBDETAILVIEWSTYLE
  2
AcDbDetailViewStyle
  3
ObjectDBX Classes
 90
     1025
 91
        2
280
     0
281
     0
  0
CLASS
  1
DMMAPMANAGER
  2
AcMapDMMapManager
  3
AcMapDisplayManagement
 90
     1024
 91
        1
280
     0
281
     0
  0
CLASS
  1
DMSTYLELIBRARY
  2
AcMapDMStyleLibrary
  3
AcMapDisplayManagement
 90
     1024
 91
        1
280
     0
281
     0
  0
CLASS
  1
DMSTYLECATEGORY
  2
AcMapDMStyleCategory
  3
AcMapDisplayManagement
 90
     1024
 91
        1
280
     0
281
     0
  0
CLASS
  1
DATATABLE
  2
AcDbDataTable
  3
ObjectDBX Classes
 90
        0
 91
        1
280
     0
281
     0
  0
CLASS
  1
MAPRESOURCEMANAGEROBJECT
  2
AcMapResourceManager
  3
AcMapSharedComponents
 90
     1024
 91
        1
280
     0
281
     0
  0
CLASS
  1
MAPGWSUNDOOBJECT
  2
AcMapGWSUndoRecorder
  3
AcMapFeatureSourceManager
 90
     1025
 91
        1
280
     0
281
     0
  0
CLASS
  1
DMMAP
  2
AcMapDMMap
  3
AcMapDisplayManagement
 90
     1024
 91
        1
280
     0
281
     0
  0
CLASS
  1
DMBASEELEMENT
  2
AcMapDMBaseElement
  3
AcMapDisplayManagement
 90
     1024
 91
        1
280
     0
281
     0
  0
CLASS
  1
DMDEFAULTSTYLE
  2
AcMapDMDefaultStyle
  3
AcMapDisplayManagement
 90
     1024
 91
        1
280
     0
281
     0
  0
CLASS
  1
DMSTYLEREFERENCE
  2
AcMapDMStyleReference
  3
AcMapDisplayManagement
 90
     1024
 91
        1
280
     0
281
     0
  0
CLASS
  1
DMSURROGATESTYLESETS
  2
AcMapDMSurrogateStyleSets
  3
AcMapDisplayManagement
 90
     1153
 91
        1
280
     0
281
     0
  0
CLASS
  1
SORTENTSTABLE
  2
AcDbSortentsTable
  3
ObjectDBX Classes
 90
        0
 91
        1
280
     0
281
     0
  0
CLASS
  1
DMSTYLIZEDENTITIESTABLE
  2
AcMapDMStylizedEntitiesTable
  3
AcMapDisplayManagement
 90
     1024
 91
        1
280
     0
281
     0
  0
CLASS
  1
SUN
  2
AcDbSun
  3
SCENEOE
 90
     1153
 91
        1
280
     0
281
     0
  0
ENDSEC
  0
SECTION
  2
TABLES
  0
TABLE
  2
VPORT
  5
8
330
0
100
AcDbSymbolTable
 70
     1
1001
ACAD
1000
DbSaveVer
1071
      122
  0
VPORT
  5
94
330
8
100
AcDbSymbolTableRecord
100
AcDbViewportTableRecord
  2
*Active
 70
     0
 10
0.0
 20
0.0
 11
1.0
 21
1.0
 12
76707.1443257349
 22
376617.1184540249
 13
0.0
 23
0.0
 14
0.5
 24
0.5
 15
0.5
 25
0.5
 16
0.0
 26
0.0
 36
1.0
 17
0.0
 27
0.0
 37
0.0
 40
492.4529499281228
 41
1.778735632183908
 42
50.0
 43
0.0
 44
0.0
 50
0.0
 51
0.0
 71
     0
 72
  1000
 73
     1
 74
     3
 75
     0
 76
     0
 77
     0
 78
     0
281
     0
 65
     1
110
0.0
120
0.0
130
0.0
111
1.0
121
0.0
131
0.0
112
0.0
122
1.0
132
0.0
 79
     0
146
0.0
348
9F
 60
     3
 61
     5
292
     1
282
     1
141
0.0
142
0.0
 63
   250
421
  3355443
361
217
1001
ACAD_NAV_VCDISPLAY
1070
     3
  0
ENDTAB
  0
TABLE
  2
LTYPE
  5
5
330
0
100
AcDbSymbolTable
 70
     2
  0
LTYPE
  5
14
330
5
100
AcDbSymbolTableRecord
100
AcDbLinetypeTableRecord
  2
ByBlock
 70
     0
  3

 72
    65
 73
     0
 40
0.0
  0
LTYPE
  5
15
330
5
100
AcDbSymbolTableRecord
100
AcDbLinetypeTableRecord
  2
ByLayer
 70
     0
  3

 72
    65
 73
     0
 40
0.0
  0
LTYPE
  5
16
330
5
100
AcDbSymbolTableRecord
100
AcDbLinetypeTableRecord
  2
Continuous
 70
     0
  3
Solid line
 72
    65
 73
     0
 40
0.0
  0
LTYPE
  5
28C
330
5
100
AcDbSymbolTableRecord
100
AcDbLinetypeTableRecord
  2
ACAD_ISO10W100
 70
     0
  3
ISO Strichpunktlinie __ . __ . __ . __ . __ . _
 72
    65
 73
     4
 40
18.0
 49
12.0
 74
     0
 49
-3.0
 74
     0
 49
0.0
 74
     0
 49
-3.0
 74
     0
  0
ENDTAB
  0
TABLE
  2
LAYER
  5
2
102
{ACAD_XDICTIONARY
360
18E
102
}
330
0
100
AcDbSymbolTable
 70
     3
  0
LAYER
  5
10
102
{ACAD_XDICTIONARY
360
E6
102
}
330
2
100
AcDbSymbolTableRecord
100
AcDbLayerTableRecord
  2
0
 70
     0
 62
     7
  6
Continuous
370
    -3
390
F
347
98
348
0
  0
LAYER
  5
267
330
2
100
AcDbSymbolTableRecord
100
AcDbLayerTableRecord
  2
P_SV_SB_ACHS_0
 70
     0
 62
     2
  6
Continuous
370
    -3
390
F
347
98
348
0
  0
LAYER
  5
273
330
2
100
AcDbSymbolTableRecord
100
AcDbLayerTableRecord
  2
P_SV_SB_FBRD_0
 70
     0
 62
    10
  6
Continuous
370
    -3
390
F
347
98
348
0
  0
ENDTAB
  0
TABLE
  2
STYLE
  5
3
330
0
100
AcDbSymbolTable
 70
     4
  0
STYLE
  5
11
330
3
100
AcDbSymbolTableRecord
100
AcDbTextStyleTableRecord
  2
Standard
 70
     0
 40
0.0
 41
1.0
 50
0.0
 71
     0
 42
0.2
  3
arial.ttf
  4

1001
ACAD
1000
Arial
1071
       34
  0
STYLE
  5
DC
330
3
100
AcDbSymbolTableRecord
100
AcDbTextStyleTableRecord
  2
Beschriftung
 70
     0
 40
0.0
 41
1.0
 50
0.0
 71
     0
 42
0.2
  3
arial.ttf
  4

1001
AcadAnnotative
1000
AnnotativeData
1002
{
1070
     1
1070
     1
1002
}
1001
ACAD
1000
Arial
1071
       34
  0
STYLE
  5
20C
330
3
100
AcDbSymbolTableRecord
100
AcDbTextStyleTableRecord
  2
Legend
 70
     0
 40
0.0
 41
1.0
 50
0.0
 71
     0
 42
0.2
  3
calibri.ttf
  4

1001
ACAD
1000
Calibri
1071
       80
  0
STYLE
  5
28B
330
3
100
AcDbSymbolTableRecord
100
AcDbTextStyleTableRecord
  2

 70
     1
 40
0.0
 41
1.0
 50
0.0
 71
     0
 42
0.2
  3
ltypeshp.shx
  4

  0
ENDTAB
  0
TABLE
  2
VIEW
  5
6
330
0
100
AcDbSymbolTable
 70
     0
  0
ENDTAB
  0
TABLE
  2
UCS
  5
7
330
0
100
AcDbSymbolTable
 70
     0
  0
ENDTAB
  0
TABLE
  2
APPID
  5
9
330
0
100
AcDbSymbolTable
 70
    13
  0
APPID
  5
12
330
9
100
AcDbSymbolTableRecord
100
AcDbRegAppTableRecord
  2
ACAD
 70
     0
  0
APPID
  5
DD
330
9
100
AcDbSymbolTableRecord
100
AcDbRegAppTableRecord
  2
AcadAnnoPO
 70
     0
  0
APPID
  5
DE
330
9
100
AcDbSymbolTableRecord
100
AcDbRegAppTableRecord
  2
AcadAnnotative
 70
     0
  0
APPID
  5
DF
330
9
100
AcDbSymbolTableRecord
100
AcDbRegAppTableRecord
  2
ACAD_DSTYLE_DIMJAG
 70
     0
  0
APPID
  5
E0
330
9
100
AcDbSymbolTableRecord
100
AcDbRegAppTableRecord
  2
ACAD_DSTYLE_DIMTALN
 70
     0
  0
APPID
  5
107
330
9
100
AcDbSymbolTableRecord
100
AcDbRegAppTableRecord
  2
ACAD_MLEADERVER
 70
     0
  0
APPID
  5
1A6
330
9
100
AcDbSymbolTableRecord
100
AcDbRegAppTableRecord
  2
ACAD_NAV_VCDISPLAY
 70
     0
  0
APPID
  5
210
330
9
100
AcDbSymbolTableRecord
100
AcDbRegAppTableRecord
  2
AcMapDMDisplayStyleRegapp
 70
     0
  0
APPID
  5
21A
330
9
100
AcDbSymbolTableRecord
100
AcDbRegAppTableRecord
  2
ADE
 70
     0
  0
APPID
  5
21F
330
9
100
AcDbSymbolTableRecord
100
AcDbRegAppTableRecord
  2
DCO15
 70
     0
  0
APPID
  5
221
330
9
100
AcDbSymbolTableRecord
100
AcDbRegAppTableRecord
  2
MapGWS
 70
     0
  0
APPID
  5
265
330
9
100
AcDbSymbolTableRecord
100
AcDbRegAppTableRecord
  2
AcMap_E615D161-C9D7-11d3-839F-0060B0FB6B57
 70
     0
  0
APPID
  5
294
330
9
100
AcDbSymbolTableRecord
100
AcDbRegAppTableRecord
  2
ADE_PROJECTION
 70
     0
  0
ENDTAB
  0
TABLE
  2
DIMSTYLE
  5
A
330
0
100
AcDbSymbolTable
 70
     2
100
AcDbDimStyleTable
 71
     2
340
27
340
E1
  0
DIMSTYLE
105
27
330
A
100
AcDbSymbolTableRecord
100
AcDbDimStyleTableRecord
  2
Standard
 70
     0
340
11
  0
DIMSTYLE
105
E1
330
A
100
AcDbSymbolTableRecord
100
AcDbDimStyleTableRecord
  2
Beschriftung
 70
     0
 40
0.0
340
11
1001
AcadAnnotative
1000
AnnotativeData
1002
{
1070
     1
1070
     1
1002
}
1001
ACAD_DSTYLE_DIMJAG
1070
   388
1040
1.5
1001
ACAD_DSTYLE_DIMTALN
1070
   392
1070
     0
  0
ENDTAB
  0
TABLE
  2
BLOCK_RECORD
  5
1
330
0
100
AcDbSymbolTable
 70
     1
  0
BLOCK_RECORD
  5
1F
102
{ACAD_XDICTIONARY
360
15D
102
}
330
1
100
AcDbSymbolTableRecord
100
AcDbBlockTableRecord
  2
*Model_Space
340
22
 70
     0
280
     1
281
     0
  0
BLOCK_RECORD
  5
58
330
1
100
AcDbSymbolTableRecord
100
AcDbBlockTableRecord
  2
*Paper_Space
340
59
 70
     0
280
     1
281
     0
  0
BLOCK_RECORD
  5
5D
330
1
100
AcDbSymbolTableRecord
100
AcDbBlockTableRecord
  2
*Paper_Space0
340
5E
 70
     0
280
     1
281
     0
  0
ENDTAB
  0
ENDSEC
  0
SECTION
  2
BLOCKS
  0
BLOCK
  5
20
330
1F
100
AcDbEntity
  8
0
100
AcDbBlockBegin
  2
*Model_Space
 70
     0
 10
0.0
 20
0.0
 30
0.0
  3
*Model_Space
  1

  0
ENDBLK
  5
21
330
1F
100
AcDbEntity
  8
0
100
AcDbBlockEnd
  0
BLOCK
  5
5A
330
58
100
AcDbEntity
 67
     1
  8
0
100
AcDbBlockBegin
  2
*Paper_Space
 70
     0
 10
0.0
 20
0.0
 30
0.0
  3
*Paper_Space
  1

  0
ENDBLK
  5
5B
330
58
100
AcDbEntity
 67
     1
  8
0
100
AcDbBlockEnd
  0
BLOCK
  5
5F
330
5D
100
AcDbEntity
 67
     1
  8
0
100
AcDbBlockBegin
  2
*Paper_Space0
 70
     0
 10
0.0
 20
0.0
 30
0.0
  3
*Paper_Space0
  1

  0
ENDBLK
  5
60
330
5D
100
AcDbEntity
 67
     1
  8
0
100
AcDbBlockEnd
  0
ENDSEC
  0
SECTION
  2
ENTITIES
  0
LWPOLYLINE
  5
268
330
1F
100
AcDbEntity
  8
P_SV_SB_ACHS_0
100
AcDbPolyline
 90
      119
 70
     0
 43
0.0
 10
76605.62999999989
 20
376427.0376999994
 10
76583.52699999976
 20
376465.1766
 10
76578.26889968928
 20
376473.5946804013
 10
76572.46559999976
 20
376481.6466000006
 10
76572.06510000023
 20
376482.1627999991
 10
76571.66249999963
 20
376482.6773000006
 10
76571.25769999995
 20
376483.1901999992
 10
76570.85080000013
 20
376483.7013000008
 10
76570.44189999997
 20
376484.2107999996
 10
76570.03089999967
 20
376484.7188000009
 10
76569.61809999962
 20
376485.2250999995
 10
76569.20330000017
 20
376485.7299000006
 10
76568.78670000005
 20
376486.2332000006
 10
76568.3683000002
 20
376486.7348999996
 10
76567.94809999968
 20
376487.235200001
 10
76567.52630000003
 20
376487.7340999991
 10
76567.10280000046
 20
376488.2315999996
 10
76566.67769999988
 20
376488.7277000007
 10
76566.25100000017
 20
376489.2225000002
 10
76565.82280000019
 20
376489.716
 10
76565.39319999981
 20
376490.2082000002
 10
76564.96219999995
 20
376490.6992000007
 10
76564.52979999967
 20
376491.1889999993
 10
76564.09609999974
 20
376491.6776000001
 10
76563.66110000014
 20
376492.1649999991
 10
76563.22479999997
 20
376492.6513999999
 10
76562.78739999979
 20
376493.1367000006
 10
76562.34889999963
 20
376493.6209999993
 10
76561.90919999964
 20
376494.1042
 10
76561.46850000042
 20
376494.5865000002
 10
76561.02680000011
 20
376495.0679000002
 10
76560.58420000038
 20
376495.5483999998
 10
76560.14059999957
 20
376496.0281000007
 10
76559.69610000029
 20
376496.5068999995
 10
76559.25079999957
 20
376496.9849999995
 10
76558.80470000021
 20
376497.4624000006
 10
76558.35790000018
 20
376497.9389999993
 10
76557.91029999964
 20
376498.4149999992
 10
76557.46210000012
 20
376498.8903000001
 10
76557.01329999976
 20
376499.3651000001
 10
76556.56390000041
 20
376499.8392999992
 10
76556.11390000022
 20
376500.3129999992
 10
76555.66349999979
 20
376500.7862
 10
76555.2126000002
 20
376501.2589999996
 10
76554.76130000036
 20
376501.7314
 10
76554.30960000026
 20
376502.2035000008
 10
76553.85759999975
 20
376502.6752000004
 10
76553.40529999975
 20
376503.1467000004
 10
76552.95280000008
 20
376503.6179000009
 10
76552.50009999983
 20
376504.0888999999
 10
76552.04719999991
 20
376504.5598000009
 10
76551.59410000034
 20
376505.0306000002
 10
76551.14099999983
 20
376505.5011999999
 10
76550.68790000025
 20
376505.9718999994
 10
76550.05080000032
 20
376506.6336000003
 10
76549.41380000021
 20
376507.2952999994
 10
76548.77689999993
 20
376507.9572000001
 10
76548.14030000008
 20
376508.6194000002
 10
76547.50399999972
 20
376509.2818
 10
76546.86820000037
 20
376509.9447000009
 10
76546.23280000034
 20
376510.6079999991
 10
76545.59800000023
 20
376511.2719000001
 10
76544.96380000002
 20
376511.9363000002
 10
76544.33040000032
 20
376512.6015000009
 10
76543.69770000037
 20
376513.2675000001
 10
76543.06599999964
 20
376513.9342999999
 10
76542.43530000001
 20
376514.6019999999
 10
76541.80559999962
 20
376515.2707000002
 10
76541.17709999997
 20
376515.9406000004
 10
76540.54980000015
 20
376516.6115000006
 10
76539.92379999999
 20
376517.2837000005
 10
76539.29920000024
 20
376517.9572000001
 10
76538.67609999981
 20
376518.6320999992
 10
76538.05460000038
 20
376519.3083999996
 10
76537.43470000009
 20
376519.986300001
 10
76536.81659999955
 20
376520.6656999998
 10
76536.20029999967
 20
376521.3467999995
 10
76535.58600000012
 20
376522.0296000001
 10
76534.97360000014
 20
376522.7142999992
 10
76534.36330000031
 20
376523.4008000009
 10
76533.75530000031
 20
376524.0891999994
 10
76533.14950000029
 20
376524.7796999999
 10
76532.54609999992
 20
376525.4722000007
 10
76531.94510000012
 20
376526.1668999996
 10
76531.34669999964
 20
376526.8637000006
 10
76530.75100000016
 20
376527.5628999994
 10
76530.15799999982
 20
376528.2643
 10
76529.56780000031
 20
376528.9682000001
 10
76528.98060000036
 20
376529.6744999998
 10
76528.39639999997
 20
376530.3833000008
 10
76527.8152999999
 20
376531.0946999993
 10
76527.23749999982
 20
376531.8087000009
 10
76526.66299999971
 20
376532.5253999997
 10
76526.09190000035
 20
376533.2447999995
 10
76525.52440000046
 20
376533.9671
 10
76524.96050000005
 20
376534.6920999997
 10
76524.40029999986
 20
376535.4200999997
 10
76523.84399999958
 20
376536.1509000007
 10
76523.29160000011
 20
376536.8848000001
 10
76522.74330000021
 20
376537.6217
 10
76522.19909999985
 20
376538.3617000003
 10
76521.65919999965
 20
376539.1048000008
 10
76521.12370000034
 20
376539.8510999997
 10
76520.59260000009
 20
376540.6006000005
 10
76514.91413728177
 20
376549.2907067326
 10
76509.85031995212
 20
376558.3527510886
 10
76505.42540098427
 20
376567.7433307292
 10
76501.66057337036
 20
376577.4174698071
 10
76498.57386861841
 20
376587.3288343768
 10
76496.18007039113
 20
376597.42995431
 10
76494.49064370005
 20
376607.672450652
 10
76493.51367999424
 20
376618.0072673304
 10
76493.25385840668
 20
376628.3849061082
 10
76493.7124233436
 20
376638.7556636532
 10
76494.88717852454
 20
376649.0698695908
 10
76496.77249750133
 20
376659.2781243983
 10
76499.35935060571
 20
376669.3315360021
 10
76502.63534819671
 20
376679.1819539447
 10
76506.5848000003
 20
376688.7821999993
1001
AcMap_E615D161-C9D7-11d3-839F-0060B0FB6B57
1071
        1
1071
        1
  0
LWPOLYLINE
  5
269
330
1F
100
AcDbEntity
  8
P_SV_SB_ACHS_0
100
AcDbPolyline
 90
        5
 70
     0
 43
0.0
 10
76534.94560000021
 20
376562.8374000006
 10
76533.02438326776
 20
376571.462061461
 10
76531.65874893364
 20
376580.1919470219
 10
76530.85428967743
 20
376588.9913051999
 10
76530.61429999955
 20
376597.8241000008
1001
AcMap_E615D161-C9D7-11d3-839F-0060B0FB6B57
1071
        1
1071
        1
  0
LWPOLYLINE
  5
26A
330
1F
100
AcDbEntity
  8
P_SV_SB_ACHS_0
100
AcDbPolyline
 90
       20
 70
     0
 43
0.0
 10
76530.61429999955
 20
376597.8241000008
 10
76530.62954007948
 20
376597.8252111338
 10
76530.64441663568
 20
376597.8287015103
 10
76530.65856058418
 20
376597.8344845349
 10
76530.67162101686
 20
376597.8424167319
 10
76530.68327390736
 20
376597.8523013056
 10
76530.69323015007
 20
376597.8638930217
 10
76530.70124273295
 20
376597.8769042926
 10
76530.70711286558
 20
376597.8910123114
 10
76530.71069491132
 20
376597.9058670615
 10
76530.71190000046
 20
376597.9210999999
 10
76530.71043621966
 20
376597.9378893342
 10
76530.7060885313
 20
376597.9541719018
 10
76530.69898817737
 20
376597.9694561871
 10
76530.68934949352
 20
376597.9832808091
 10
76530.677463439
 20
376597.9952284494
 10
76530.66368881357
 20
376598.0049384491
 10
76530.64844142654
 20
376598.0121176963
 10
76530.63218154494
 20
376598.0165494737
 10
76530.61539999955
 20
376598.018100001
1001
AcMap_E615D161-C9D7-11d3-839F-0060B0FB6B57
1071
        1
1071
        1
  0
LINE
  5
26B
330
1F
100
AcDbEntity
  8
P_SV_SB_ACHS_0
100
AcDbLine
 10
76530.61429999955
 20
376597.8241000008
 30
0.0
 11
76530.61539999955
 21
376598.018100001
 31
0.0
1001
AcMap_E615D161-C9D7-11d3-839F-0060B0FB6B57
1071
        1
1071
        1
  0
LWPOLYLINE
  5
26C
330
1F
100
AcDbEntity
  8
P_SV_SB_ACHS_0
100
AcDbPolyline
 90
       19
 70
     0
 43
0.0
 10
76530.61539999955
 20
376598.018100001
 10
76530.59854898892
 20
376598.0167203328
 10
76530.58219351157
 20
376598.0124356622
 10
76530.56683045629
 20
376598.0053761597
 10
76530.55292656158
 20
376597.9957562971
 10
76530.54090423577
 20
376597.9838683315
 10
76530.5311287241
 20
376597.9700734262
 10
76530.52389701222
 20
376597.9547906782
 10
76530.5194288037
 20
376597.9384843863
 10
76530.51785984532
 20
376597.9216499451
 10
76530.51923780291
 20
376597.9047987945
 10
76530.52352081337
 20
376597.8884428822
 10
76530.53057875633
 20
376597.8730791105
 10
76530.54019720743
 20
376597.8591742393
 10
76530.55208395257
 20
376597.8471507068
 10
76530.56587786556
 20
376597.8373737949
 10
76530.58115987939
 20
376597.8301405318
 10
76530.59746571764
 20
376597.825670668
 10
76530.61429999955
 20
376597.8241000008
1001
AcMap_E615D161-C9D7-11d3-839F-0060B0FB6B57
1071
        1
1071
        1
  0
LWPOLYLINE
  5
26D
330
1F
100
AcDbEntity
  8
P_SV_SB_ACHS_0
100
AcDbPolyline
 90
       13
 70
     0
 43
0.0
 10
76530.61539999955
 20
376598.018100001
 10
76530.85482453374
 20
376605.3291197779
 10
76531.48110000044
 20
376612.6172000002
 10
76535.99519999978
 20
376652.6763000005
 10
76536.15344416398
 20
376657.3867068842
 10
76535.57200738419
 20
376662.0637685149
 10
76534.26524013789
 20
376666.5920500422
 10
76532.26539482911
 20
376670.8597886668
 10
76529.62182976489
 20
376674.761652065
 10
76526.39979093978
 20
376678.2013381023
 10
76522.67880169531
 20
376681.093951673
 10
76518.55069999956
 20
376683.3681000006
 10
76506.5848000003
 20
376688.7821999993
1001
AcMap_E615D161-C9D7-11d3-839F-0060B0FB6B57
1071
        1
1071
        1
  0
LINE
  5
26E
330
1F
100
AcDbEntity
  8
P_SV_SB_ACHS_0
100
AcDbLine
 10
76506.5848000003
 20
376688.7821999993
 30
0.0
 11
76484.80439999979
 21
376698.6369000003
 31
0.0
1001
AcMap_E615D161-C9D7-11d3-839F-0060B0FB6B57
1071
        1
1071
        1
  0
LWPOLYLINE
  5
26F
330
1F
100
AcDbEntity
  8
P_SV_SB_ACHS_0
100
AcDbPolyline
 90
      207
 70
     0
 43
0.0
 10
76765.19849999994
 20
377982.1732999999
 10
76764.76900000032
 20
377972.3951999992
 10
76764.61110254588
 20
377959.8903997152
 10
76765.23504489676
 20
377947.4001772316
 10
76766.6383875114
 20
377934.973367856
 10
76768.81564348443
 20
377922.6585589587
 10
76771.75829999987
 20
377910.5039000009
 10
76778.10400000028
 20
377887.4681000002
 10
76781.43576736038
 20
377873.9039928607
 10
76784.00481453905
 20
377860.1749844176
 10
76785.80312259031
 20
377846.3239279818
 10
76786.82507832998
 20
377832.3940578208
 10
76787.06749185635
 20
377818.4288542091
 10
76786.52960650722
 20
377804.4719077097
 10
76785.21310122158
 20
377790.5667831123
 10
76783.12208529916
 20
377776.7568834514
 10
76780.26308557361
 20
377763.0853145288
 10
76776.64502604003
 20
377749.5947503654
 10
76772.27919999976
 20
377736.3272999991
 10
76731.34750000015
 20
377622.7294999995
 10
76726.30622752495
 20
377609.4795686127
 10
76720.79860000033
 20
377596.4166000001
 10
76698.43049999978
 20
377545.8846000005
 10
76693.32107937556
 20
377533.4487083301
 10
76688.88758817708
 20
377520.7561224411
 10
76685.14284859039
 20
377507.843550808
 10
76682.09769084956
 20
377494.7483381297
 10
76679.76092191446
 20
377481.5083573254
 10
76678.13929999992
 20
377468.1619000007
 10
76670.88949999958
 20
377391.2774
 10
76668.36375732756
 20
377368.491055745
 10
76665.09318794123
 20
377345.7996424694
 10
76661.08129999972
 20
377323.2274999991
 10
76647.00729999971
 20
377250.9344999996
 10
76645.52300044673
 20
377241.3352306586
 10
76644.78854668853
 20
377231.6496901616
 10
76644.80837360183
 20
377221.9363630315
 10
76645.58236146511
 20
377212.2539015763
 10
76647.10583668155
 20
377202.660771727
 10
76649.36959999986
 20
377193.2149000001
 10
76663.04069999978
 20
377144.5903999992
 10
76666.1162999827
 20
377132.2226344268
 10
76668.43600921232
 20
377119.6910786735
 10
76669.99128417481
 20
377107.0418865926
 10
76670.77639677592
 20
377094.3216452933
 10
76670.78845543756
 20
377081.5772035599
 10
76670.02741574758
 20
377068.855499307
 10
76668.49608062324
 20
377056.2033867069
 10
76666.20008998812
 20
377043.6674636251
 10
76663.14790000021
 20
377031.2939
 10
76629.37509999983
 20
376910.2961
 10
76628.9718000004
 20
376908.8512999993
 10
76628.56830000039
 20
376907.4066000004
 10
76628.16459999978
 20
376905.9619999994
 10
76627.76049999986
 20
376904.5174000003
 10
76627.35570000019
 20
376903.0731000007
 10
76626.95029999968
 20
376901.6289000008
 10
76626.54389999993
 20
376900.1850000005
 10
76626.13659999985
 20
376898.7413999997
 10
76625.72809999995
 20
376897.2981000003
 10
76625.31830000039
 20
376895.8551000003
 10
76624.90710000041
 20
376894.4125999995
 10
76624.49430000036
 20
376892.9704999999
 10
76624.07980000041
 20
376891.5288999994
 10
76623.66330000013
 20
376890.0878999998
 10
76623.24490000028
 20
376888.6473999992
 10
76622.82430000044
 20
376887.2075999994
 10
76622.40139999986
 20
376885.7685000003
 10
76621.97609999962
 20
376884.3300000001
 10
76621.54810000025
 20
376882.8924000003
 10
76621.1174999997
 20
376881.4554999992
 10
76620.68389999959
 20
376880.0195000004
 10
76620.24739999976
 20
376878.5845
 10
76619.80769999977
 20
376877.1503999997
 10
76619.3646999998
 20
376875.7172999997
 10
76618.91820000019
 20
376874.2852999996
 10
76618.4682
 20
376872.8543999996
 10
76618.01439999975
 20
376871.4245999996
 10
76617.55680000037
 20
376869.9960999992
 10
76617.09520000033
 20
376868.5689000003
 10
76616.6294999998
 20
376867.1431000009
 10
76616.15950000006
 20
376865.7185999994
 10
76615.68510000035
 20
376864.2956000008
 10
76615.20610000007
 20
376862.8740999997
 10
76614.72240000032
 20
376861.4541999996
 10
76614.23400000017
 20
376860.0360000004
 10
76613.74050000031
 20
376858.6195000001
 10
76613.24199999961
 20
376857.2048000005
 10
76612.73819999956
 20
376855.7918999996
 10
76612.22900000028
 20
376854.3809999992
 10
76611.71439999994
 20
376852.9719999992
 10
76611.19409999996
 20
376851.5650999994
 10
76610.66810000035
 20
376850.1603999995
 10
76610.1361999996
 20
376848.7578999997
 10
76609.59819999989
 20
376847.3576999996
 10
76609.0541000003
 20
376845.9597999994
 10
76608.50370000023
 20
376844.5645000003
 10
76607.94689999987
 20
376843.1715999991
 10
76607.38350000046
 20
376841.7814000007
 10
76606.81350000016
 20
376840.3939999994
 10
76606.23670000024
 20
376839.0092999992
 10
76599.96067424322
 20
376825.0565564787
 10
76592.98148462351
 20
376811.4419149742
 10
76585.31728230449
 20
376798.2007838344
 10
76576.98799999989
 20
376785.3675999996
 10
76576.34889999963
 20
376784.4397000001
 10
76575.70650000032
 20
376783.5141000003
 10
76575.06080000009
 20
376782.5909000002
 10
76574.41170000005
 20
376781.6699000001
 10
76573.75949999969
 20
376780.7511999998
 10
76573.10429999977
 20
376779.8346999996
 10
76572.4458999997
 20
376778.9203999992
 10
76571.78469999973
 20
376778.0081999991
 10
76571.12050000019
 20
376777.0980999992
 10
76570.45359999965
 20
376776.1899999995
 10
76569.78390000015
 20
376775.284
 10
76569.11160000041
 20
376774.3798999992
 10
76568.43670000043
 20
376773.4777000006
 10
76567.75930000003
 20
376772.5774000008
 10
76567.07949999999
 20
376771.6789999996
 10
76566.3973000003
 20
376770.7822999991
 10
76565.71279999986
 20
376769.8873999994
 10
76565.02610000036
 20
376768.9942000006
 10
76564.33729999978
 20
376768.1027000007
 10
76563.64630000013
 20
376767.2127
 10
76562.95339999999
 20
376766.3243000005
 10
76562.25860000029
 20
376765.4374000002
 10
76561.56190000008
 20
376764.5519999992
 10
76560.86330000031
 20
376763.6679999996
 10
76560.16309999954
 20
376762.7853999995
 10
76559.46119999978
 20
376761.9041000009
 10
76558.75769999996
 20
376761.0240000003
 10
76558.05269999988
 20
376760.1451999992
 10
76557.34630000033
 20
376759.2675000001
 10
76556.63850000035
 20
376758.390900001
 10
76555.92929999996
 20
376757.5154999998
 10
76555.21889999975
 20
376756.6410000008
 10
76554.5072999997
 20
376755.7675000001
 10
76553.79459999967
 20
376754.8947999999
 10
76553.0809000004
 20
376754.0230999999
 10
76552.36620000005
 20
376753.1522000004
 10
76551.65050000046
 20
376752.2819999997
 10
76550.93400000035
 20
376751.4124999997
 10
76550.21679999959
 20
376750.5436000005
 10
76549.49880000017
 20
376749.6754000001
 10
76548.78010000009
 20
376748.8076000009
 10
76548.06089999993
 20
376747.9404000007
 10
76547.34119999967
 20
376747.0735999998
 10
76546.62100000027
 20
376746.2072000001
 10
76545.90039999969
 20
376745.3410999999
 10
76545.17939999979
 20
376744.4752999992
 10
76544.45830000006
 20
376743.6097
 10
76543.7368999999
 20
376742.7442000006
 10
76543.01539999991
 20
376741.8789000009
 10
76542.2938000001
 20
376741.0135999992
 10
76541.70550000015
 20
376740.3081999999
 10
76541.11739999987
 20
376739.6027000007
 10
76540.52940000035
 20
376738.8969999999
 10
76539.94159999955
 20
376738.1910999995
 10
76539.35419999994
 20
376737.4849999995
 10
76538.76719999965
 20
376736.7784000002
 10
76538.18080000021
 20
376736.0714999996
 10
76537.59489999991
 20
376735.3640000001
 10
76537.00980000012
 20
376734.6559999995
 10
76536.42540000006
 20
376733.9473000002
 10
76535.84190000035
 20
376733.2379999999
 10
76535.25939999986
 20
376732.5277999994
 10
76534.67789999954
 20
376731.8168000001
 10
76534.09750000014
 20
376731.1048000009
 10
76533.5184000004
 20
376730.3918999993
 10
76532.94049999955
 20
376729.6777999997
 10
76532.36409999989
 20
376728.9627
 10
76531.7890999997
 20
376728.2464000005
 10
76531.21580000036
 20
376727.5287999996
 10
76530.64410000015
 20
376726.8098000009
 10
76530.07419999968
 20
376726.0895000008
 10
76529.50609999988
 20
376725.3676999994
 10
76528.93989999965
 20
376724.6444000006
 10
76528.37590000033
 20
376723.9195000008
 10
76527.81390000042
 20
376723.1929000002
 10
76527.25420000032
 20
376722.4646000006
 10
76526.69680000003
 20
376721.7345000002
 10
76526.14180000033
 20
376721.0025999993
 10
76525.58930000011
 20
376720.2687999998
 10
76525.03940000013
 20
376719.5329999998
 10
76524.49230000004
 20
376718.7952999994
 10
76523.94790000003
 20
376718.055400001
 10
76523.40649999957
 20
376717.3134000004
 10
76522.86799999978
 20
376716.5692999996
 10
76522.33270000015
 20
376715.8228999991
 10
76521.8004999999
 20
376715.0742000006
 10
76521.27170000039
 20
376714.3232000004
 10
76520.74629999977
 20
376713.5698000006
 10
76520.22439999972
 20
376712.8138999995
 10
76519.70610000007
 20
376712.0556000005
 10
76519.19149999972
 20
376711.2947000005
 10
76518.68070000038
 20
376710.5313000009
 10
76518.17389999981
 20
376709.7652000003
 10
76517.67109999992
 20
376708.9965000004
 10
76517.17250000033
 20
376708.2250999995
 10
76516.67819999996
 20
376707.4508999996
 10
76516.18819999974
 20
376706.6740000006
 10
76515.70260000043
 20
376705.8943000008
 10
76515.22169999965
 20
376705.1117000003
 10
76514.7455000002
 20
376704.3263000008
 10
76510.43754364184
 20
376696.6737440338
 10
76506.5848000003
 20
376688.7821999993
1001
AcMap_E615D161-C9D7-11d3-839F-0060B0FB6B57
1071
        1
1071
        1
  0
LINE
  5
270
330
1F
100
AcDbEntity
  8
P_SV_SB_ACHS_0
100
AcDbLine
 10
76765.19849999994
 20
377982.1732999999
 30
0.0
 11
76761.9933000002
 21
377982.3094999996
 31
0.0
1001
AcMap_E615D161-C9D7-11d3-839F-0060B0FB6B57
1071
        1
1071
        1
  0
LWPOLYLINE
  5
271
330
1F
100
AcDbEntity
  8
P_SV_SB_ACHS_0
100
AcDbPolyline
 90
        6
 70
     0
 43
0.0
 10
76851.48280000035
 20
377994.1477000006
 10
76793.19699999969
 20
377983.9030000009
 10
76784.26508630877
 20
377982.6633471632
 10
76775.26704365421
 20
377982.0708526685
 10
76766.24969999958
 20
377982.1285999995
 10
76765.19849999994
 20
377982.1732999999
1001
AcMap_E615D161-C9D7-11d3-839F-0060B0FB6B57
1071
        1
1071
        1
  0
LWPOLYLINE
  5
272
330
1F
100
AcDbEntity
  8
P_SV_SB_ACHS_0
100
AcDbPolyline
 90
        8
 70
     0
 43
0.0
 10
76791.65180000011
 20
378354.6560999994
 10
76791.77528745865
 20
378343.7075760511
 10
76791.41925981807
 20
378332.7641455964
 10
76790.58440000005
 20
378321.8467999995
 10
76772.49969999958
 20
378138.3154000007
 10
76771.81086502749
 20
378130.1960566041
 10
76771.34279999975
 20
378122.0610000007
 10
76765.19849999994
 20
377982.1732999999
1001
AcMap_E615D161-C9D7-11d3-839F-0060B0FB6B57
1071
        1
1071
        1
  0
LWPOLYLINE
  5
274
330
1F
100
AcDbEntity
  8
P_SV_SB_FBRD_0
100
AcDbPolyline
 90
       12
 70
     0
 43
0.0
 10
76586.51190000028
 20
376424.0946999994
 10
76588.60803525429
 20
376425.6140258618
 10
76590.41170960018
 20
376427.4711453877
 10
76591.86919659354
 20
376429.6107401493
 10
76592.93708174874
 20
376431.9690775668
 10
76593.58355573576
 20
376434.475909325
 10
76593.78936189183
 20
376437.0565638748
 10
76593.54836982368
 20
376439.6341706917
 10
76592.86775801505
 20
376442.1319500345
 10
76591.76779999956
 20
376444.4755000007
 10
76587.29009999986
 20
376452.2018
 10
76587.07380000036
 20
376452.0765000005
1001
AcMap_E615D161-C9D7-11d3-839F-0060B0FB6B57
1071
        1
1071
        2
  0
LWPOLYLINE
  5
275
330
1F
100
AcDbEntity
  8
P_SV_SB_FBRD_0
100
AcDbPolyline
 90
        5
 70
     0
 43
0.0
 10
76587.07380000036
 20
376452.0765000005
 10
76586.20859999954
 20
376451.5750999991
 10
76579.63360000029
 20
376462.9201999996
 10
76577.96879999992
 20
376465.7202000004
 10
76578.83540000021
 20
376466.2196999994
1001
AcMap_E615D161-C9D7-11d3-839F-0060B0FB6B57
1071
        1
1071
        2
  0
LWPOLYLINE
  5
276
330
1F
100
AcDbEntity
  8
P_SV_SB_FBRD_0
100
AcDbPolyline
 90
        3
 70
     0
 43
0.0
 10
76587.07380000036
 20
376452.0765000005
 10
76580.49880000017
 20
376463.4215999991
 10
76578.83540000021
 20
376466.2196999994
1001
AcMap_E615D161-C9D7-11d3-839F-0060B0FB6B57
1071
        1
1071
        2
  0
LWPOLYLINE
  5
277
330
1F
100
AcDbEntity
  8
P_SV_SB_FBRD_0
100
AcDbPolyline
 90
       16
 70
     0
 43
0.0
 10
76593.14570000023
 20
376455.5596999992
 10
76596.36429999955
 20
376450.0058999993
 10
76598.10957066431
 20
376447.4675377691
 10
76600.22394444339
 20
376445.2272975972
 10
76602.65726197329
 20
376443.33832478
 10
76605.35179757676
 20
376441.8454314862
 10
76608.24362869093
 20
376440.7840336757
 10
76611.2641523047
 20
376440.1793109261
 10
76614.34171243017
 20
376440.0456090964
 10
76617.40330000036
 20
376440.3860999998
 10
76618.48992239602
 20
376440.6565036303
 10
76619.53949999995
 20
376441.0467000008
 10
76641.2293999996
 20
376450.5233999994
 10
76648.10340000037
 20
376453.208900001
 10
76650.23560000024
 20
376455.5643000007
 10
76650.26389999967
 20
376455.6634
1001
AcMap_E615D161-C9D7-11d3-839F-0060B0FB6B57
1071
        1
1071
        2
  0
LWPOLYLINE
  5
278
330
1F
100
AcDbEntity
  8
P_SV_SB_FBRD_0
100
AcDbPolyline
 90
        5
 70
     0
 43
0.0
 10
76593.14570000023
 20
376455.5596999992
 10
76594.44519999996
 20
376456.3089000006
 10
76587.85309999995
 20
376467.6837000009
 10
76586.21860000025
 20
376470.4381000008
 10
76584.92150000017
 20
376469.6840000004
1001
AcMap_E615D161-C9D7-11d3-839F-0060B0FB6B57
1071
        1
1071
        2
  0
LWPOLYLINE
  5
279
330
1F
100
AcDbEntity
  8
P_SV_SB_FBRD_0
100
AcDbPolyline
 90
        3
 70
     0
 43
0.0
 10
76593.14570000023
 20
376455.5596999992
 10
76586.55530000012
 20
376466.9316000008
 10
76584.92150000017
 20
376469.6840000004
1001
AcMap_E615D161-C9D7-11d3-839F-0060B0FB6B57
1071
        1
1071
        2
  0
LWPOLYLINE
  5
27A
330
1F
100
AcDbEntity
  8
P_SV_SB_FBRD_0
100
AcDbPolyline
 90
      106
 70
     0
 43
0.0
 10
76578.83540000021
 20
376466.2196999994
 10
76579.05209999997
 20
376466.3445999995
 10
76574.65813537959
 20
376473.1256620591
 10
76569.89759999979
 20
376479.6546
 10
76569.89329999965
 20
376479.6601
 10
76569.50140000041
 20
376480.1653000005
 10
76569.10720000043
 20
376480.6689999998
 10
76568.71079999953
 20
376481.1712999996
 10
76568.31209999975
 20
376481.6721000001
 10
76567.91119999997
 20
376482.1715999991
 10
76567.50820000004
 20
376482.6697000005
 10
76567.10309999994
 20
376483.1665000003
 10
76566.69600000046
 20
376483.6620000005
 10
76566.28689999972
 20
376484.1563000009
 10
76565.87579999957
 20
376484.6491999999
 10
76565.46279999986
 20
376485.1410000008
 10
76565.04800000042
 20
376485.6315000002
 10
76564.6314000003
 20
376486.1208999995
 10
76564.21300000046
 20
376486.6092000008
 10
76563.79289999977
 20
376487.0964000002
 10
76563.37119999993
 20
376487.5824999996
 10
76562.9478000002
 20
376488.0676000006
 10
76562.52280000038
 20
376488.5515999999
 10
76562.09630000033
 20
376489.0347000007
 10
76561.66839999984
 20
376489.5167999994
 10
76561.23890000023
 20
376489.9980999995
 10
76560.80810000002
 20
376490.4783999995
 10
76560.37590000034
 20
376490.9579000008
 10
76559.94240000006
 20
376491.4366999995
 10
76559.50760000012
 20
376491.9145999999
 10
76559.07160000038
 20
376492.3917999995
 10
76558.63430000003
 20
376492.8683000003
 10
76558.19600000046
 20
376493.3441000004
 10
76557.75650000014
 20
376493.8192999996
 10
76557.31599999964
 20
376494.2938999999
 10
76556.87449999992
 20
376494.7678999995
 10
76556.43200000003
 20
376495.2413999998
 10
76555.98849999997
 20
376495.7144000009
 10
76555.54420000036
 20
376496.1870000009
 10
76555.0990000004
 20
376496.6591999997
 10
76554.65299999993
 20
376497.1308999993
 10
76554.2061999999
 20
376497.6023999993
 10
76553.75870000012
 20
376498.0735
 10
76553.31159999967
 20
376498.5432999991
 10
76552.86259999964
 20
376499.0140000005
 10
76552.41309999953
 20
376499.4846000001
 10
76551.96300000046
 20
376499.9550000001
 10
76551.51229999959
 20
376500.4253000003
 10
76551.06120000034
 20
376500.8955000006
 10
76550.60969999992
 20
376501.365700001
 10
76550.15770000033
 20
376501.8359999992
 10
76549.70540000032
 20
376502.3061999996
 10
76549.2527999999
 20
376502.7765999995
 10
76548.79980000015
 20
376503.2469999996
 10
76548.34669999964
 20
376503.7177000009
 10
76547.70959999971
 20
376504.3794
 10
76547.07230000012
 20
376505.0414000004
 10
76546.43489999976
 20
376505.7039000001
 10
76545.79750000033
 20
376506.3669000008
 10
76545.16009999998
 20
376507.0305000004
 10
76544.52280000039
 20
376507.6948000007
 10
76543.88580000028
 20
376508.3597999998
 10
76543.24909999966
 20
376509.0256999992
 10
76542.61149999965
 20
376509.6938000005
 10
76541.97539999988
 20
376510.3617000003
 10
76541.33990000002
 20
376511.0307
 10
76540.70500000007
 20
376511.7007999998
 10
76540.0708999997
 20
376512.3721999992
 10
76539.4375
 20
376513.0448000003
 10
76538.8049999997
 20
376513.7188000009
 10
76538.17349999957
 20
376514.3943000007
 10
76537.54310000036
 20
376515.0713
 10
76536.91380000021
 20
376515.7499000002
 10
76536.28569999989
 20
376516.4301999994
 10
76535.65890000016
 20
376517.1122999993
 10
76535.0334999999
 20
376517.7960999999
 10
76534.40969999973
 20
376518.4818999991
 10
76533.7873999998
 20
376519.1696000007
 10
76533.30200000014
 20
376519.7091000006
 10
76533.16669999994
 20
376519.8594000005
 10
76532.54789999966
 20
376520.5513000005
 10
76531.93090000003
 20
376521.2454000004
 10
76531.31579999998
 20
376521.9418000002
 10
76530.70280000009
 20
376522.6403999999
 10
76530.09200000018
 20
376523.3414999992
 10
76529.48330000043
 20
376524.0450999998
 10
76528.87700000032
 20
376524.7511
 10
76528.27309999987
 20
376525.4597999994
 10
76527.67179999966
 20
376526.1711999997
 10
76527.07309999969
 20
376526.8851999995
 10
76526.47709999978
 20
376527.6020999998
 10
76525.88389999978
 20
376528.3217999991
 10
76525.29360000044
 20
376529.0445000008
 10
76524.70639999956
 20
376529.7700999994
 10
76524.12229999993
 20
376530.4987000004
 10
76523.54150000028
 20
376531.2304999997
 10
76522.96399999968
 20
376531.9653999992
 10
76522.38989999983
 20
376532.7035000008
 10
76521.81940000039
 20
376533.4448000007
 10
76521.25260000024
 20
376534.1895000004
 10
76520.68960000016
 20
376534.9375
 10
76520.13040000014
 20
376535.6888999995
 10
76519.57529999967
 20
376536.4438000005
 10
76519.0242999997
 20
376537.2021999993
 10
76518.47750000004
 20
376537.9641999994
 10
76517.94079999998
 20
376538.7215999999
1001
AcMap_E615D161-C9D7-11d3-839F-0060B0FB6B57
1071
        1
1071
        2
  0
LWPOLYLINE
  5
27B
330
1F
100
AcDbEntity
  8
P_SV_SB_FBRD_0
100
AcDbPolyline
 90
      139
 70
     0
 43
0.0
 10
76584.92150000017
 20
376469.6840000004
 10
76580.27521303384
 20
376476.8699924076
 10
76575.23570000008
 20
376483.7859000005
 10
76574.82600000035
 20
376484.3139999994
 10
76574.41430000029
 20
376484.8400999997
 10
76574.00050000008
 20
376485.3642999996
 10
76573.5848000003
 20
376485.8866000008
 10
76573.16720000002
 20
376486.4068999999
 10
76572.74770000018
 20
376486.9254000001
 10
76572.32639999967
 20
376487.4419999998
 10
76571.90340000019
 20
376487.9568000008
 10
76571.47879999969
 20
376488.4697999992
 10
76571.05240000039
 20
376488.9811000005
 10
76570.62459999974
 20
376489.4905999992
 10
76570.19510000012
 20
376489.9985000007
 10
76569.76420000009
 20
376490.5046999995
 10
76569.33189999964
 20
376491.0091999993
 10
76568.8981999997
 20
376491.5121999998
 10
76568.46310000029
 20
376492.0135999993
 10
76568.0268000001
 20
376492.5134999995
 10
76567.58920000028
 20
376493.0120000001
 10
76567.15039999969
 20
376493.5088999998
 10
76566.71050000005
 20
376494.0044999998
 10
76566.26960000023
 20
376494.4987000003
 10
76565.82749999967
 20
376494.9914999995
 10
76565.3844999997
 20
376495.4829999991
 10
76564.94049999956
 20
376495.9733000007
 10
76564.49560000003
 20
376496.4623000008
 10
76564.28670000005
 20
376496.6909999997
 10
76564.10209999979
 20
376496.5222999994
 10
76563.8655000003
 20
376496.7813000009
 10
76563.41930000018
 20
376497.2675999999
 10
76562.97229999956
 20
376497.7528000009
 10
76562.52460000012
 20
376498.2368999999
 10
76562.07620000001
 20
376498.7200000007
 10
76561.62710000016
 20
376499.2020999994
 10
76561.17750000023
 20
376499.6832999997
 10
76560.72719999961
 20
376500.1634999998
 10
76560.27649999969
 20
376500.6428999994
 10
76559.82529999968
 20
376501.1215000004
 10
76559.37359999958
 20
376501.5991999991
 10
76558.9216
 20
376502.0761999991
 10
76558.46920000016
 20
376502.5525000002
 10
76558.01549999974
 20
376503.0292000008
 10
76557.56259999983
 20
376503.5040000006
 10
76557.10950000025
 20
376503.9782999996
 10
76556.65629999991
 20
376504.4519999996
 10
76556.20289999991
 20
376504.9251000006
 10
76555.74949999992
 20
376505.3978000004
 10
76555.29590000026
 20
376505.8701000009
 10
76554.84240000043
 20
376506.3419000004
 10
76554.38889999967
 20
376506.8134000003
 10
76553.93549999967
 20
376507.2846000008
 10
76553.48220000044
 20
376507.7554000002
 10
76553.0290000001
 20
376508.2260999996
 10
76552.43039999995
 20
376508.8581000008
 10
76551.79349999968
 20
376509.5194000006
 10
76551.15699999965
 20
376510.1805000008
 10
76550.52099999972
 20
376510.8416000009
 10
76549.88559999969
 20
376511.5026999992
 10
76549.25090000033
 20
376512.1638999991
 10
76548.61689999979
 20
376512.8253000006
 10
76547.98379999958
 20
376513.4869999998
 10
76547.35290000028
 20
376514.1476000007
 10
76546.72180000041
 20
376514.8099000008
 10
76546.09190000035
 20
376515.4726
 10
76545.46310000029
 20
376516.1359000001
 10
76544.83550000004
 20
376516.7997999993
 10
76544.20930000022
 20
376517.4644000009
 10
76543.58449999988
 20
376518.1297999993
 10
76542.96119999979
 20
376518.7961
 10
76542.33949999976
 20
376519.4633000009
 10
76541.71939999983
 20
376520.1314000003
 10
76541.10109999962
 20
376520.8006999996
 10
76540.48460000008
 20
376521.4711000007
 10
76539.87009999994
 20
376522.1426999997
 10
76539.2575000003
 20
376522.8156000004
 10
76538.64699999988
 20
376523.4899000005
 10
76538.03870000039
 20
376524.1656
 10
76537.43259999994
 20
376524.8428000007
 10
76536.82890000008
 20
376525.5215000008
 10
76536.22750000003
 20
376526.2018
 10
76535.62880000007
 20
376526.8838999998
 10
76535.03259999957
 20
376527.5676000007
 10
76534.43910000008
 20
376528.2532000002
 10
76533.84839999955
 20
376528.9407000002
 10
76533.26049999986
 20
376529.6301000006
 10
76532.67569999956
 20
376530.3214999997
 10
76532.09379999991
 20
376531.0149000008
 10
76531.51520000026
 20
376531.7105000001
 10
76530.93969999999
 20
376532.4081999995
 10
76530.36760000047
 20
376533.1082000006
 10
76529.79899999965
 20
376533.8103999999
 10
76529.23379999958
 20
376534.5149000008
 10
76528.67229999975
 20
376535.2218999993
 10
76528.11450000014
 20
376535.9311999996
 10
76527.56049999967
 20
376536.643100001
 10
76527.01040000002
 20
376537.3574000001
 10
76526.46430000011
 20
376538.0744000003
 10
76525.92229999974
 20
376538.7939
 10
76525.38460000045
 20
376539.5161000006
 10
76524.85109999962
 20
376540.2410000004
 10
76524.32210000045
 20
376540.9686999992
 10
76523.79760000016
 20
376541.6991000008
 10
76523.27770000044
 20
376542.4322999996
 10
76523.27199999988
 20
376542.4404000007
 10
76517.45106546202
 20
376551.3773696202
 10
76512.29459572475
 20
376560.7135104035
 10
76507.82982768287
 20
376570.3995080913
 10
76504.08034460627
 20
376580.3842004518
 10
76501.06595157119
 20
376590.6148475235
 10
76498.80257084811
 20
376601.0374101919
 10
76497.30215779912
 20
376611.5968356289
 10
76496.57263772862
 20
376622.2373480856
 10
76496.61786402129
 20
376632.9027435053
 10
76497.43759778814
 20
376643.5366863972
 10
76499.02750912838
 20
376654.0830074053
 10
76501.37920000031
 20
376664.4859999996
 10
76502.59988383062
 20
376668.134866155
 10
76504.27754930041
 20
376671.5974853667
 10
76506.38460000045
 20
376674.8169
 10
76507.18292740177
 20
376675.7195896326
 10
76508.11551984372
 20
376676.4827714915
 10
76509.15830141402
 20
376677.0867431872
 10
76510.2843515453
 20
376677.5159125178
 10
76511.4645999996
 20
376677.7591999993
 10
76513.82576938759
 20
376677.8631450744
 10
76516.17395613418
 20
376677.5949204287
 10
76518.45086303504
 20
376676.9611851352
 10
76520.59996251331
 20
376675.9776726086
 10
76522.56790000014
 20
376674.6688000001
 10
76525.91154528856
 20
376671.55048467
 10
76528.68110493086
 20
376667.9127114912
 10
76530.79716276311
 20
376663.8597923503
 10
76532.19904155952
 20
376659.5079433004
 10
76532.84654293096
 20
376654.9819521065
 10
76532.72109999973
 20
376650.4115999993
 10
76529.48670000024
 20
376621.7094000001
 10
76528.43209999986
 20
376609.1903000009
1001
AcMap_E615D161-C9D7-11d3-839F-0060B0FB6B57
1071
        1
1071
        2
  0
LWPOLYLINE
  5
27C
330
1F
100
AcDbEntity
  8
P_SV_SB_FBRD_0
100
AcDbPolyline
 90
      112
 70
     0
 43
0.0
 10
76533.93340000045
 20
376610.1882000007
 10
76535.26759999991
 20
376619.428200001
 10
76538.97640000004
 20
376652.3403999992
 10
76539.17630273397
 20
376656.7457710101
 10
76538.78703059127
 20
376661.1384606241
 10
76537.8155351693
 20
376665.4400244667
 10
76536.27916537221
 20
376669.5736454813
 10
76534.2053575951
 20
376673.4655057242
 10
76531.63114576678
 20
376677.0461046001
 10
76528.60250000004
 20
376680.2514999993
 10
76523.91889999993
 20
376684.5874000006
 10
76523.57050000038
 20
376684.9101
 10
76520.47120448965
 20
376688.2510041463
 10
76517.91370000038
 20
376692.0228000004
 10
76517.40069457381
 20
376693.1143961429
 10
76517.06930009213
 20
376694.2741092123
 10
76516.92808697311
 20
376695.4719470815
 10
76516.98070722514
 20
376696.6769316519
 10
76517.22580000013
 20
376697.8578999993
 10
76519.04933689369
 20
376703.0152277117
 10
76521.42534998013
 20
376707.942486356
 10
76524.32540000043
 20
376712.5807000008
 10
76524.65780000016
 20
376713.0527999997
 10
76525.18109999969
 20
376713.7891000007
 10
76525.7078999998
 20
376714.5234999992
 10
76526.23790000006
 20
376715.2559999992
 10
76526.77109999954
 20
376715.9867000002
 10
76527.30750000011
 20
376716.7157000006
 10
76527.84690000023
 20
376717.443
 10
76528.38910000026
 20
376718.1686000004
 10
76528.91789999976
 20
376718.8708999996
 10
76528.93429999985
 20
376718.8925999999
 10
76529.48209999967
 20
376719.6151999999
 10
76530.03270000033
 20
376720.3362000007
 10
76530.5856999997
 20
376721.0558000002
 10
76531.14130000025
 20
376721.7741
 10
76531.69919999968
 20
376722.4911000003
 10
76532.25930000004
 20
376723.2068000008
 10
76532.82170000021
 20
376723.9212999996
 10
76533.3861999996
 20
376724.6348000001
 10
76533.95270000025
 20
376725.3472000007
 10
76534.52109999955
 20
376726.0585999992
 10
76535.09140000027
 20
376726.7690999992
 10
76535.66339999996
 20
376727.4787000008
 10
76536.23699999973
 20
376728.1875999998
 10
76536.81219999958
 20
376728.8957000002
 10
76537.38900000043
 20
376729.6030999999
 10
76537.9671
 20
376730.3100000005
 10
76538.21669999976
 20
376730.6142999995
 10
76538.02340000029
 20
376730.7729000002
 10
76538.35329999961
 20
376731.1751000006
 10
76538.93410000018
 20
376731.8812000006
 10
76539.51609999966
 20
376732.5869999994
 10
76540.09810000006
 20
376733.2912000008
 10
76540.68219999969
 20
376733.9965000004
 10
76541.26709999983
 20
376734.7016000003
 10
76541.85280000046
 20
376735.4066000004
 10
76542.4391999999
 20
376736.1115000007
 10
76543.02610000036
 20
376736.8165000007
 10
76543.61359999981
 20
376737.5215000008
 10
76544.20160000026
 20
376738.2267000005
 10
76544.78980000037
 20
376738.9321999997
 10
76545.51140000019
 20
376739.7973999996
 10
76546.23309999983
 20
376740.6630000007
 10
76546.95469999965
 20
376741.5287999995
 10
76547.67640000023
 20
376742.3948999998
 10
76548.39790000021
 20
376743.2614999992
 10
76549.11930000037
 20
376744.1285999995
 10
76549.84049999993
 20
376744.9960999992
 10
76550.56130000017
 20
376745.8641999998
 10
76551.2818
 20
376746.7328999992
 10
76552.00179999973
 20
376747.6023999993
 10
76552.72140000016
 20
376748.4725000001
 10
76553.4402999999
 20
376749.3433999997
 10
76554.15869999957
 20
376750.2151999995
 10
76554.87739999965
 20
376751.0890999996
 10
76555.59439999983
 20
376751.9627999999
 10
76556.31049999967
 20
376752.8375000004
 10
76557.02579999994
 20
376753.7131999992
 10
76557.74010000005
 20
376754.5899999999
 10
76558.45330000016
 20
376755.4680000003
 10
76559.16550000012
 20
376756.3472000007
 10
76559.87640000041
 20
376757.2277000006
 10
76560.58619999979
 20
376758.1094000004
 10
76561.29459999967
 20
376758.9924999998
 10
76562.00169999991
 20
376759.8771000002
 10
76562.70729999989
 20
376760.7631000001
 10
76563.41139999963
 20
376761.6505999994
 10
76564.11390000023
 20
376762.5396999996
 10
76564.81479999982
 20
376763.4304000009
 10
76565.51389999967
 20
376764.3226999994
 10
76566.21129999962
 20
376765.2168000005
 10
76566.90670000017
 20
376766.1126000006
 10
76567.60030000005
 20
376767.0102999993
 10
76568.29179999977
 20
376767.9098000005
 10
76568.9813000001
 20
376768.8112000004
 10
76569.66860000044
 20
376769.7145000008
 10
76570.35360000003
 20
376770.6198999994
 10
76571.03639999963
 20
376771.5273000002
 10
76571.71679999959
 20
376772.4367999993
 10
76572.39470000006
 20
376773.3484000005
 10
76573.07010000013
 20
376774.2621999998
 10
76573.74289999995
 20
376775.1782000009
 10
76574.41299999971
 20
376776.0965
 10
76575.08040000032
 20
376777.0171000008
 10
76575.74490000028
 20
376777.9400999994
 10
76576.40649999957
 20
376778.8653999995
 10
76577.06510000024
 20
376779.7931999993
 10
76577.72070000041
 20
376780.7234000005
 10
76578.37310000044
 20
376781.6560999994
 10
76579.02219999954
 20
376782.5913999994
 10
76579.66459999978
 20
376783.5242999997
1001
AcMap_E615D161-C9D7-11d3-839F-0060B0FB6B57
1071
        1
1071
        2
  0
LWPOLYLINE
  5
27D
330
1F
100
AcDbEntity
  8
P_SV_SB_FBRD_0
100
AcDbPolyline
 90
       77
 70
     0
 43
0.0
 10
76511.96129999962
 20
376706.0028000009
 10
76509.22119999957
 20
376701.2627000009
 10
76507.95166980127
 20
376699.3384361057
 10
76506.40227082955
 20
376697.6314325062
 10
76504.60959992097
 20
376696.1820086635
 10
76502.61600000039
 20
376695.0243999995
 10
76502.15094967342
 20
376694.8461238012
 10
76501.66281344692
 20
376694.7472439048
 10
76501.16504505883
 20
376694.7304855829
 10
76500.67136372338
 20
376694.7963107191
 10
76500.19537600968
 20
376694.9429050776
 10
76499.75020082519
 20
376695.1662283066
 10
76499.34810783959
 20
376695.4601252962
 10
76499.00017931514
 20
376695.8164958217
 10
76498.71600466341
 20
376696.2255177976
 10
76498.50341614738
 20
376696.675917989
 10
76498.36827301298
 20
376697.1552827173
 10
76498.31429999974
 20
376697.6503999997
 10
76498.35918585957
 20
376699.2527194292
 10
76498.57479999959
 20
376700.8410999999
 10
76492.50879999995
 20
376703.0297999997
 10
76491.89180000033
 20
376702.078400001
 10
76491.41507562397
 20
376701.4427142396
 10
76490.84366878629
 20
376700.8905759019
 10
76490.19201025848
 20
376700.4359291365
 10
76489.47655755283
 20
376700.0902559611
 10
76488.7153792915
 20
376699.8622862862
 10
76487.92769888691
 20
376699.7577774425
 10
76487.13340905802
 20
376699.7793687811
 10
76486.35256944356
 20
376699.9265150169
 10
76485.60489999969
 20
376700.1954999995
 10
76484.00380000007
 20
376697.0780999996
 10
76484.70700180943
 20
376696.6809055196
 10
76485.33708327464
 20
376696.1756792467
 10
76485.87760548557
 20
376695.5756026023
 10
76486.31446614503
 20
376694.8963316668
 10
76486.63626749971
 20
376694.1555887102
 10
76486.83461370894
 20
376693.3726998158
 10
76486.90432989348
 20
376692.5680906602
 10
76486.84359714872
 20
376691.7627536045
 10
76486.6540000001
 20
376690.9777000007
 10
76486.10859999992
 20
376689.2104000002
 10
76485.20500000008
 20
376686.0777000003
 10
76490.99459999986
 20
376686.3513999992
 10
76491.23007582905
 20
376686.7987929404
 10
76491.53733716975
 20
376687.2002898626
 10
76491.90765743946
 20
376687.5444877822
 10
76492.33051910814
 20
376687.8216110745
 10
76492.79391240841
 20
376688.0237891131
 10
76493.28467642699
 20
376688.1452798044
 10
76493.78887289011
 20
376688.1826326704
 10
76494.29218202679
 20
376688.1347868457
 10
76494.78030926721
 20
376688.003101208
 10
76495.23939122517
 20
376687.7913157838
 10
76495.65638943458
 20
376687.5054455276
 10
76496.01946065713
 20
376687.15360949
 10
76496.31829324428
 20
376686.7458002272
 10
76496.54440000001
 20
376686.2936000005
 10
76497.53339621029
 20
376683.0251749082
 10
76497.95196555159
 20
376679.636146169
 10
76497.78790593153
 20
376676.2253104167
 10
76497.04600000009
 20
376672.8921000008
 10
76496.90079999994
 20
376672.4274000004
 10
76494.118728172
 20
376662.2515537631
 10
76492.04330992019
 20
376651.9084203219
 10
76490.68437974789
 20
376641.4470112825
 10
76490.04837703347
 20
376630.9168987073
 10
76490.13831551686
 20
376620.3679802142
 10
76490.95376901873
 20
376609.8502425351
 10
76492.49087346003
 20
376599.4135246488
 10
76494.74234517213
 20
376589.1072816169
 10
76497.69751541091
 20
376578.9803502376
 10
76501.34238091141
 20
376569.080717629
 10
76505.65967024309
 20
376559.4552938394
 10
76510.62892565173
 20
376550.1496895611
 10
76516.2265999997
 20
376541.2080000006
 10
76517.93510000035
 20
376538.7296999991
1001
AcMap_E615D161-C9D7-11d3-839F-0060B0FB6B57
1071
        1
1071
        2
  0
LWPOLYLINE
  5
27E
330
1F
100
AcDbEntity
  8
P_SV_SB_FBRD_0
100
AcDbPolyline
 90
      140
 70
     0
 43
0.0
 10
76579.66810000035
 20
376783.5293000005
 10
76587.76784295367
 20
376795.9813264611
 10
76595.2480925727
 20
376808.8150579731
 10
76602.09090000019
 20
376821.9997000006
 10
76602.86735541175
 20
376823.3410153311
 10
76603.82461771836
 20
376824.5598913291
 10
76604.94368421568
 20
376825.6321319723
 10
76606.2023402092
 20
376826.5364521103
 10
76607.5756000001
 20
376827.2548999992
 10
76607.88689291755
 20
376827.3612343402
 10
76608.21140559061
 20
376827.4151026756
 10
76608.54035888443
 20
376827.4150476899
 10
76608.86485353077
 20
376827.3610708705
 10
76609.17611088247
 20
376827.2546324678
 10
76609.4657104047
 20
376827.0986119908
 10
76609.72581747814
 20
376826.8972303062
 10
76609.94939535121
 20
376826.6559354509
 10
76610.13039550726
 20
376826.381255244
 10
76610.26392129693
 20
376826.0806206884
 10
76610.34636040857
 20
376825.7621649373
 10
76610.37548259311
 20
376825.4345032659
 10
76610.35049999971
 20
376825.1064999998
 10
76609.78843174037
 20
376822.6182065745
 10
76608.91420000046
 20
376820.2216999997
 10
76614.07510000001
 20
376817.9563999995
 10
76615.03926246275
 20
376818.516922942
 10
76615.91610571267
 20
376819.2060826758
 10
76616.68858907046
 20
376820.010485986
 10
76617.34169999975
 20
376820.9145
 10
76624.10190000012
 20
376831.7967000008
 10
76625.01097459867
 20
376833.0361779447
 10
76626.09926942333
 20
376834.1216900697
 10
76627.34107072177
 20
376835.027588372
 10
76628.70703775814
 20
376835.7324686842
 10
76630.16489606297
 20
376836.2196764039
 10
76631.68020000029
 20
376836.4777000007
 10
76629.95220000017
 20
376839.8380999994
 10
76628.75624587224
 20
376839.6421046456
 10
76627.59278327404
 20
376839.3028772331
 10
76626.47890000045
 20
376838.8254000005
 10
76617.267
 20
376834.1969000008
 10
76616.46462061352
 20
376833.8772366489
 10
76615.61919976096
 20
376833.7004290689
 10
76614.75596454977
 20
376833.6717531461
 10
76613.90067366266
 20
376833.792064562
 10
76613.07884872601
 20
376834.0577732594
 10
76612.31501275219
 20
376834.4609505696
 10
76611.63195838009
 20
376834.9895658012
 10
76611.05006774961
 20
376835.6278452325
 10
76610.58670430456
 20
376836.3567427948
 10
76610.2556946727
 20
376837.1545084007
 10
76610.06691608328
 20
376837.9973369613
 10
76610.02600163342
 20
376838.8600787222
 10
76610.13417219817
 20
376839.7169897254
 10
76610.38819999992
 20
376840.5425000004
 10
76610.39269999974
 20
376840.5536000003
 10
76610.9617999997
 20
376841.9581000004
 10
76611.5242999997
 20
376843.3650000002
 10
76612.0800999999
 20
376844.7741000001
 10
76612.62939999997
 20
376846.1853999999
 10
76613.17250000033
 20
376847.5987999998
 10
76613.70930000022
 20
376849.0143
 10
76614.24010000005
 20
376850.4316000007
 10
76614.76489999984
 20
376851.8508000002
 10
76615.28390000015
 20
376853.2719000001
 10
76615.79729999974
 20
376854.6945999992
 10
76616.30520000029
 20
376856.1188999992
 10
76616.80769999977
 20
376857.5448000003
 10
76617.30489999987
 20
376858.9722000007
 10
76617.79710000009
 20
376860.4011000004
 10
76618.28419999965
 20
376861.8312999997
 10
76618.76659999974
 20
376863.2627000008
 10
76619.24430000037
 20
376864.6954999995
 10
76619.71740000043
 20
376866.1293000002
 10
76620.18609999958
 20
376867.5643000007
 10
76620.65050000046
 20
376869.0002999996
 10
76621.11089999974
 20
376870.4373000004
 10
76621.5672000004
 20
376871.8752999995
 10
76622.01970000007
 20
376873.3140999991
 10
76622.46850000042
 20
376874.7536999993
 10
76622.91380000021
 20
376876.1941
 10
76623.35560000036
 20
376877.6351999995
 10
76623.79420000035
 20
376879.0768999997
 10
76624.22970000003
 20
376880.5193000008
 10
76624.66220000013
 20
376881.9622000009
 10
76625.09179999958
 20
376883.4056000002
 10
76625.21009999979
 20
376883.8057000004
 10
76625.51879999973
 20
376884.8495000006
 10
76625.94319999963
 20
376886.2938000001
 10
76626.36519999988
 20
376887.7385000009
 10
76626.78500000015
 20
376889.1834999994
 10
76627.20260000043
 20
376890.6286999993
 10
76627.61830000021
 20
376892.0742000007
 10
76628.03210000042
 20
376893.5198999998
 10
76628.44429999962
 20
376894.9657000006
 10
76628.85489999968
 20
376896.4115999993
 10
76629.26410000026
 20
376897.8575999998
 10
76629.67210000008
 20
376899.3035000004
 10
76630.07899999991
 20
376900.7495000009
 10
76630.24560000002
 20
376901.3425999992
 10
76630.28610000014
 20
376901.4869999998
 10
76630.48510000017
 20
376902.1959000006
 10
76630.89020000025
 20
376903.6415999997
 10
76631.29470000043
 20
376905.0870999992
 10
76631.69859999977
 20
376906.5324000009
 10
76632.10209999978
 20
376907.9774999991
 10
76632.50540000014
 20
376909.4222999998
 10
76646.26649999991
 20
376958.7244000007
 10
76646.73969933539
 20
376959.993306871
 10
76647.42015187089
 20
376961.1642153232
 10
76648.28835808961
 20
376962.2035709979
 10
76649.31943807582
 20
376963.0815894023
 10
76650.48384449083
 20
376963.7731094362
 10
76651.74820930197
 20
376964.2583144249
 10
76653.07629999984
 20
376964.5232999996
 10
76654.54339999985
 20
376969.7410000004
 10
76653.54217142062
 20
376970.655268153
 10
76652.70971744716
 20
376971.7254855631
 10
76652.0699496771
 20
376972.9209110619
 10
76651.64124494562
 20
376974.2072069751
 10
76651.43591746516
 20
376975.5474254455
 10
76651.45986510901
 20
376976.9030697327
 10
76651.71239999961
 20
376978.2352000009
 10
76666.27819999959
 20
377030.4201999997
 10
76668.96019297038
 20
377041.0834172516
 10
76671.08899999969
 20
377051.8706999999
 10
76672.6256178522
 20
377062.4723550799
 10
76673.62789999973
 20
377073.1378000006
 10
76674.04813782826
 20
377081.8714071638
 10
76674.11000000034
 20
377090.6149000004
 10
76673.67108855422
 20
377101.7217842584
 10
76672.65402904111
 20
377112.7907097312
 10
76671.06158477637
 20
377123.7916025331
 10
76668.89808237573
 20
377134.6945736207
 10
76666.16940000001
 20
377145.4700000007
 10
76662.16830000002
 20
377159.7007999998
 10
76653.41619999986
 20
377190.8297000006
 10
76652.49820000026
 20
377194.0945999995
 10
76651.02123141957
 20
377199.8905783453
 10
76649.83069999982
 20
377205.7521000002
1001
AcMap_E615D161-C9D7-11d3-839F-0060B0FB6B57
1071
        1
1071
        2
  0
LWPOLYLINE
  5
27F
330
1F
100
AcDbEntity
  8
P_SV_SB_FBRD_0
100
AcDbPolyline
 90
      194
 70
     0
 43
0.0
 10
76642.61789999995
 20
377209.8074999992
 10
76644.12515709306
 20
377201.0082631681
 10
76646.24089999962
 20
377192.3352000006
 10
76646.60390000046
 20
377191.0439
 10
76652.44199999981
 20
377170.2795000002
 10
76658.37399999984
 20
377149.1809999999
 10
76659.9121000003
 20
377143.7106999997
 10
76662.94008321368
 20
377131.5343476171
 10
76665.22387447264
 20
377119.1967409946
 10
76666.75506255
 20
377106.7433196673
 10
76667.52800806392
 20
377094.2199497168
 10
76667.53986424795
 20
377081.6727548464
 10
76666.79058743566
 20
377069.1479465068
 10
76665.28293722142
 20
377056.6916536989
 10
76663.02246629682
 20
377044.3497530801
 10
76660.01750000007
 20
377032.1677000001
 10
76649.54229999985
 20
376994.6380000003
 10
76649.22167987668
 20
376993.7600852242
 10
76648.76861245907
 20
376992.9426125748
 10
76648.19409106059
 20
376992.205417363
 10
76647.51205597718
 20
376991.5663870332
 10
76646.73905623716
 20
376991.041027138
 10
76645.89384805254
 20
376990.6420851095
 10
76644.99693971462
 20
376990.3792409524
 10
76644.07009397708
 20
376990.2588723673
 10
76643.13580000028
 20
376990.2839000002
 10
76640.96270000003
 20
376982.4982999992
 10
76642.02943532657
 20
376979.8140858153
 10
76642.69840096902
 20
376977.0042077021
 10
76642.95564401803
 20
376974.1272725176
 10
76642.79579904272
 20
376971.2432857587
 10
76642.22219999973
 20
376968.4123999998
 10
76626.24469999969
 20
376911.1699000001
 10
76625.84140000027
 20
376909.7250999994
 10
76625.43809999991
 20
376908.2807
 10
76625.03450000007
 20
376906.8366999999
 10
76624.63069999963
 20
376905.3931000009
 10
76624.22630000021
 20
376903.9499999993
 10
76623.82129999995
 20
376902.5074000005
 10
76623.41550000012
 20
376901.0654000007
 10
76623.00870000012
 20
376899.6239000001
 10
76622.60099999979
 20
376898.1831000001
 10
76622.19240000005
 20
376896.7444000002
 10
76621.78210000042
 20
376895.3052999992
 10
76621.3702999996
 20
376893.8668000009
 10
76620.95689999964
 20
376892.4290999994
 10
76620.54169999994
 20
376890.9923000001
 10
76620.12459999974
 20
376889.5563999992
 10
76619.70540000033
 20
376888.1214000006
 10
76619.28399999998
 20
376886.6874000002
 10
76618.86029999982
 20
376885.2544
 10
76618.43410000019
 20
376883.8224999998
 10
76618.00519999955
 20
376882.3916999996
 10
76617.57359999977
 20
376880.9620999992
 10
76617.13910000026
 20
376879.5338000003
 10
76616.70150000043
 20
376878.1065999996
 10
76616.26080000027
 20
376876.6808000002
 10
76615.81670000032
 20
376875.2564000003
 10
76615.36919999961
 20
376873.8333999999
 10
76614.9179999996
 20
376872.4119000007
 10
76614.46320000012
 20
376870.9919000008
 10
76614.00439999997
 20
376869.5735
 10
76613.54169999994
 20
376868.1568
 10
76613.07479999959
 20
376866.7416999992
 10
76612.60360000003
 20
376865.328400001
 10
76612.12799999955
 20
376863.9169999995
 10
76611.64780000039
 20
376862.5074000005
 10
76611.16299999971
 20
376861.0998
 10
76610.6732999999
 20
376859.6941999998
 10
76610.17870000005
 20
376858.2906
 10
76609.67899999953
 20
376856.8892000001
 10
76609.17410000041
 20
376855.4901000001
 10
76608.66390000004
 20
376854.0932
 10
76608.14819999971
 20
376852.6985999998
 10
76607.62689999956
 20
376851.3065000009
 10
76607.0998999998
 20
376849.9168999996
 10
76606.56699999981
 20
376848.5298999995
 10
76606.02809999976
 20
376847.1456000004
 10
76605.56940000039
 20
376845.9824999999
 10
76605.48309999984
 20
376845.7639000006
 10
76604.93190000019
 20
376844.3850999997
 10
76604.37440000008
 20
376843.0092999992
 10
76603.81039999984
 20
376841.6363999993
 10
76603.2396999998
 20
376840.2664999999
 10
76603.2377000004
 20
376840.2617000007
 10
76603.23660000041
 20
376840.2590999995
 10
76599.92176924956
 20
376832.6571002243
 10
76596.39580000005
 20
376825.1506999992
 10
76589.66173367068
 20
376812.145753697
 10
76582.29425237981
 20
376799.4888782106
 10
76574.31130000017
 20
376787.2108999994
 10
76574.3077999996
 20
376787.2059000004
 10
76573.67559999973
 20
376786.2879000008
 10
76573.04000000004
 20
376785.3720999994
 10
76572.40079999994
 20
376784.4583000001
 10
76571.7583999997
 20
376783.5465999991
 10
76571.11259999965
 20
376782.6370000001
 10
76570.46360000037
 20
376781.7292999998
 10
76569.81149999984
 20
376780.8235999998
 10
76569.15629999992
 20
376779.9198000003
 10
76568.49820000026
 20
376779.0178999995
 10
76567.83710000012
 20
376778.1177999992
 10
76567.17310000025
 20
376777.2194999997
 10
76566.5064000003
 20
376776.3230000008
 10
76565.83700000029
 20
376775.4282000009
 10
76565.16500000003
 20
376774.5350000002
 10
76564.49039999954
 20
376773.6435000003
 10
76563.81329999957
 20
376772.7534999997
 10
76563.13379999995
 20
376771.8651000001
 10
76562.45189999975
 20
376770.9781999998
 10
76561.76779999956
 20
376770.0927000009
 10
76561.08139999956
 20
376769.2085999995
 10
76560.39290000032
 20
376768.3258999996
 10
76559.70239999983
 20
376767.4444999993
 10
76559.00980000011
 20
376766.5644000005
 10
76558.3152999999
 20
376765.6853999998
 10
76557.61890000012
 20
376764.8077000007
 10
76556.92080000043
 20
376763.9309999999
 10
76556.22090000007
 20
376763.0555000007
 10
76555.51929999981
 20
376762.1809000001
 10
76554.81620000023
 20
376761.3072999996
 10
76554.11149999965
 20
376760.4346999992
 10
76553.40529999975
 20
376759.5628999993
 10
76552.69780000019
 20
376758.6919
 10
76551.98890000023
 20
376757.8216999993
 10
76551.27869999968
 20
376756.9521999992
 10
76550.56740000006
 20
376756.0833999999
 10
76549.85489999968
 20
376755.2151999995
 10
76549.14240000024
 20
376754.3487999998
 10
76548.42779999971
 20
376753.4814999998
 10
76547.71219999995
 20
376752.6147000007
 10
76546.99579999968
 20
376751.7484000009
 10
76546.27850000001
 20
376750.8823000007
 10
76545.56049999967
 20
376750.0165999998
 10
76544.84190000035
 20
376749.1511000004
 10
76544.12260000035
 20
376748.2858000007
 10
76543.40280000027
 20
376747.4207000006
 10
76542.68250000011
 20
376746.5556000006
 10
76541.9617999997
 20
376745.6906000003
 10
76541.24069999997
 20
376744.8255000003
 10
76540.51939999964
 20
376743.9603000004
 10
76539.79779999983
 20
376743.0951000005
 10
76539.20949999988
 20
376742.3895999994
 10
76538.62110000011
 20
376741.6838000007
 10
76538.03259999957
 20
376740.9774999991
 10
76537.44409999997
 20
376740.2707000002
 10
76536.85560000035
 20
376739.5633000005
 10
76536.26740000024
 20
376738.8552999999
 10
76535.67939999978
 20
376738.1465000008
 10
76535.09179999959
 20
376737.4368999992
 10
76534.50349999964
 20
376736.7249999997
 10
76533.91669999995
 20
376736.0134999994
 10
76533.33050000015
 20
376735.3007999994
 10
76532.74509999994
 20
376734.5870999992
 10
76532.1604000004
 20
376733.8721999992
 10
76531.57670000009
 20
376733.1560999994
 10
76530.99390000011
 20
376732.4386999999
 10
76530.41220000013
 20
376731.7199000009
 10
76529.83160000015
 20
376730.9996000007
 10
76529.25229999982
 20
376730.2778999992
 10
76528.6743999999
 20
376729.5545000006
 10
76528.09779999964
 20
376728.8295000009
 10
76527.52280000038
 20
376728.1028000005
 10
76526.9495000001
 20
376727.3741999995
 10
76526.3777999999
 20
376726.6438999996
 10
76525.80800000019
 20
376725.9115999993
 10
76525.24010000005
 20
376725.1773000006
 10
76524.67410000041
 20
376724.4408999999
 10
76524.55539999995
 20
376724.2853999995
 10
76524.34920000005
 20
376724.4407000002
 10
76522.78940000012
 20
376722.3690000009
 10
76522.23199999984
 20
376721.6230999995
 10
76521.67709999997
 20
376720.8748000004
 10
76521.12469999957
 20
376720.1240999997
 10
76520.57500000019
 20
376719.3708999995
 10
76520.02819999959
 20
376718.6151000001
 10
76519.48419999983
 20
376717.8566999994
 10
76518.94330000039
 20
376717.0955999997
 10
76518.40539999958
 20
376716.3318000008
 10
76517.87079999968
 20
376715.5651999992
 10
76517.33949999977
 20
376714.7957000006
 10
76516.81159999967
 20
376714.0233999994
 10
76516.28729999996
 20
376713.2481999994
 10
76515.76669999957
 20
376712.4700000007
 10
76515.24980000034
 20
376711.6886999998
 10
76514.7368999999
 20
376710.9044000004
 10
76514.22790000029
 20
376710.1170000006
 10
76513.72300000023
 20
376709.3264000006
 10
76513.22240000032
 20
376708.5326000005
 10
76513.06680000015
 20
376708.2827000004
 10
76513.27979999967
 20
376708.1517999992
 10
76512.93869999983
 20
376707.6041000001
 10
76512.44770000037
 20
376706.8050999995
 10
76511.96640000026
 20
376706.0112999994
1001
AcMap_E615D161-C9D7-11d3-839F-0060B0FB6B57
1071
        1
1071
        2
  0
LWPOLYLINE
  5
280
330
1F
100
AcDbEntity
  8
P_SV_SB_FBRD_0
100
AcDbPolyline
 90
       23
 70
     0
 43
0.0
 10
76687.88200000022
 20
377505.4485
 10
76685.32917122682
 20
377494.3285095651
 10
76683.29310000036
 20
377483.1023999993
 10
76683.29169999994
 20
377483.0936999992
 10
76682.21478390874
 20
377475.4901648196
 10
76681.375
 20
377467.8567999993
 10
76681.2117999997
 20
377466.1264999993
 10
76679.1464999998
 20
377444.2237000001
 10
76676.63430000003
 20
377417.5823999998
 10
76674.46870000008
 20
377394.6155999992
 10
76674.12509999983
 20
377390.9723000005
 10
76672.13328239981
 20
377372.4712876189
 10
76669.65267015286
 20
377354.0294504171
 10
76666.68499999959
 20
377335.6597000006
 10
76664.27139999997
 20
377322.6064999998
 10
76662.61349999998
 20
377314.0902999994
 10
76651.12150000036
 20
377255.0603000001
 10
76650.19739999994
 20
377250.3134000004
 10
76648.78115141627
 20
377241.2175029745
 10
76648.05620000046
 20
377232.0405999999
 10
76648.01321038196
 20
377223.2448143127
 10
76648.60537396306
 20
377214.4688792482
 10
76649.82959999982
 20
377205.7586000003
1001
AcMap_E615D161-C9D7-11d3-839F-0060B0FB6B57
1071
        1
1071
        2
  0
LWPOLYLINE
  5
281
330
1F
100
AcDbEntity
  8
P_SV_SB_FBRD_0
100
AcDbPolyline
 90
       19
 70
     0
 43
0.0
 10
76681.94180000014
 20
377508.4474999998
 10
76678.88369610164
 20
377495.252575037
 10
76676.53542370683
 20
377481.9130225337
 10
76674.90369999967
 20
377468.4670000002
 10
76672.96710000001
 20
377447.9299999998
 10
76670.57359999977
 20
377422.5467000008
 10
76668.63790000044
 20
377402.0186000001
 10
76667.65380000043
 20
377391.5824999996
 10
76665.78877433359
 20
377374.1525322842
 10
76663.48585510777
 20
377356.7749991354
 10
76660.74650000036
 20
377339.4608999994
 10
76657.89120000042
 20
377323.8486000002
 10
76656.74770000018
 20
377317.9746000003
 10
76643.8172000004
 20
377251.5555000008
 10
76642.48445718555
 20
377243.27434205
 10
76641.69587417327
 20
377234.9237781621
 10
76641.45482400164
 20
377226.539526542
 10
76641.76233772431
 20
377218.1574494889
 10
76642.61710000038
 20
377209.8134000004
1001
AcMap_E615D161-C9D7-11d3-839F-0060B0FB6B57
1071
        1
1071
        2
  0
LWPOLYLINE
  5
282
330
1F
100
AcDbEntity
  8
P_SV_SB_FBRD_0
100
AcDbPolyline
 90
       20
 70
     0
 43
0.0
 10
76681.94180000014
 20
377508.4474999998
 10
76681.94712048517
 20
377508.4464455838
 10
76681.95255295781
 20
377508.4464096228
 10
76681.95791566755
 20
377508.4472781827
 10
76681.96305906548
 20
377508.4490270423
 10
76681.96783971865
 20
377508.4516074312
 10
76681.97212430983
 20
377508.4549473908
 10
76681.97579335545
 20
377508.4589537804
 10
76681.97874453746
 20
377508.4635148741
 10
76681.98089555684
 20
377508.4685034779
 10
76681.98218642849
 20
377508.4737804754
 10
76681.98269999958
 20
377508.4792
 10
76681.98224113128
 20
377508.4845409901
 10
76681.98091443151
 20
377508.4897348906
 10
76681.97875566919
 20
377508.4946416696
 10
76681.97582304642
 20
377508.4991290363
 10
76681.97219562919
 20
377508.5030760072
 10
76681.96797121575
 20
377508.5063761687
 10
76681.96326369988
 20
377508.5089405457
 10
76681.95820000023
 20
377508.5107000005
1001
AcMap_E615D161-C9D7-11d3-839F-0060B0FB6B57
1071
        1
1071
        2
  0
LWPOLYLINE
  5
283
330
1F
100
AcDbEntity
  8
P_SV_SB_FBRD_0
100
AcDbPolyline
 90
        3
 70
     0
 43
0.0
 10
76681.95820000023
 20
377508.5107000005
 10
76681.95000000019
 20
377508.4792
 10
76681.94180000014
 20
377508.4474999998
1001
AcMap_E615D161-C9D7-11d3-839F-0060B0FB6B57
1071
        1
1071
        2
  0
LWPOLYLINE
  5
284
330
1F
100
AcDbEntity
  8
P_SV_SB_FBRD_0
100
AcDbPolyline
 90
       20
 70
     0
 43
0.0
 10
76681.95820000023
 20
377508.5107000005
 10
76681.95288626203
 20
377508.51162029
 10
76681.94749352064
 20
377508.5116532542
 10
76681.94216892909
 20
377508.5107979933
 10
76681.93705778079
 20
377508.5090778452
 10
76681.93229954489
 20
377508.506539748
 10
76681.92802406054
 20
377508.5032529592
 10
76681.92434799392
 20
377508.4993071665
 10
76681.92137165473
 20
377508.4948100395
 10
76681.91917625907
 20
377508.4898842924
 10
76681.91782171326
 20
377508.4846643353
 10
76681.91734497908
 20
377508.4792926064
 10
76681.91775906533
 20
377508.4739156855
 10
76681.91905267272
 20
377508.4686802938
 10
76681.92119050226
 20
377508.4637292907
 10
76681.92411421849
 20
377508.4591977755
 10
76681.92774404126
 20
377508.4552094008
 10
76681.93198092269
 20
377508.4518729983
 10
76681.93670924999
 20
377508.4492796092
 10
76681.94180000014
 20
377508.4474999998
1001
AcMap_E615D161-C9D7-11d3-839F-0060B0FB6B57
1071
        1
1071
        2
  0
LWPOLYLINE
  5
285
330
1F
100
AcDbEntity
  8
P_SV_SB_FBRD_0
100
AcDbPolyline
 90
        4
 70
     0
 43
0.0
 10
76689.8013000004
 20
377533.3241000008
 10
76685.20469999966
 20
377519.8823000007
 10
76685.20100000035
 20
377519.8706000001
 10
76681.95820000023
 20
377508.5107000005
1001
AcMap_E615D161-C9D7-11d3-839F-0060B0FB6B57
1071
        1
1071
        2
  0
LWPOLYLINE
  5
286
330
1F
100
AcDbEntity
  8
P_SV_SB_FBRD_0
100
AcDbPolyline
 90
       72
 70
     0
 43
0.0
 10
76689.80590000003
 20
377533.3366
 10
76692.52978000417
 20
377540.3101310898
 10
76695.45859999955
 20
377547.2000999991
 10
76702.7078999998
 20
377563.5767999999
 10
76711.4606999997
 20
377583.3504000008
 10
76717.82679999992
 20
377597.7321000006
 10
76723.28963197047
 20
377610.6888789618
 10
76728.28990000021
 20
377623.8311000001
 10
76737.53839999996
 20
377649.4985000007
 10
76745.03270000033
 20
377670.2974999994
 10
76749.21729999967
 20
377681.9109000005
 10
76756.71490000002
 20
377702.7190000005
 10
76769.22159999981
 20
377737.4289999996
 10
76773.2523180931
 20
377749.5976800381
 10
76776.64563748801
 20
377761.9592675459
 10
76779.39240000024
 20
377774.4803999998
 10
76781.36080154254
 20
377786.2435130248
 10
76782.75850000046
 20
377798.0879999996
 10
76783.44147024182
 20
377807.2067279477
 10
76783.78610000014
 20
377816.3444999997
 10
76783.73238556343
 20
377828.0656876834
 10
76783.12210000027
 20
377839.7710999996
 10
76781.93432316851
 20
377851.6134804249
 10
76780.1768857501
 20
377863.3848100721
 10
76777.85387649991
 20
377875.0577024286
 10
76774.97070000042
 20
377886.6050000005
 10
76774.59109999984
 20
377887.9827999995
 10
76768.625
 20
377909.6407999992
 10
76765.62744704245
 20
377922.0268271603
 10
76763.41199784151
 20
377934.5763601158
 10
76761.98736173715
 20
377947.2400643344
 10
76761.35913923698
 20
377959.968156456
 10
76761.52979999967
 20
377972.7105999999
 10
76762.09750000015
 20
377985.3905999996
 10
76768.09590000007
 20
378122.2036000006
 10
76768.56906911818
 20
378130.4267921711
 10
76769.26539999992
 20
378138.6340999995
 10
76770.23000000045
 20
378148.4229000006
 10
76770.31698027127
 20
378153.2227078359
 10
76769.63724509698
 20
378157.974936883
 10
76768.20820000022
 20
378162.5579000003
 10
76767.83304919762
 20
378163.3527595605
 10
76767.36748457082
 20
378164.0982724198
 10
76766.81790000014
 20
378164.7841999997
 10
76767.63119999971
 20
378173.0372000001
 10
76768.04169999994
 20
378173.1596000009
 10
76769.20772377645
 20
378173.62825923
 10
76770.27912790465
 20
378174.2850286831
 10
76771.22583216519
 20
378175.1114692215
 10
76772.02125735132
 20
378176.084378104
 10
76772.64307149376
 20
378177.1764404157
 10
76773.07381684211
 20
378178.3569959483
 10
76773.30140000023
 20
378179.5929000006
 10
76783.25600000005
 20
378280.6164999995
 10
76783.28053720067
 20
378281.7691255978
 10
76783.12812909747
 20
378282.911893997
 10
76782.80237698402
 20
378284.017802404
 10
76782.3109781478
 20
378285.0607190007
 10
76781.6655439889
 20
378286.0160004203
 10
76780.88132565099
 20
378286.8610740517
 10
76779.97685364775
 20
378287.5759714146
 10
76778.97350000031
 20
378288.1437999998
 10
76779.51080000028
 20
378293.5968999993
 10
76781.07866482835
 20
378294.7222781559
 10
76782.45460757511
 20
378296.0755917457
 10
76783.60582858466
 20
378297.6245805455
 10
76784.50488510692
 20
378299.332319836
 10
76785.13034547648
 20
378301.1581006116
 10
76785.46729999967
 20
378303.0583999995
 10
76787.35010000039
 20
378322.1655000001
 10
76788.30553315667
 20
378335.6221475188
 10
76788.52410000004
 20
378349.1108999998
1001
AcMap_E615D161-C9D7-11d3-839F-0060B0FB6B57
1071
        1
1071
        2
  0
LWPOLYLINE
  5
287
330
1F
100
AcDbEntity
  8
P_SV_SB_FBRD_0
100
AcDbPolyline
 90
       59
 70
     0
 43
0.0
 10
76847.08430000022
 20
377986.8302999996
 10
76843.90583487489
 20
377987.7817172212
 10
76840.62937410928
 20
377988.3038667531
 10
76837.31262389116
 20
377988.3875523129
 10
76834.01400000043
 20
377988.0313000009
 10
76793.21119999978
 20
377980.8595000003
 10
76787.13572637888
 20
377979.3951037115
 10
76781.29038679778
 20
377977.184257405
 10
76775.76649999991
 20
377974.2614999991
 10
76774.74455350517
 20
377973.5103473991
 10
76773.86378943149
 20
377972.5977360288
 10
76773.14939506417
 20
377971.5497639135
 10
76772.62179999985
 20
377970.396400001
 10
76771.60178717357
 20
377966.8960360598
 10
76771.01392627929
 20
377963.2977873947
 10
76770.86689999979
 20
377959.6547999997
 10
76771.10900000017
 20
377947.8263000008
 10
76771.73762284827
 20
377935.630884074
 10
76773.12159965426
 20
377923.4979559646
 10
76775.25559895674
 20
377911.4742550664
 10
76778.1314000003
 20
377899.6061000004
 10
76779.39070000034
 20
377895.0347000007
 10
76781.23730000015
 20
377888.3312
 10
76784.19060000032
 20
377876.5055
 10
76786.44071986491
 20
377865.2954628713
 10
76788.1825695571
 20
377853.9952889133
 10
76789.41259865946
 20
377842.6280113045
 10
76790.12829999998
 20
377831.2168000005
 10
76790.33145412064
 20
377821.2158106187
 10
76790.13949999959
 20
377811.2146000006
 10
76789.26939999964
 20
377797.9053000007
 10
76789.25439380567
 20
377796.72285404
 10
76789.42543109099
 20
377795.5527472573
 10
76789.77825985438
 20
377794.4240686052
 10
76790.30410874322
 20
377793.3648771296
 10
76790.98990511009
 20
377792.4015044192
 10
76791.81859999988
 20
377791.5579000004
 10
76793.46999999974
 20
377790.1228999998
 10
76792.62889999989
 20
377783.8107999992
 10
76791.37284455263
 20
377783.4654148412
 10
76790.19549917469
 20
377782.9078988728
 10
76789.13238249292
 20
377782.155071459
 10
76788.21556703713
 20
377781.2296441988
 10
76787.47271166314
 20
377780.1595357523
 10
76786.92622712938
 20
377778.9770295797
 10
76786.59260000009
 20
377777.7178000008
 10
76784.47396425188
 20
377766.9213063639
 10
76781.88838687995
 20
377756.2270236886
 10
76778.84074803823
 20
377745.6551369235
 10
76775.3367999997
 20
377735.2256000005
 10
76740.13939999976
 20
377637.5424000006
 10
76734.40500000026
 20
377621.6276999992
 10
76733.08110000006
 20
377618.0077999998
 10
76728.6014157796
 20
377606.4830696491
 10
76723.77049999964
 20
377595.1010999996
 10
76701.40240000002
 20
377544.5691
 10
76696.16886455921
 20
377531.7915525303
 10
76691.65825644536
 20
377518.741264143
 10
76687.88470000029
 20
377505.4591000006
1001
AcMap_E615D161-C9D7-11d3-839F-0060B0FB6B57
1071
        1
1071
        2
  0
LWPOLYLINE
  5
288
330
1F
100
AcDbEntity
  8
P_SV_SB_FBRD_0
100
AcDbPolyline
 90
       44
 70
     0
 43
0.0
 10
76851.46549999993
 20
377997.1906000004
 10
76793.82949999999
 20
377987.0602000002
 10
76789.23247135614
 20
377986.6131768719
 10
76784.62130566394
 20
377986.8770953988
 10
76780.10529999993
 20
377987.8456999995
 10
76778.97865131392
 20
377988.2813447822
 10
76777.93655162954
 20
377988.8922063755
 10
76777.00603286774
 20
377989.6624391146
 10
76776.21123255587
 20
377990.5720632692
 10
76775.5727677036
 20
377991.5974833153
 10
76775.10720000044
 20
377992.7120999992
 10
76773.59769022727
 20
377998.4973824477
 10
76772.78953821659
 20
378004.4214860163
 10
76772.69429999962
 20
378010.3997000009
 10
76773.21300000046
 20
378022.2105000001
 10
76773.31060000043
 20
378027.3672000002
 10
76773.03720000014
 20
378072.4508999996
 10
76773.11696012139
 20
378084.8587314537
 10
76773.50659999996
 20
378097.2607000005
 10
76774.5895999996
 20
378121.9184000008
 10
76775.05266093723
 20
378129.9653223944
 10
76775.7341
 20
378137.9967
 10
76778.1353000002
 20
378162.3653999996
 10
76780.32809999957
 20
378184.6187999994
 10
76790.59179999959
 20
378288.7797999997
 10
76790.92877051234
 20
378290.6801058925
 10
76791.55424768222
 20
378292.5058906342
 10
76792.45332141501
 20
378294.2136312573
 10
76793.60455963512
 20
378295.7626187244
 10
76794.98051918214
 20
378297.1159283481
 10
76796.54839999973
 20
378298.2412999999
 10
76797.14780000038
 20
378304.3247999997
 10
76796.1444463527
 20
378304.8926285846
 10
76795.23997434924
 20
378305.6075259473
 10
76794.45575601112
 20
378306.4525995788
 10
76793.81032185207
 20
378307.4078809983
 10
76793.31892301573
 20
378308.4507975952
 10
76792.99317090221
 20
378309.5567060022
 10
76792.84076279904
 20
378310.6994744014
 10
76792.86529999972
 20
378311.8520999998
 10
76793.81879999954
 20
378321.5281000007
 10
76794.49270195298
 20
378329.7308667485
 10
76794.89969999995
 20
378337.9511999991
 10
76794.8805999998
 20
378348.4600000009
1001
AcMap_E615D161-C9D7-11d3-839F-0060B0FB6B57
1071
        1
1071
        2
  0
LWPOLYLINE
  5
289
330
1F
100
AcDbEntity
  8
P_SV_SB_FBRD_0
100
AcDbPolyline
 90
       13
 70
     0
 43
0.0
 10
76770.25970000029
 20
378097.4033000004
 10
76769.86754654042
 20
378084.920200189
 10
76769.78729999997
 20
378072.4311999995
 10
76770.06070000026
 20
378027.3475000001
 10
76769.96619999967
 20
378022.3530999999
 10
76767.76609999966
 20
377972.2635999993
 10
76767.589872618
 20
377965.9271447364
 10
76767.61760000046
 20
377959.5883000009
 10
76767.85960000009
 20
377947.7598000001
 10
76768.49876027401
 20
377935.361311018
 10
76769.90595165446
 20
377923.026366052
 10
76772.07575184351
 20
377910.8024950597
 10
76774.99980000034
 20
377898.7368000001
1001
AcMap_E615D161-C9D7-11d3-839F-0060B0FB6B57
1071
        1
1071
        2
  0
ENDSEC
  0
SECTION
  2
OBJECTS
  0
DICTIONARY
  5
C
330
0
100
AcDbDictionary
281
     1
  3
ACAD_CIP_PREVIOUS_PRODUCT_INFO
350
1A5
  3
ACAD_COLOR
350
73
  3
ACAD_DETAILVIEWSTYLE
350
1AB
  3
ACAD_GROUP
350
D
  3
ACAD_LAYOUT
350
1A
  3
ACAD_MATERIAL
350
72
  3
ACAD_MLEADERSTYLE
350
D7
  3
ACAD_MLINESTYLE
350
17
  3
ACAD_PLOTSETTINGS
350
19
  3
ACAD_PLOTSTYLENAME
350
E
  3
ACAD_SCALELIST
350
B6
  3
ACAD_SECTIONVIEWSTYLE
350
1A8
  3
ACAD_TABLESTYLE
350
86
  3
ACAD_VISUALSTYLE
350
99
  3
ACDB_RECOMPOSE_DATA
350
293
  3
AcDbVariableDictionary
350
66
  3
AcDsDecomposeData
350
29A
  3
AcMap_E615D15E-C9D7-11d3-839F-0060B0FB6B57
350
266
  3
ADE_QUERY_LIBRARY
350
21B
  3
ASE_INDEX_DICTIONARY
350
28E
  3
Autodesk_MAP
350
204
1001
ADE
1000
ADE02C004
1000
[Query]
1000
CaseSensitiveMatch=0
1000
SaveCurrQueryInSession=1
1000
MkSelSetWithQryObj=0
1000
ShowBlockAsInsPt=0
1000
CreateAssociativeHatchObjects=0
1000
ReferenceBoundaryForAreaLocation=1
1000
ShowImageAsBoundary=1
1000
DefaultJoinOperator=2
1000
ColorForAdd=red
1000
ColorForRemove=red
1000
BlockLocnForQuery=1
1000
TextLocnForQuery=1
1000
IncludeAllObjectsInGroups=0
1000
AlwaysUseLibraryDefinitions=0
1000
PreviewDefinitionsFrom=2
1000
[Save Back]
1000
RedefineBlockDefinitions=1
1000
RedefineLayerDefinitions=1
1000
RedefineTextStyleDefinitions=1
1000
RemoveUnusedGroups=1
1000
EraseSavedBackObjects=1
1000
RemoveLockAfterSave=1
1000
CreateHistoryFileOfChanges=0
1000
CreateBackupFileOfSourceDwg=1
1000
DontAddObjectsToSaveSet=0
1000
MarkObjectsForEditingWithoutPrompting=0
1000
FdoDontAddObjsToSvSet=0
1000
FdoEditWithoutPrompt=1
1000
FdoRemUnusedGrps=1
1000
FdoEraseSvdBkObjs=1
1000
FdoRemoveLockOnSave=1
1000
FdoTesselationMaxPointsDistance=0
1000
FdoTesselationMaxCurvesDistance=0
1000
[Coordinate Transformation]
1000
RestoreLastActiveDwgsOnStartup=1
1000
ActivateDwgsOnAttach=1
1000
AdjustSizesAndScalesForChangesInUnits=1
1000
AdjustRotationsForMapDistortions=1
1000
AdjustSizesAndScalesForMapDistortions=1
1000
AdjustElevations=1
1000
AdjustZeroRotationObjects=1
1000
ReconnectDbOnWSOpen=1
1000
NoOfSQLConditionsInHistory=10
  0
SUN
  5
217
330
94
100
AcDbSun
 90
        1
290
     1
 63
     7
421
 16777215
 40
1.0
291
     1
 91
  2458230
 92
 36000000
292
     0
 70
     0
 71
   256
280
     1
1001
ACAD
1000
AcDbSavedByObjectVersion
1070
     0
  0
DICTIONARY
  5
18E
330
2
100
AcDbDictionary
280
     1
281
     1
  3
ACAD_LAYERSTATES
360
18F
  0
DICTIONARY
  5
E6
330
10
100
AcDbDictionary
280
     1
281
     1
  0
DICTIONARY
  5
15D
330
1F
100
AcDbDictionary
280
     1
281
     1
  3
ACAD_SORTENTS
360
214
  0
XRECORD
  5
1A5
102
{ACAD_REACTORS
330
C
102
}
330
C
100
AcDbXrecord
280
     1
300
MAP
300
2019
300
87091MAP_2019_0F
  0
DICTIONARY
  5
73
102
{ACAD_REACTORS
330
C
102
}
330
C
100
AcDbDictionary
281
     1
  0
DICTIONARY
  5
1AB
102
{ACAD_REACTORS
330
C
102
}
330
C
100
AcDbDictionary
281
     1
  3
Imperial24
350
1AC
  3
Metric50
350
239
  0
DICTIONARY
  5
D
102
{ACAD_REACTORS
330
C
102
}
330
C
100
AcDbDictionary
281
     1
  0
DICTIONARY
  5
1A
102
{ACAD_REACTORS
330
C
102
}
330
C
100
AcDbDictionary
281
     1
  3
Layout1
350
59
  3
Layout2
350
5E
  3
Model
350
22
  0
DICTIONARY
  5
72
102
{ACAD_REACTORS
330
C
102
}
330
C
100
AcDbDictionary
281
     1
  3
ByBlock
350
97
  3
ByLayer
350
96
  3
Global
350
98
  0
DICTIONARY
  5
D7
102
{ACAD_REACTORS
330
C
102
}
330
C
100
AcDbDictionary
281
     1
  3
Beschriftung
350
E5
  3
Standard
350
D8
  0
DICTIONARY
  5
17
102
{ACAD_REACTORS
330
C
102
}
330
C
100
AcDbDictionary
281
     1
  3
Standard
350
18
  0
DICTIONARY
  5
19
102
{ACAD_REACTORS
330
C
102
}
330
C
100
AcDbDictionary
281
     1
  0
ACDBDICTIONARYWDFLT
  5
E
102
{ACAD_REACTORS
330
C
102
}
330
C
100
AcDbDictionary
281
     1
  3
Normal
350
F
100
AcDbDictionaryWithDefault
340
F
  0
DICTIONARY
  5
B6
102
{ACAD_REACTORS
330
C
102
}
330
C
100
AcDbDictionary
281
     1
  3
A0
350
B7
  3
A1
350
124
  3
A2
350
125
  3
A3
350
126
  3
A4
350
127
  3
A5
350
128
  3
A6
350
129
  3
A7
350
12A
  3
A8
350
12B
  3
A9
350
12C
  3
B0
350
12D
  3
B1
350
12E
  3
B2
350
12F
  3
B3
350
130
  3
B4
350
131
  3
B5
350
132
  3
B6
350
133
  3
B7
350
134
  3
B8
350
135
  3
B9
350
136
  3
C0
350
137
  3
C1
350
138
  3
C2
350
139
  3
C3
350
13A
  3
C4
350
13B
  3
C5
350
13C
  3
C6
350
13D
  3
C7
350
13E
  3
C8
350
13F
  3
C9
350
140
  3
D0
350
141
  3
D1
350
142
  3
D2
350
143
  0
DICTIONARY
  5
1A8
102
{ACAD_REACTORS
330
C
102
}
330
C
100
AcDbDictionary
281
     1
  3
Imperial24
350
1AA
  3
Metric50
350
238
  0
DICTIONARY
  5
86
102
{ACAD_REACTORS
330
C
102
}
330
C
100
AcDbDictionary
281
     1
  3
Legend
350
20D
  3
Standard
350
87
  0
DICTIONARY
  5
99
102
{ACAD_REACTORS
330
C
102
}
330
C
100
AcDbDictionary
281
     1
  3
2dWireframe
350
9F
  3
Basic
350
9E
  3
Brighten
350
A5
  3
ColorChange
350
A9
  3
Conceptual
350
A2
  3
Dim
350
A4
  3
EdgeColorOff
350
175
  3
Facepattern
350
A8
  3
Flat
350
9A
  3
FlatWithEdges
350
9B
  3
Gouraud
350
9C
  3
GouraudWithEdges
350
9D
  3
Hidden
350
A1
  3
JitterOff
350
173
  3
Linepattern
350
A7
  3
OverhangOff
350
174
  3
Realistic
350
A3
  3
Shaded
350
182
  3
Shaded with edges
350
181
  3
Shades of Gray
350
17E
  3
Sketchy
350
17F
  3
Thicken
350
A6
  3
Wireframe
350
A0
  3
X-Ray
350
180
  0
XRECORD
  5
293
102
{ACAD_REACTORS
330
C
102
}
330
C
100
AcDbXrecord
280
     1
 90
        1
330
87
330
20D
  0
DICTIONARY
  5
66
102
{ACAD_REACTORS
330
C
102
}
330
C
100
AcDbDictionary
281
     1
  3
CANNOSCALE
350
F0
  3
CMLEADERSTYLE
350
EF
  3
CTABLESTYLE
350
89
  3
CVIEWDETAILSTYLE
350
1B7
  3
CVIEWSECTIONSTYLE
350
1B8
  3
DIMASSOC
350
67
  3
HIDETEXT
350
6B
  3
LAYEREVAL
350
14D
  3
LAYERNOTIFY
350
14E
  0
DICTIONARY
  5
29A
102
{ACAD_REACTORS
330
C
102
}
330
C
100
AcDbDictionary
281
     1
  3
AcDsRecords
350
29C
  3
AcDsSchemas
350
29B
1001
ACAD
1070
     2
  0
XRECORD
  5
266
102
{ACAD_REACTORS
330
C
102
}
330
C
100
AcDbXrecord
280
     1
 90
        2
  0
DICTIONARY
  5
21B
102
{ACAD_REACTORS
330
C
102
}
330
C
100
AcDbDictionary
281
     1
  3
_CurrQry
350
28D
  0
DICTIONARY
  5
28E
102
{ACAD_REACTORS
330
C
102
}
330
C
100
AcDbDictionary
281
     1
  3
ASEBlockHierarchyIndexRecord
350
28F
1001
DCO15
1040
2055817050.0
  0
DICTIONARY
  5
204
102
{ACAD_REACTORS
330
C
102
}
330
C
100
AcDbDictionary
281
     1
  3
AcMapDMStylizedEntities
350
215
  3
AcMapResourceManager
350
209
  3
MAP_DISPLAY_CUSTOMOBJ_REG_TABLE
350
208
  3
MAP_DISPLAY_MANAGEMENT_DICTIONARY
350
205
  3
MAP_DISPLAY_STYLELIBRARY_DICTIONARY
350
206
  3
MAP_RESOURCE_VERSION_MANAGEMENT_DICTIONARY
350
216
1001
MapGWS
1000
C:\ProgramData\Autodesk\Autodesk AutoCAD Map 3D 2019\R23.0\MapCache\L1483_BL_Kampelmuehle_StraßenverlaufGWS.xml
  0
DICTIONARY
  5
18F
102
{ACAD_REACTORS
330
18E
102
}
330
18E
100
AcDbDictionary
281
     1
  0
SORTENTSTABLE
  5
214
102
{ACAD_REACTORS
330
15D
102
}
330
15D
100
AcDbSortentsTable
330
1F
  0
ACDBDETAILVIEWSTYLE
  5
1AC
102
{ACAD_XDICTIONARY
360
29F
102
}
102
{ACAD_REACTORS
330
1AB
102
}
330
1AB
100
AcDbModelDocViewStyle
 70
     0
  3
Imperial24
290
     0
100
AcDbDetailViewStyle
 70
     0
 71
     0
 90
        3
 71
     1
340
11
 62
   256
 40
0.24
340
0
 62
   256
 40
0.24
300

 40
0.36
280
     3
 71
     2
340
16
 90
       25
 62
   256
 71
     3
340
11
 62
   256
 40
0.24
 90
        1
 40
0.75
 90
        1
300
%<\AcVar ViewType \f "%tc1">% %<\AcVar ViewDetailId>%\PSCALE %<\AcVar ViewScale \f "%sn">%
 71
     4
340
16
 90
       25
 62
   256
340
16
 90
       25
 62
   256
280
     0
  0
ACDBDETAILVIEWSTYLE
  5
239
102
{ACAD_XDICTIONARY
360
2A3
102
}
102
{ACAD_REACTORS
330
1AB
102
}
330
1AB
100
AcDbModelDocViewStyle
 70
     0
  3
Metric50
290
     0
100
AcDbDetailViewStyle
 70
     0
 71
     0
 90
        3
 71
     1
340
11
 62
   256
 40
5.0
340
0
 62
   256
 40
5.0
300

 40
0.0
280
     1
 71
     2
340
16
 90
       25
 62
   256
 71
     3
340
11
 62
   256
 40
5.0
 90
        0
 40
15.0
 90
        1
300
%<\AcVar ViewDetailId>% (%<\AcVar ViewScale \f "%sn">%)
 71
     4
340
16
 90
       25
 62
   256
340
16
 90
       25
 62
   256
280
     0
  0
LAYOUT
  5
59
102
{ACAD_REACTORS
330
1A
102
}
330
1A
100
AcDbPlotSettings
  1

  2
None
  4

  6

 40
0.0
 41
0.0
 42
0.0
 43
0.0
 44
0.0
 45
0.0
 46
0.0
 47
0.0
 48
0.0
 49
0.0
140
0.0
141
0.0
142
1.0
143
1.0
 70
   688
 72
     0
 73
     0
 74
     5
  7

 75
    16
147
1.0
 76
     0
 77
     2
 78
   300
148
0.0
149
0.0
100
AcDbLayout
  1
Layout1
 70
     1
 71
     1
 10
0.0
 20
0.0
 11
12.0
 21
9.0
 12
0.0
 22
0.0
 32
0.0
 14
0.0
 24
0.0
 34
0.0
 15
0.0
 25
0.0
 35
0.0
146
0.0
 13
0.0
 23
0.0
 33
0.0
 16
1.0
 26
0.0
 36
0.0
 17
0.0
 27
1.0
 37
0.0
 76
     0
330
58
  0
LAYOUT
  5
5E
102
{ACAD_REACTORS
330
1A
102
}
330
1A
100
AcDbPlotSettings
  1

  2
None
  4

  6

 40
0.0
 41
0.0
 42
0.0
 43
0.0
 44
0.0
 45
0.0
 46
0.0
 47
0.0
 48
0.0
 49
0.0
140
0.0
141
0.0
142
1.0
143
1.0
 70
   688
 72
     0
 73
     0
 74
     5
  7

 75
    16
147
1.0
 76
     0
 77
     2
 78
   300
148
0.0
149
0.0
100
AcDbLayout
  1
Layout2
 70
     1
 71
     2
 10
0.0
 20
0.0
 11
12.0
 21
9.0
 12
0.0
 22
0.0
 32
0.0
 14
0.0
 24
0.0
 34
0.0
 15
0.0
 25
0.0
 35
0.0
146
0.0
 13
0.0
 23
0.0
 33
0.0
 16
1.0
 26
0.0
 36
0.0
 17
0.0
 27
1.0
 37
0.0
 76
     0
330
5D
  0
LAYOUT
  5
22
102
{ACAD_XDICTIONARY
360
194
102
}
102
{ACAD_REACTORS
330
1A
102
}
330
1A
100
AcDbPlotSettings
  1

  2
none_device
  4
ANSI_A_(8.50_x_11.00_Inches)
  6

 40
6.349999904632568
 41
19.04999923706055
 42
6.350006103515625
 43
19.04998779296875
 44
215.8999938964844
 45
279.3999938964844
 46
0.0
 47
0.0
 48
0.0
 49
0.0
140
0.0
141
0.0
142
1.0
143
2.584895464708373
 70
 11952
 72
     0
 73
     1
 74
     0
  7

 75
     0
147
0.3868628397755418
 76
     0
 77
     2
 78
   300
148
0.0
149
0.0
100
AcDbLayout
  1
Model
 70
     1
 71
     0
 10
0.0
 20
0.0
 11
12.0
 21
9.0
 12
0.0
 22
0.0
 32
0.0
 14
0.0
 24
0.0
 34
0.0
 15
0.0
 25
0.0
 35
0.0
146
0.0
 13
0.0
 23
0.0
 33
0.0
 16
1.0
 26
0.0
 36
0.0
 17
0.0
 27
1.0
 37
0.0
 76
     0
330
1F
331
94
  0
MATERIAL
  5
97
102
{ACAD_XDICTIONARY
360
188
102
}
102
{ACAD_REACTORS
330
72
102
}
330
72
100
AcDbMaterial
  1
ByBlock
 94
       63
  0
MATERIAL
  5
96
102
{ACAD_XDICTIONARY
360
186
102
}
102
{ACAD_REACTORS
330
72
102
}
330
72
100
AcDbMaterial
  1
ByLayer
 94
       63
  0
MATERIAL
  5
98
102
{ACAD_XDICTIONARY
360
110
102
}
102
{ACAD_REACTORS
330
72
102
}
330
72
100
AcDbMaterial
  1
Global
 43
0.0208000000566244
 43
0.0
 43
0.0
 43
0.0
 43
0.0
 43
0.0208000000566244
 43
0.0
 43
0.0
 43
0.0
 43
0.0
 43
1.0
 43
0.0
 43
0.0
 43
0.0
 43
0.0
 43
1.0
 49
0.0208000000566244
 49
0.0
 49
0.0
 49
0.0
 49
0.0
 49
0.0208000000566244
 49
0.0
 49
0.0
 49
0.0
 49
0.0
 49
1.0
 49
0.0
 49
0.0
 49
0.0
 49
0.0
 49
1.0
142
0.0208000000566244
142
0.0
142
0.0
142
0.0
142
0.0
142
0.0208000000566244
142
0.0
142
0.0
142
0.0
142
0.0
142
1.0
142
0.0
142
0.0
142
0.0
142
0.0
142
1.0
144
0.0208000000566244
144
0.0
144
0.0
144
0.0
144
0.0
144
0.0208000000566244
144
0.0
144
0.0
144
0.0
144
0.0
144
1.0
144
0.0
144
0.0
144
0.0
144
0.0
144
1.0
 94
       63
1001
ACAD
1070
    -1
1070
     3
1070
     0
1000

1071
        0
1070
     0
  0
MLEADERSTYLE
  5
E5
102
{ACAD_REACTORS
330
D7
102
}
330
D7
100
AcDbMLeaderStyle
179
     2
170
     2
171
     1
172
     0
 90
        2
 40
0.0
 41
0.0
173
     1
 91
-1056964608
340
14
 92
       -2
290
     1
 42
0.09
291
     1
 43
0.36
  3
Standard
 44
0.18
300

342
11
174
     1
178
     1
175
     1
176
     0
 93
-1056964608
 45
0.18
292
     0
297
     0
 46
0.18
 94
-1056964608
 47
1.0
 49
1.0
140
1.0
293
     1
141
0.0
294
     1
177
     0
142
1.0
295
     0
296
     1
143
0.125
271
     0
272
     9
273
     9
298
     0
  0
MLEADERSTYLE
  5
D8
102
{ACAD_REACTORS
330
D7
102
}
330
D7
100
AcDbMLeaderStyle
179
     2
170
     2
171
     1
172
     0
 90
        2
 40
0.0
 41
0.0
173
     1
 91
-1056964608
340
14
 92
       -2
290
     1
 42
0.09
291
     1
 43
0.36
  3
Standard
 44
0.18
300

342
11
174
     1
178
     1
175
     1
176
     0
 93
-1056964608
 45
0.18
292
     0
297
     0
 46
0.18
 94
-1056964608
 47
1.0
 49
1.0
140
1.0
293
     1
141
0.0
294
     1
177
     0
142
1.0
295
     0
296
     0
143
0.125
271
     0
272
     9
273
     9
298
     0
  0
MLINESTYLE
  5
18
102
{ACAD_REACTORS
330
17
102
}
330
17
100
AcDbMlineStyle
  2
STANDARD
 70
     0
  3

 62
   256
 51
90.0
 52
90.0
 71
     2
 49
0.5
 62
   256
  6
BYLAYER
 49
-0.5
 62
   256
  6
BYLAYER
  0
ACDBPLACEHOLDER
  5
F
102
{ACAD_REACTORS
330
E
102
}
330
E
  0
SCALE
  5
B7
102
{ACAD_REACTORS
330
B6
102
}
330
B6
100
AcDbScale
 70
     0
300
1:1
140
1.0
141
1.0
290
     1
  0
SCALE
  5
124
102
{ACAD_REACTORS
330
B6
102
}
330
B6
100
AcDbScale
 70
     0
300
1:2
140
1.0
141
2.0
290
     0
  0
SCALE
  5
125
102
{ACAD_REACTORS
330
B6
102
}
330
B6
100
AcDbScale
 70
     0
300
1:4
140
1.0
141
4.0
290
     0
  0
SCALE
  5
126
102
{ACAD_REACTORS
330
B6
102
}
330
B6
100
AcDbScale
 70
     0
300
1:5
140
1.0
141
5.0
290
     0
  0
SCALE
  5
127
102
{ACAD_REACTORS
330
B6
102
}
330
B6
100
AcDbScale
 70
     0
300
1:8
140
1.0
141
8.0
290
     0
  0
SCALE
  5
128
102
{ACAD_REACTORS
330
B6
102
}
330
B6
100
AcDbScale
 70
     0
300
1:10
140
1.0
141
10.0
290
     0
  0
SCALE
  5
129
102
{ACAD_REACTORS
330
B6
102
}
330
B6
100
AcDbScale
 70
     0
300
1:16
140
1.0
141
16.0
290
     0
  0
SCALE
  5
12A
102
{ACAD_REACTORS
330
B6
102
}
330
B6
100
AcDbScale
 70
     0
300
1:20
140
1.0
141
20.0
290
     0
  0
SCALE
  5
12B
102
{ACAD_REACTORS
330
B6
102
}
330
B6
100
AcDbScale
 70
     0
300
1:30
140
1.0
141
30.0
290
     0
  0
SCALE
  5
12C
102
{ACAD_REACTORS
330
B6
102
}
330
B6
100
AcDbScale
 70
     0
300
1:40
140
1.0
141
40.0
290
     0
  0
SCALE
  5
12D
102
{ACAD_REACTORS
330
B6
102
}
330
B6
100
AcDbScale
 70
     0
300
1:50
140
1.0
141
50.0
290
     0
  0
SCALE
  5
12E
102
{ACAD_REACTORS
330
B6
102
}
330
B6
100
AcDbScale
 70
     0
300
1:100
140
1.0
141
100.0
290
     0
  0
SCALE
  5
12F
102
{ACAD_REACTORS
330
B6
102
}
330
B6
100
AcDbScale
 70
     0
300
2:1
140
2.0
141
1.0
290
     0
  0
SCALE
  5
130
102
{ACAD_REACTORS
330
B6
102
}
330
B6
100
AcDbScale
 70
     0
300
4:1
140
4.0
141
1.0
290
     0
  0
SCALE
  5
131
102
{ACAD_REACTORS
330
B6
102
}
330
B6
100
AcDbScale
 70
     0
300
8:1
140
8.0
141
1.0
290
     0
  0
SCALE
  5
132
102
{ACAD_REACTORS
330
B6
102
}
330
B6
100
AcDbScale
 70
     0
300
10:1
140
10.0
141
1.0
290
     0
  0
SCALE
  5
133
102
{ACAD_REACTORS
330
B6
102
}
330
B6
100
AcDbScale
 70
     0
300
100:1
140
100.0
141
1.0
290
     0
  0
SCALE
  5
134
102
{ACAD_REACTORS
330
B6
102
}
330
B6
100
AcDbScale
 70
     0
300
1/128" = 1'-0"
140
0.0078125
141
12.0
290
     0
  0
SCALE
  5
135
102
{ACAD_REACTORS
330
B6
102
}
330
B6
100
AcDbScale
 70
     0
300
1/64" = 1'-0"
140
0.015625
141
12.0
290
     0
  0
SCALE
  5
136
102
{ACAD_REACTORS
330
B6
102
}
330
B6
100
AcDbScale
 70
     0
300
1/32" = 1'-0"
140
0.03125
141
12.0
290
     0
  0
SCALE
  5
137
102
{ACAD_REACTORS
330
B6
102
}
330
B6
100
AcDbScale
 70
     0
300
1/16" = 1'-0"
140
0.0625
141
12.0
290
     0
  0
SCALE
  5
138
102
{ACAD_REACTORS
330
B6
102
}
330
B6
100
AcDbScale
 70
     0
300
3/32" = 1'-0"
140
0.09375
141
12.0
290
     0
  0
SCALE
  5
139
102
{ACAD_REACTORS
330
B6
102
}
330
B6
100
AcDbScale
 70
     0
300
1/8" = 1'-0"
140
0.125
141
12.0
290
     0
  0
SCALE
  5
13A
102
{ACAD_REACTORS
330
B6
102
}
330
B6
100
AcDbScale
 70
     0
300
3/16" = 1'-0"
140
0.1875
141
12.0
290
     0
  0
SCALE
  5
13B
102
{ACAD_REACTORS
330
B6
102
}
330
B6
100
AcDbScale
 70
     0
300
1/4" = 1'-0"
140
0.25
141
12.0
290
     0
  0
SCALE
  5
13C
102
{ACAD_REACTORS
330
B6
102
}
330
B6
100
AcDbScale
 70
     0
300
3/8" = 1'-0"
140
0.375
141
12.0
290
     0
  0
SCALE
  5
13D
102
{ACAD_REACTORS
330
B6
102
}
330
B6
100
AcDbScale
 70
     0
300
1/2" = 1'-0"
140
0.5
141
12.0
290
     0
  0
SCALE
  5
13E
102
{ACAD_REACTORS
330
B6
102
}
330
B6
100
AcDbScale
 70
     0
300
3/4" = 1'-0"
140
0.75
141
12.0
290
     0
  0
SCALE
  5
13F
102
{ACAD_REACTORS
330
B6
102
}
330
B6
100
AcDbScale
 70
     0
300
1" = 1'-0"
140
1.0
141
12.0
290
     0
  0
SCALE
  5
140
102
{ACAD_REACTORS
330
B6
102
}
330
B6
100
AcDbScale
 70
     0
300
1-1/2" = 1'-0"
140
1.5
141
12.0
290
     0
  0
SCALE
  5
141
102
{ACAD_REACTORS
330
B6
102
}
330
B6
100
AcDbScale
 70
     0
300
3" = 1'-0"
140
3.0
141
12.0
290
     0
  0
SCALE
  5
142
102
{ACAD_REACTORS
330
B6
102
}
330
B6
100
AcDbScale
 70
     0
300
6" = 1'-0"
140
6.0
141
12.0
290
     0
  0
SCALE
  5
143
102
{ACAD_REACTORS
330
B6
102
}
330
B6
100
AcDbScale
 70
     0
300
1'-0" = 1'-0"
140
12.0
141
12.0
290
     0
  0
ACDBSECTIONVIEWSTYLE
  5
1AA
102
{ACAD_XDICTIONARY
360
29D
102
}
102
{ACAD_REACTORS
330
1A8
102
}
330
1A8
100
AcDbModelDocViewStyle
 70
     0
  3
Imperial24
290
     0
100
AcDbSectionViewStyle
 70
     0
 71
     0
 90
       78
 71
     1
340
11
 62
   256
 40
0.24
340
0
340
0
 62
   256
 40
0.24
300
I, O, Q, S, X, Z
 40
0.48
 90
        3
 40
0.18
 90
        1
 71
     2
340
16
 90
       25
 62
   256
340
16
 90
       50
 62
   256
 40
0.24
 40
0.0
 40
0.24
 71
     3
340
11
 62
   256
 40
0.24
 90
        1
 40
0.75
 90
        1
300
%<\AcVar ViewType \f "%tc1">% %<\AcVar ViewSectionStartId>%-%<\AcVar ViewSectionEndId>%\PSCALE %<\AcVar ViewScale \f "%sn">%
 71
     4
 62
   256
 62
   257
300
ANSI31
 40
1.0
 90
        0
290
     0
290
     0
 90
        6
 40
0.0
 40
1.570796326794896
 40
0.2617993877991494
 40
1.308996938995747
 40
-0.2617993877991494
 40
1.832595714594046
  0
ACDBSECTIONVIEWSTYLE
  5
238
102
{ACAD_XDICTIONARY
360
2A1
102
}
102
{ACAD_REACTORS
330
1A8
102
}
330
1A8
100
AcDbModelDocViewStyle
 70
     0
  3
Metric50
290
     0
100
AcDbSectionViewStyle
 70
     0
 71
     0
 90
      102
 71
     1
340
11
 62
   256
 40
5.0
340
0
340
0
 62
   256
 40
5.0
300
I, O, Q, S, X, Z
 40
10.0
 90
        0
 40
2.5
 90
        0
 71
     2
340
16
 90
       25
 62
   256
340
16
 90
       50
 62
   256
 40
5.0
 40
2.5
 40
5.0
 71
     3
340
11
 62
   256
 40
5.0
 90
        0
 40
15.0
 90
        1
300
%<\AcVar ViewSectionStartId>%-%<\AcVar ViewSectionEndId>% (%<\AcVar ViewScale \f "%sn">%)
 71
     4
 62
   256
 62
   257
300
ANSI31
 40
1.0
 90
        0
290
     0
290
     0
 90
        6
 40
0.0
 40
1.570796326794896
 40
0.2617993877991494
 40
1.308996938995747
 40
-0.2617993877991494
 40
1.832595714594046
  0
TABLESTYLE
  5
20D
102
{ACAD_XDICTIONARY
360
291
102
}
102
{ACAD_REACTORS
330
86
102
}
330
86
100
AcDbTableStyle
280
     0
  3

 70
     0
 71
     3
 40
0.06
 41
0.06
280
     0
281
     0
  7
Legend
140
0.18
170
     4
 62
     0
 63
     7
283
     0
 90
      512
 91
        0
  1

274
    -2
284
     0
 64
     0
275
    -2
285
     0
 65
     0
276
    -2
286
     0
 66
     0
277
    -2
287
     0
 67
     0
278
    -2
288
     0
 68
     0
279
    -2
289
     0
 69
     0
  7
Legend
140
0.25
170
     5
 62
     0
 63
     7
283
     0
 90
      512
 91
        0
  1

274
    -2
284
     0
 64
     0
275
    -2
285
     0
 65
     0
276
    -2
286
     0
 66
     0
277
    -2
287
     0
 67
     0
278
    -2
288
     0
 68
     0
279
    -2
289
     0
 69
     0
  7
Legend
140
0.18
170
     4
 62
     0
 63
     7
283
     0
 90
      512
 91
        0
  1

274
    -2
284
     0
 64
     0
275
    -2
285
     0
 65
     0
276
    -2
286
     0
 66
     0
277
    -2
287
     0
 67
     0
278
    -2
288
     0
 68
     0
279
    -2
289
     0
 69
     0
  0
TABLESTYLE
  5
87
102
{ACAD_XDICTIONARY
360
104
102
}
102
{ACAD_REACTORS
330
86
102
}
330
86
100
AcDbTableStyle
280
     0
  3
Standard
 70
     0
 71
     0
 40
0.06
 41
0.06
280
     0
281
     0
  7
Standard
140
0.18
170
     2
 62
     0
 63
     7
283
     0
 90
      512
 91
        0
  1

274
    -2
284
     1
 64
     0
275
    -2
285
     1
 65
     0
276
    -2
286
     1
 66
     0
277
    -2
287
     1
 67
     0
278
    -2
288
     1
 68
     0
279
    -2
289
     1
 69
     0
  7
Standard
140
0.25
170
     5
 62
     0
 63
     7
283
     0
 90
      512
 91
        0
  1

274
    -2
284
     1
 64
     0
275
    -2
285
     1
 65
     0
276
    -2
286
     1
 66
     0
277
    -2
287
     1
 67
     0
278
    -2
288
     1
 68
     0
279
    -2
289
     1
 69
     0
  7
Standard
140
0.18
170
     5
 62
     0
 63
     7
283
     0
 90
      512
 91
        0
  1

274
    -2
284
     1
 64
     0
275
    -2
285
     1
 65
     0
276
    -2
286
     1
 66
     0
277
    -2
287
     1
 67
     0
278
    -2
288
     1
 68
     0
279
    -2
289
     1
 69
     0
  0
VISUALSTYLE
  5
9F
102
{ACAD_REACTORS
330
99
102
}
330
99
100
AcDbVisualStyle
  2
2dWireframe
 70
     4
177
     3
291
     0
 70
    58
 90
        0
176
     1
 90
        2
176
     1
 90
        1
176
     1
 90
        0
176
     1
 40
0.6
176
     1
 40
30.0
176
     1
 62
     7
420
 16777215
176
     1
 90
        1
176
     1
 90
        4
176
     1
 62
     7
176
     1
 62
   257
176
     1
 90
        1
176
     1
 90
        1
176
     1
 40
1.0
176
     1
 90
        0
176
     1
 62
   257
176
     1
 40
1.0
176
     1
 90
        1
176
     1
 90
        6
176
     1
 90
        2
176
     1
 62
     7
176
     1
 90
        5
176
     1
 90
        0
176
     1
 90
        0
176
     1
290
     0
176
     1
 90
        1
176
     1
 40
0.0
176
     1
 90
        0
176
     1
290
     1
176
     1
290
     1
176
     1
290
     0
176
     1
290
     0
176
     1
290
     0
176
     1
290
     0
176
     1
290
     0
176
     1
290
     0
176
     1
290
     0
176
     1
 90
       50
176
     1
 40
0.0
176
     1
 40
1.0
176
     1
 90
        0
176
     1
 62
    18
420
        0
176
     1
 90
       50
176
     1
 90
        3
176
     1
 62
     5
420
      255
176
     1
290
     0
176
     1
 90
       50
176
     1
 90
       50
176
     1
 90
       50
176
     1
290
     0
176
     1
 90
       50
176
     1
 62
   256
176
     0
 40
1.0
176
     0
 90
        2
176
     1
  1
strokes_ogs.tif
176
     1
290
     0
176
     1
 40
1.0
176
     1
 40
1.0
176
     1
1001
ACAD
1000
AcDbSavedByObjectVersion
1070
     0
  0
VISUALSTYLE
  5
9E
102
{ACAD_REACTORS
330
99
102
}
330
99
100
AcDbVisualStyle
  2
Basic
 70
     7
177
     3
291
     1
 70
    58
 90
        1
176
     1
 90
        0
176
     1
 90
        1
176
     1
 90
        0
176
     1
 40
0.6
176
     1
 40
30.0
176
     1
 62
     7
420
 16777215
176
     1
 90
        0
176
     1
 90
        4
176
     1
 62
     7
176
     1
 62
   257
176
     1
 90
        1
176
     1
 90
        1
176
     1
 40
1.0
176
     1
 90
        8
176
     1
 62
     7
176
     1
 40
1.0
176
     1
 90
        1
176
     1
 90
        6
176
     1
 90
        2
176
     1
 62
     7
176
     1
 90
        5
176
     1
 90
        0
176
     1
 90
        0
176
     1
290
     0
176
     1
 90
        1
176
     1
 40
0.0
176
     1
 90
        0
176
     1
290
     0
176
     1
290
     1
176
     1
290
     1
176
     1
290
     0
176
     1
290
     0
176
     1
290
     0
176
     1
290
     0
176
     1
290
     0
176
     1
290
     0
176
     1
 90
       50
176
     1
 40
0.0
176
     1
 40
1.0
176
     1
 90
        0
176
     1
 62
    18
420
        0
176
     1
 90
       50
176
     1
 90
        3
176
     1
 62
     5
420
      255
176
     1
290
     0
176
     1
 90
       50
176
     1
 90
       50
176
     1
 90
       50
176
     1
290
     0
176
     1
 90
       50
176
     1
 62
   256
176
     0
 40
1.0
176
     0
 90
        2
176
     1
  1
strokes_ogs.tif
176
     1
290
     0
176
     1
 40
1.0
176
     1
 40
1.0
176
     1
1001
ACAD
1000
AcDbSavedByObjectVersion
1070
     0
  0
VISUALSTYLE
  5
A5
102
{ACAD_REACTORS
330
99
102
}
330
99
100
AcDbVisualStyle
  2
Brighten
 70
    12
177
     3
291
     1
 70
    58
 90
        2
176
     1
 90
        2
176
     1
 90
        1
176
     1
 90
        0
176
     1
 40
0.6
176
     1
 40
30.0
176
     1
 62
     7
420
 16777215
176
     1
 90
        1
176
     1
 90
        4
176
     1
 62
     7
176
     1
 62
   257
176
     1
 90
        1
176
     1
 90
        1
176
     1
 40
1.0
176
     1
 90
        8
176
     1
 62
     7
176
     1
 40
1.0
176
     1
 90
        1
176
     1
 90
        6
176
     1
 90
        2
176
     1
 62
     7
176
     1
 90
        5
176
     1
 90
        0
176
     1
 90
        0
176
     1
290
     0
176
     1
 90
        1
176
     1
 40
50.0
176
     1
 90
        0
176
     1
290
     0
176
     1
290
     1
176
     1
290
     1
176
     1
290
     0
176
     1
290
     0
176
     1
290
     0
176
     1
290
     0
176
     1
290
     0
176
     1
290
     0
176
     1
 90
       50
176
     1
 40
0.0
176
     1
 40
1.0
176
     1
 90
        0
176
     1
 62
    18
420
        0
176
     1
 90
       50
176
     1
 90
        3
176
     1
 62
     5
420
      255
176
     1
290
     0
176
     1
 90
       50
176
     1
 90
       50
176
     1
 90
       50
176
     1
290
     0
176
     1
 90
       50
176
     1
 62
   256
176
     0
 40
1.0
176
     0
 90
        2
176
     1
  1
strokes_ogs.tif
176
     1
290
     0
176
     1
 40
1.0
176
     1
 40
1.0
176
     1
1001
ACAD
1000
AcDbSavedByObjectVersion
1070
     0
  0
VISUALSTYLE
  5
A9
102
{ACAD_REACTORS
330
99
102
}
330
99
100
AcDbVisualStyle
  2
ColorChange
 70
    16
177
     3
291
     1
 70
    58
 90
        2
176
     1
 90
        2
176
     1
 90
        3
176
     1
 90
        0
176
     1
 40
0.6
176
     1
 40
30.0
176
     1
 62
     8
420
  8421504
176
     1
 90
        1
176
     1
 90
        4
176
     1
 62
     7
176
     1
 62
   257
176
     1
 90
        1
176
     1
 90
        1
176
     1
 40
1.0
176
     1
 90
        8
176
     1
 62
     8
420
  8421504
176
     1
 40
1.0
176
     1
 90
        1
176
     1
 90
        6
176
     1
 90
        2
176
     1
 62
     7
176
     1
 90
        5
176
     1
 90
        0
176
     1
 90
        0
176
     1
290
     0
176
     1
 90
        1
176
     1
 40
0.0
176
     1
 90
        0
176
     1
290
     0
176
     1
290
     1
176
     1
290
     1
176
     1
290
     0
176
     1
290
     0
176
     1
290
     0
176
     1
290
     0
176
     1
290
     0
176
     1
290
     0
176
     1
 90
       50
176
     1
 40
0.0
176
     1
 40
1.0
176
     1
 90
        0
176
     1
 62
    18
420
        0
176
     1
 90
       50
176
     1
 90
        3
176
     1
 62
     5
420
      255
176
     1
290
     0
176
     1
 90
       50
176
     1
 90
       50
176
     1
 90
       50
176
     1
290
     0
176
     1
 90
       50
176
     1
 62
   256
176
     0
 40
1.0
176
     0
 90
        2
176
     1
  1
strokes_ogs.tif
176
     1
290
     0
176
     1
 40
1.0
176
     1
 40
1.0
176
     1
1001
ACAD
1000
AcDbSavedByObjectVersion
1070
     0
  0
VISUALSTYLE
  5
A2
102
{ACAD_REACTORS
330
99
102
}
330
99
100
AcDbVisualStyle
  2
Conceptual
 70
     9
177
     3
291
     0
 70
    58
 90
        3
176
     1
 90
        2
176
     1
 90
        1
176
     1
 90
        0
176
     1
 40
0.6
176
     1
 40
30.0
176
     1
 62
     7
420
 16777215
176
     1
 90
        2
176
     1
 90
        2
176
     1
 62
     7
176
     1
 62
   257
176
     1
 90
        1
176
     1
 90
        1
176
     1
 40
40.0
176
     1
 90
        8
176
     1
 62
     7
176
     1
 40
1.0
176
     1
 90
        1
176
     1
 90
        6
176
     1
 90
        2
176
     1
 62
     7
176
     1
 90
        3
176
     1
 90
        0
176
     1
 90
        0
176
     1
290
     0
176
     1
 90
        1
176
     1
 40
0.0
176
     1
 90
        0
176
     1
290
     0
176
     1
290
     1
176
     1
290
     1
176
     1
290
     0
176
     1
290
     0
176
     1
290
     0
176
     1
290
     0
176
     1
290
     0
176
     1
290
     0
176
     1
 90
       50
176
     1
 40
0.0
176
     1
 40
1.0
176
     1
 90
        0
176
     1
 62
    18
420
        0
176
     1
 90
       50
176
     1
 90
        3
176
     1
 62
     5
420
      255
176
     1
290
     0
176
     1
 90
       50
176
     1
 90
       50
176
     1
 90
       50
176
     1
290
     0
176
     1
 90
       50
176
     1
 62
   256
176
     0
 40
1.0
176
     0
 90
        2
176
     1
  1
strokes_ogs.tif
176
     1
290
     0
176
     1
 40
1.0
176
     1
 40
1.0
176
     1
1001
ACAD
1000
AcDbSavedByObjectVersion
1070
     0
  0
VISUALSTYLE
  5
A4
102
{ACAD_REACTORS
330
99
102
}
330
99
100
AcDbVisualStyle
  2
Dim
 70
    11
177
     3
291
     1
 70
    58
 90
        2
176
     1
 90
        2
176
     1
 90
        1
176
     1
 90
        0
176
     1
 40
0.6
176
     1
 40
30.0
176
     1
 62
     7
420
 16777215
176
     1
 90
        1
176
     1
 90
        4
176
     1
 62
     7
176
     1
 62
   257
176
     1
 90
        1
176
     1
 90
        1
176
     1
 40
1.0
176
     1
 90
        8
176
     1
 62
     7
176
     1
 40
1.0
176
     1
 90
        1
176
     1
 90
        6
176
     1
 90
        2
176
     1
 62
     7
176
     1
 90
        5
176
     1
 90
        0
176
     1
 90
        0
176
     1
290
     0
176
     1
 90
        1
176
     1
 40
-50.0
176
     1
 90
        0
176
     1
290
     0
176
     1
290
     1
176
     1
290
     1
176
     1
290
     0
176
     1
290
     0
176
     1
290
     0
176
     1
290
     0
176
     1
290
     0
176
     1
290
     0
176
     1
 90
       50
176
     1
 40
0.0
176
     1
 40
1.0
176
     1
 90
        0
176
     1
 62
    18
420
        0
176
     1
 90
       50
176
     1
 90
        3
176
     1
 62
     5
420
      255
176
     1
290
     0
176
     1
 90
       50
176
     1
 90
       50
176
     1
 90
       50
176
     1
290
     0
176
     1
 90
       50
176
     1
 62
   256
176
     0
 40
1.0
176
     0
 90
        2
176
     1
  1
strokes_ogs.tif
176
     1
290
     0
176
     1
 40
1.0
176
     1
 40
1.0
176
     1
1001
ACAD
1000
AcDbSavedByObjectVersion
1070
     0
  0
VISUALSTYLE
  5
175
102
{ACAD_REACTORS
330
99
102
}
330
99
100
AcDbVisualStyle
  2
EdgeColorOff
 70
    22
177
     3
291
     1
 70
    58
 90
        2
176
     0
 90
        2
176
     0
 90
        0
176
     0
 90
        0
176
     0
 40
0.6
176
     0
 40
30.0
176
     0
 62
     7
420
 16777215
176
     0
 90
        1
176
     0
 90
        4
176
     0
 62
     7
176
     0
 62
   257
176
     0
 90
        1
176
     0
 90
        1
176
     0
 40
1.0
176
     0
 90
        8
176
     2
 62
     7
176
     0
 40
1.0
176
     0
 90
        1
176
     0
 90
        6
176
     0
 90
        2
176
     0
 62
     7
176
     0
 90
        5
176
     0
 90
        0
176
     0
 90
        0
176
     0
290
     0
176
     0
 90
        1
176
     0
 40
0.0
176
     0
 90
        0
176
     0
290
     0
176
     1
290
     1
176
     1
290
     1
176
     1
290
     0
176
     1
290
     0
176
     1
290
     0
176
     1
290
     0
176
     1
290
     0
176
     1
290
     0
176
     1
 90
       50
176
     1
 40
0.0
176
     1
 40
1.0
176
     1
 90
        0
176
     1
 62
    18
420
        0
176
     1
 90
       50
176
     1
 90
        3
176
     1
 62
     5
420
      255
176
     1
290
     0
176
     1
 90
       50
176
     1
 90
       50
176
     1
 90
       50
176
     1
290
     0
176
     1
 90
       50
176
     1
 62
   256
176
     0
 40
1.0
176
     0
 90
        2
176
     1
  1
strokes_ogs.tif
176
     1
290
     0
176
     1
 40
1.0
176
     1
 40
1.0
176
     1
1001
ACAD
1000
AcDbSavedByObjectVersion
1070
     0
  0
VISUALSTYLE
  5
A8
102
{ACAD_REACTORS
330
99
102
}
330
99
100
AcDbVisualStyle
  2
Facepattern
 70
    15
177
     3
291
     1
 70
    58
 90
        2
176
     1
 90
        2
176
     1
 90
        1
176
     1
 90
        0
176
     1
 40
0.6
176
     1
 40
30.0
176
     1
 62
     7
420
 16777215
176
     1
 90
        1
176
     1
 90
        4
176
     1
 62
     7
176
     1
 62
   257
176
     1
 90
        1
176
     1
 90
        1
176
     1
 40
1.0
176
     1
 90
        8
176
     1
 62
     7
176
     1
 40
1.0
176
     1
 90
        1
176
     1
 90
        6
176
     1
 90
        2
176
     1
 62
     7
176
     1
 90
        5
176
     1
 90
        0
176
     1
 90
        0
176
     1
290
     0
176
     1
 90
        1
176
     1
 40
0.0
176
     1
 90
        0
176
     1
290
     0
176
     1
290
     1
176
     1
290
     1
176
     1
290
     0
176
     1
290
     0
176
     1
290
     0
176
     1
290
     0
176
     1
290
     0
176
     1
290
     0
176
     1
 90
       50
176
     1
 40
0.0
176
     1
 40
1.0
176
     1
 90
        0
176
     1
 62
    18
420
        0
176
     1
 90
       50
176
     1
 90
        3
176
     1
 62
     5
420
      255
176
     1
290
     0
176
     1
 90
       50
176
     1
 90
       50
176
     1
 90
       50
176
     1
290
     0
176
     1
 90
       50
176
     1
 62
   256
176
     0
 40
1.0
176
     0
 90
        2
176
     1
  1
strokes_ogs.tif
176
     1
290
     0
176
     1
 40
1.0
176
     1
 40
1.0
176
     1
1001
ACAD
1000
AcDbSavedByObjectVersion
1070
     0
  0
VISUALSTYLE
  5
9A
102
{ACAD_REACTORS
330
99
102
}
330
99
100
AcDbVisualStyle
  2
Flat
 70
     0
177
     3
291
     1
 70
    58
 90
        2
176
     1
 90
        1
176
     1
 90
        1
176
     1
 90
        2
176
     1
 40
0.6
176
     1
 40
30.0
176
     1
 62
     7
420
 16777215
176
     1
 90
        0
176
     1
 90
        0
176
     1
 62
     7
176
     1
 62
   257
176
     1
 90
        1
176
     1
 90
        1
176
     1
 40
1.0
176
     1
 90
        8
176
     1
 62
     7
176
     1
 40
1.0
176
     1
 90
        1
176
     1
 90
        6
176
     1
 90
        2
176
     1
 62
     7
176
     1
 90
        5
176
     1
 90
        0
176
     1
 90
        0
176
     1
290
     0
176
     1
 90
       13
176
     1
 40
0.0
176
     1
 90
        0
176
     1
290
     0
176
     1
290
     1
176
     1
290
     1
176
     1
290
     0
176
     1
290
     0
176
     1
290
     0
176
     1
290
     0
176
     1
290
     0
176
     1
290
     0
176
     1
 90
       50
176
     1
 40
0.0
176
     1
 40
1.0
176
     1
 90
        0
176
     1
 62
    18
420
        0
176
     1
 90
       50
176
     1
 90
        3
176
     1
 62
     5
420
      255
176
     1
290
     0
176
     1
 90
       50
176
     1
 90
       50
176
     1
 90
       50
176
     1
290
     0
176
     1
 90
       50
176
     1
 62
   256
176
     0
 40
1.0
176
     0
 90
        2
176
     1
  1
strokes_ogs.tif
176
     1
290
     0
176
     1
 40
1.0
176
     1
 40
1.0
176
     1
1001
ACAD
1000
AcDbSavedByObjectVersion
1070
     0
  0
VISUALSTYLE
  5
9B
102
{ACAD_REACTORS
330
99
102
}
330
99
100
AcDbVisualStyle
  2
FlatWithEdges
 70
     1
177
     3
291
     1
 70
    58
 90
        2
176
     1
 90
        1
176
     1
 90
        1
176
     1
 90
        2
176
     1
 40
0.6
176
     1
 40
30.0
176
     1
 62
     7
420
 16777215
176
     1
 90
        1
176
     1
 90
        0
176
     1
 62
     7
176
     1
 62
   257
176
     1
 90
        1
176
     1
 90
        1
176
     1
 40
1.0
176
     1
 90
        0
176
     1
 62
   257
176
     1
 40
1.0
176
     1
 90
        1
176
     1
 90
        6
176
     1
 90
        2
176
     1
 62
     7
176
     1
 90
        5
176
     1
 90
        0
176
     1
 90
        0
176
     1
290
     0
176
     1
 90
       13
176
     1
 40
0.0
176
     1
 90
        0
176
     1
290
     0
176
     1
290
     1
176
     1
290
     1
176
     1
290
     0
176
     1
290
     0
176
     1
290
     0
176
     1
290
     0
176
     1
290
     0
176
     1
290
     0
176
     1
 90
       50
176
     1
 40
0.0
176
     1
 40
1.0
176
     1
 90
        0
176
     1
 62
    18
420
        0
176
     1
 90
       50
176
     1
 90
        3
176
     1
 62
     5
420
      255
176
     1
290
     0
176
     1
 90
       50
176
     1
 90
       50
176
     1
 90
       50
176
     1
290
     0
176
     1
 90
       50
176
     1
 62
   256
176
     0
 40
1.0
176
     0
 90
        2
176
     1
  1
strokes_ogs.tif
176
     1
290
     0
176
     1
 40
1.0
176
     1
 40
1.0
176
     1
1001
ACAD
1000
AcDbSavedByObjectVersion
1070
     0
  0
VISUALSTYLE
  5
9C
102
{ACAD_REACTORS
330
99
102
}
330
99
100
AcDbVisualStyle
  2
Gouraud
 70
     2
177
     3
291
     1
 70
    58
 90
        2
176
     1
 90
        2
176
     1
 90
        1
176
     1
 90
        2
176
     1
 40
0.6
176
     1
 40
30.0
176
     1
 62
     7
420
 16777215
176
     1
 90
        0
176
     1
 90
        0
176
     1
 62
     7
176
     1
 62
   257
176
     1
 90
        1
176
     1
 90
        1
176
     1
 40
1.0
176
     1
 90
        0
176
     1
 62
     7
176
     1
 40
1.0
176
     1
 90
        1
176
     1
 90
        6
176
     1
 90
        2
176
     1
 62
     7
176
     1
 90
        5
176
     1
 90
        0
176
     1
 90
        0
176
     1
290
     0
176
     1
 90
       13
176
     1
 40
0.0
176
     1
 90
        0
176
     1
290
     0
176
     1
290
     1
176
     1
290
     1
176
     1
290
     0
176
     1
290
     0
176
     1
290
     0
176
     1
290
     0
176
     1
290
     0
176
     1
290
     0
176
     1
 90
       50
176
     1
 40
0.0
176
     1
 40
1.0
176
     1
 90
        0
176
     1
 62
    18
420
        0
176
     1
 90
       50
176
     1
 90
        3
176
     1
 62
     5
420
      255
176
     1
290
     0
176
     1
 90
       50
176
     1
 90
       50
176
     1
 90
       50
176
     1
290
     0
176
     1
 90
       50
176
     1
 62
   256
176
     0
 40
1.0
176
     0
 90
        2
176
     1
  1
strokes_ogs.tif
176
     1
290
     0
176
     1
 40
1.0
176
     1
 40
1.0
176
     1
1001
ACAD
1000
AcDbSavedByObjectVersion
1070
     0
  0
VISUALSTYLE
  5
9D
102
{ACAD_REACTORS
330
99
102
}
330
99
100
AcDbVisualStyle
  2
GouraudWithEdges
 70
     3
177
     3
291
     1
 70
    58
 90
        2
176
     1
 90
        2
176
     1
 90
        1
176
     1
 90
        2
176
     1
 40
0.6
176
     1
 40
30.0
176
     1
 62
     7
420
 16777215
176
     1
 90
        1
176
     1
 90
        0
176
     1
 62
     7
176
     1
 62
   257
176
     1
 90
        1
176
     1
 90
        1
176
     1
 40
1.0
176
     1
 90
        0
176
     1
 62
   257
176
     1
 40
1.0
176
     1
 90
        1
176
     1
 90
        6
176
     1
 90
        2
176
     1
 62
     7
176
     1
 90
        5
176
     1
 90
        0
176
     1
 90
        0
176
     1
290
     0
176
     1
 90
       13
176
     1
 40
0.0
176
     1
 90
        0
176
     1
290
     0
176
     1
290
     1
176
     1
290
     1
176
     1
290
     0
176
     1
290
     0
176
     1
290
     0
176
     1
290
     0
176
     1
290
     0
176
     1
290
     0
176
     1
 90
       50
176
     1
 40
0.0
176
     1
 40
1.0
176
     1
 90
        0
176
     1
 62
    18
420
        0
176
     1
 90
       50
176
     1
 90
        3
176
     1
 62
     5
420
      255
176
     1
290
     0
176
     1
 90
       50
176
     1
 90
       50
176
     1
 90
       50
176
     1
290
     0
176
     1
 90
       50
176
     1
 62
   256
176
     0
 40
1.0
176
     0
 90
        2
176
     1
  1
strokes_ogs.tif
176
     1
290
     0
176
     1
 40
1.0
176
     1
 40
1.0
176
     1
1001
ACAD
1000
AcDbSavedByObjectVersion
1070
     0
  0
VISUALSTYLE
  5
A1
102
{ACAD_REACTORS
330
99
102
}
330
99
100
AcDbVisualStyle
  2
Hidden
 70
     6
177
     3
291
     0
 70
    58
 90
        1
176
     1
 90
        2
176
     1
 90
        2
176
     1
 90
        0
176
     1
 40
0.6
176
     1
 40
30.0
176
     1
 62
     7
420
 16777215
176
     1
 90
        2
176
     1
 90
        2
176
     1
 62
     7
176
     1
 62
   257
176
     1
 90
        2
176
     1
 90
        1
176
     1
 40
40.0
176
     1
 90
        0
176
     1
 62
   257
176
     1
 40
1.0
176
     1
 90
        1
176
     1
 90
        6
176
     1
 90
        2
176
     1
 62
     7
176
     1
 90
        3
176
     1
 90
        0
176
     1
 90
        0
176
     1
290
     0
176
     1
 90
        1
176
     1
 40
0.0
176
     1
 90
        0
176
     1
290
     0
176
     1
290
     1
176
     1
290
     1
176
     1
290
     0
176
     1
290
     0
176
     1
290
     0
176
     1
290
     0
176
     1
290
     0
176
     1
290
     0
176
     1
 90
       50
176
     1
 40
0.0
176
     1
 40
1.0
176
     1
 90
        0
176
     1
 62
    18
420
        0
176
     1
 90
       50
176
     1
 90
        3
176
     1
 62
     5
420
      255
176
     1
290
     0
176
     1
 90
       50
176
     1
 90
       50
176
     1
 90
       50
176
     1
290
     0
176
     1
 90
       50
176
     1
 62
   256
176
     0
 40
1.0
176
     0
 90
        2
176
     1
  1
strokes_ogs.tif
176
     1
290
     0
176
     1
 40
1.0
176
     1
 40
1.0
176
     1
1001
ACAD
1000
AcDbSavedByObjectVersion
1070
     0
  0
VISUALSTYLE
  5
173
102
{ACAD_REACTORS
330
99
102
}
330
99
100
AcDbVisualStyle
  2
JitterOff
 70
    20
177
     3
291
     1
 70
    58
 90
        2
176
     0
 90
        2
176
     0
 90
        0
176
     0
 90
        0
176
     0
 40
0.6
176
     0
 40
30.0
176
     0
 62
     7
420
 16777215
176
     0
 90
        1
176
     0
 90
        4
176
     0
 62
     7
176
     0
 62
   257
176
     0
 90
        1
176
     0
 90
        1
176
     0
 40
1.0
176
     0
 90
       10
176
     2
 62
     7
176
     0
 40
1.0
176
     0
 90
        1
176
     0
 90
        6
176
     0
 90
        2
176
     0
 62
     7
176
     0
 90
        5
176
     0
 90
        0
176
     0
 90
        0
176
     0
290
     0
176
     0
 90
        1
176
     0
 40
0.0
176
     0
 90
        0
176
     0
290
     0
176
     1
290
     1
176
     1
290
     1
176
     1
290
     0
176
     1
290
     0
176
     1
290
     0
176
     1
290
     0
176
     1
290
     0
176
     1
290
     0
176
     1
 90
       50
176
     1
 40
0.0
176
     1
 40
1.0
176
     1
 90
        0
176
     1
 62
    18
420
        0
176
     1
 90
       50
176
     1
 90
        3
176
     1
 62
     5
420
      255
176
     1
290
     0
176
     1
 90
       50
176
     1
 90
       50
176
     1
 90
       50
176
     1
290
     0
176
     1
 90
       50
176
     1
 62
   256
176
     0
 40
1.0
176
     0
 90
        2
176
     1
  1
strokes_ogs.tif
176
     1
290
     0
176
     1
 40
1.0
176
     1
 40
1.0
176
     1
1001
ACAD
1000
AcDbSavedByObjectVersion
1070
     0
  0
VISUALSTYLE
  5
A7
102
{ACAD_REACTORS
330
99
102
}
330
99
100
AcDbVisualStyle
  2
Linepattern
 70
    14
177
     3
291
     1
 70
    58
 90
        2
176
     1
 90
        2
176
     1
 90
        1
176
     1
 90
        0
176
     1
 40
0.6
176
     1
 40
30.0
176
     1
 62
     7
420
 16777215
176
     1
 90
        1
176
     1
 90
        4
176
     1
 62
     7
176
     1
 62
   257
176
     1
 90
        7
176
     1
 90
        7
176
     1
 40
1.0
176
     1
 90
        8
176
     1
 62
     7
176
     1
 40
1.0
176
     1
 90
        1
176
     1
 90
        6
176
     1
 90
        2
176
     1
 62
     7
176
     1
 90
        5
176
     1
 90
        0
176
     1
 90
        0
176
     1
290
     0
176
     1
 90
        1
176
     1
 40
0.0
176
     1
 90
        0
176
     1
290
     0
176
     1
290
     1
176
     1
290
     1
176
     1
290
     0
176
     1
290
     0
176
     1
290
     0
176
     1
290
     0
176
     1
290
     0
176
     1
290
     0
176
     1
 90
       50
176
     1
 40
0.0
176
     1
 40
1.0
176
     1
 90
        0
176
     1
 62
    18
420
        0
176
     1
 90
       50
176
     1
 90
        3
176
     1
 62
     5
420
      255
176
     1
290
     0
176
     1
 90
       50
176
     1
 90
       50
176
     1
 90
       50
176
     1
290
     0
176
     1
 90
       50
176
     1
 62
   256
176
     0
 40
1.0
176
     0
 90
        2
176
     1
  1
strokes_ogs.tif
176
     1
290
     0
176
     1
 40
1.0
176
     1
 40
1.0
176
     1
1001
ACAD
1000
AcDbSavedByObjectVersion
1070
     0
  0
VISUALSTYLE
  5
174
102
{ACAD_REACTORS
330
99
102
}
330
99
100
AcDbVisualStyle
  2
OverhangOff
 70
    21
177
     3
291
     1
 70
    58
 90
        2
176
     0
 90
        2
176
     0
 90
        0
176
     0
 90
        0
176
     0
 40
0.6
176
     0
 40
30.0
176
     0
 62
     7
420
 16777215
176
     0
 90
        1
176
     0
 90
        4
176
     0
 62
     7
176
     0
 62
   257
176
     0
 90
        1
176
     0
 90
        1
176
     0
 40
1.0
176
     0
 90
        9
176
     2
 62
     7
176
     0
 40
1.0
176
     0
 90
        1
176
     0
 90
        6
176
     0
 90
        2
176
     0
 62
     7
176
     0
 90
        5
176
     0
 90
        0
176
     0
 90
        0
176
     0
290
     0
176
     0
 90
        1
176
     0
 40
0.0
176
     0
 90
        0
176
     0
290
     0
176
     1
290
     1
176
     1
290
     1
176
     1
290
     0
176
     1
290
     0
176
     1
290
     0
176
     1
290
     0
176
     1
290
     0
176
     1
290
     0
176
     1
 90
       50
176
     1
 40
0.0
176
     1
 40
1.0
176
     1
 90
        0
176
     1
 62
    18
420
        0
176
     1
 90
       50
176
     1
 90
        3
176
     1
 62
     5
420
      255
176
     1
290
     0
176
     1
 90
       50
176
     1
 90
       50
176
     1
 90
       50
176
     1
290
     0
176
     1
 90
       50
176
     1
 62
   256
176
     0
 40
1.0
176
     0
 90
        2
176
     1
  1
strokes_ogs.tif
176
     1
290
     0
176
     1
 40
1.0
176
     1
 40
1.0
176
     1
1001
ACAD
1000
AcDbSavedByObjectVersion
1070
     0
  0
VISUALSTYLE
  5
A3
102
{ACAD_REACTORS
330
99
102
}
330
99
100
AcDbVisualStyle
  2
Realistic
 70
     8
177
     3
291
     0
 70
    58
 90
        2
176
     1
 90
        3
176
     1
 90
        0
176
     1
 90
        2
176
     1
 40
0.6
176
     1
 40
30.0
176
     1
 62
     7
420
 16777215
176
     1
 90
        0
176
     1
 90
        0
176
     1
 62
     7
176
     1
 62
   257
176
     1
 90
        1
176
     1
 90
        1
176
     1
 40
1.0
176
     1
 90
        8
176
     1
 62
   257
176
     1
 40
1.0
176
     1
 90
        1
176
     1
 90
        6
176
     1
 90
        2
176
     1
 62
     7
176
     1
 90
        3
176
     1
 90
        0
176
     1
 90
        0
176
     1
290
     0
176
     1
 90
       13
176
     1
 40
0.0
176
     1
 90
        0
176
     1
290
     0
176
     1
290
     1
176
     1
290
     1
176
     1
290
     0
176
     1
290
     0
176
     1
290
     0
176
     1
290
     0
176
     1
290
     0
176
     1
290
     0
176
     1
 90
       50
176
     1
 40
0.0
176
     1
 40
1.0
176
     1
 90
        0
176
     1
 62
    18
420
        0
176
     1
 90
       50
176
     1
 90
        3
176
     1
 62
     5
420
      255
176
     1
290
     0
176
     1
 90
       50
176
     1
 90
       50
176
     1
 90
       50
176
     1
290
     0
176
     1
 90
       50
176
     1
 62
   256
176
     0
 40
1.0
176
     0
 90
        2
176
     1
  1
strokes_ogs.tif
176
     1
290
     0
176
     1
 40
1.0
176
     1
 40
1.0
176
     1
1001
ACAD
1000
AcDbSavedByObjectVersion
1070
     0
  0
VISUALSTYLE
  5
182
102
{ACAD_REACTORS
330
99
102
}
330
99
100
AcDbVisualStyle
  2
Shaded
 70
    27
177
     3
291
     0
 70
    58
 90
        2
176
     1
 90
        2
176
     1
 90
        1
176
     1
 90
        2
176
     1
 40
0.6
176
     1
 40
30.0
176
     1
 62
     7
420
 16777215
176
     1
 90
        0
176
     1
 90
        4
176
     1
 62
     7
176
     1
 62
   257
176
     1
 90
        1
176
     1
 90
        1
176
     1
 40
1.0
176
     1
 90
        8
176
     1
 62
   257
176
     1
 40
1.0
176
     1
 90
        1
176
     1
 90
        6
176
     1
 90
        2
176
     1
 62
     8
420
  7895160
176
     1
 90
        3
176
     1
 90
        0
176
     1
 90
        0
176
     1
290
     0
176
     1
 90
        5
176
     1
 40
0.0
176
     1
 90
        0
176
     1
290
     0
176
     1
290
     1
176
     1
290
     1
176
     1
290
     0
176
     1
290
     0
176
     1
290
     0
176
     1
290
     0
176
     1
290
     0
176
     1
290
     0
176
     1
 90
       50
176
     1
 40
0.0
176
     1
 40
1.0
176
     1
 90
        0
176
     1
 62
    18
420
        0
176
     1
 90
       50
176
     1
 90
        3
176
     1
 62
     5
420
      255
176
     1
290
     0
176
     1
 90
       50
176
     1
 90
       50
176
     1
 90
       50
176
     1
290
     0
176
     1
 90
       50
176
     1
 62
   256
176
     0
 40
1.0
176
     0
 90
        2
176
     1
  1
strokes_ogs.tif
176
     1
290
     0
176
     1
 40
1.0
176
     1
 40
1.0
176
     1
1001
ACAD
1000
AcDbSavedByObjectVersion
1070
     0
  0
VISUALSTYLE
  5
181
102
{ACAD_REACTORS
330
99
102
}
330
99
100
AcDbVisualStyle
  2
Shaded with edges
 70
    26
177
     3
291
     0
 70
    58
 90
        2
176
     1
 90
        2
176
     1
 90
        1
176
     1
 90
        2
176
     1
 40
0.6
176
     1
 40
30.0
176
     1
 62
     7
420
 16777215
176
     1
 90
        1
176
     1
 90
        2
176
     1
 62
     7
176
     1
 62
   257
176
     1
 90
        2
176
     1
 90
        1
176
     1
 40
1.0
176
     1
 90
        8
176
     1
 62
   257
176
     1
 40
1.0
176
     1
 90
        1
176
     1
 90
        6
176
     1
 90
        2
176
     1
 62
     7
176
     1
 90
        3
176
     1
 90
        0
176
     1
 90
        0
176
     1
290
     0
176
     1
 90
        5
176
     1
 40
0.0
176
     1
 90
        0
176
     1
290
     0
176
     1
290
     1
176
     1
290
     1
176
     1
290
     0
176
     1
290
     0
176
     1
290
     0
176
     1
290
     0
176
     1
290
     0
176
     1
290
     0
176
     1
 90
       50
176
     1
 40
0.0
176
     1
 40
1.0
176
     1
 90
        0
176
     1
 62
    18
420
        0
176
     1
 90
       50
176
     1
 90
        3
176
     1
 62
     5
420
      255
176
     1
290
     0
176
     1
 90
       50
176
     1
 90
       50
176
     1
 90
       50
176
     1
290
     0
176
     1
 90
       50
176
     1
 62
   256
176
     0
 40
1.0
176
     0
 90
        2
176
     1
  1
strokes_ogs.tif
176
     1
290
     0
176
     1
 40
1.0
176
     1
 40
1.0
176
     1
1001
ACAD
1000
AcDbSavedByObjectVersion
1070
     0
  0
VISUALSTYLE
  5
17E
102
{ACAD_REACTORS
330
99
102
}
330
99
100
AcDbVisualStyle
  2
Shades of Gray
 70
    23
177
     3
291
     0
 70
    58
 90
        2
176
     1
 90
        2
176
     1
 90
        3
176
     1
 90
        0
176
     1
 40
0.6
176
     1
 40
30.0
176
     1
 62
     7
420
 16777215
176
     1
 90
        2
176
     1
 90
        2
176
     1
 62
     7
176
     1
 62
     7
176
     1
 90
        1
176
     1
 90
        1
176
     1
 40
40.0
176
     1
 90
        8
176
     1
 62
     7
176
     1
 40
1.0
176
     1
 90
        1
176
     1
 90
        6
176
     1
 90
        2
176
     1
 62
     7
176
     1
 90
        3
176
     1
 90
        0
176
     1
 90
        0
176
     1
290
     0
176
     1
 90
        1
176
     1
 40
0.0
176
     1
 90
        0
176
     1
290
     0
176
     1
290
     1
176
     1
290
     1
176
     1
290
     0
176
     1
290
     0
176
     1
290
     0
176
     1
290
     0
176
     1
290
     0
176
     1
290
     0
176
     1
 90
       50
176
     1
 40
0.0
176
     1
 40
1.0
176
     1
 90
        0
176
     1
 62
    18
420
        0
176
     1
 90
       50
176
     1
 90
        3
176
     1
 62
     5
420
      255
176
     1
290
     0
176
     1
 90
       50
176
     1
 90
       50
176
     1
 90
       50
176
     1
290
     0
176
     1
 90
       50
176
     1
 62
   256
176
     0
 40
1.0
176
     0
 90
        2
176
     1
  1
strokes_ogs.tif
176
     1
290
     0
176
     1
 40
1.0
176
     1
 40
1.0
176
     1
1001
ACAD
1000
AcDbSavedByObjectVersion
1070
     0
  0
VISUALSTYLE
  5
17F
102
{ACAD_REACTORS
330
99
102
}
330
99
100
AcDbVisualStyle
  2
Sketchy
 70
    24
177
     3
291
     0
 70
    58
 90
        1
176
     1
 90
        2
176
     1
 90
        2
176
     1
 90
        0
176
     1
 40
0.6
176
     1
 40
30.0
176
     1
 62
     7
420
 16777215
176
     1
 90
        2
176
     1
 90
        2
176
     1
 62
     7
176
     1
 62
     7
176
     1
 90
        1
176
     1
 90
        1
176
     1
 40
40.0
176
     1
 90
       11
176
     1
 62
     7
176
     1
 40
1.0
176
     1
 90
        1
176
     1
 90
        6
176
     1
 90
        2
176
     1
 62
     7
176
     1
 90
        6
176
     1
 90
        0
176
     1
 90
        0
176
     1
290
     0
176
     1
 90
        1
176
     1
 40
0.0
176
     1
 90
        0
176
     1
290
     0
176
     1
290
     1
176
     1
290
     1
176
     1
290
     0
176
     1
290
     0
176
     1
290
     0
176
     1
290
     0
176
     1
290
     0
176
     1
290
     0
176
     1
 90
       50
176
     1
 40
0.0
176
     1
 40
1.0
176
     1
 90
        0
176
     1
 62
    18
420
        0
176
     1
 90
       50
176
     1
 90
        3
176
     1
 62
     5
420
      255
176
     1
290
     0
176
     1
 90
       50
176
     1
 90
       50
176
     1
 90
       50
176
     1
290
     0
176
     1
 90
       50
176
     1
 62
   256
176
     0
 40
1.0
176
     0
 90
        2
176
     1
  1
strokes_ogs.tif
176
     1
290
     0
176
     1
 40
1.0
176
     1
 40
1.0
176
     1
1001
ACAD
1000
AcDbSavedByObjectVersion
1070
     0
  0
VISUALSTYLE
  5
A6
102
{ACAD_REACTORS
330
99
102
}
330
99
100
AcDbVisualStyle
  2
Thicken
 70
    13
177
     3
291
     1
 70
    58
 90
        2
176
     1
 90
        2
176
     1
 90
        1
176
     1
 90
        0
176
     1
 40
0.6
176
     1
 40
30.0
176
     1
 62
     7
420
 16777215
176
     1
 90
        1
176
     1
 90
        4
176
     1
 62
     7
176
     1
 62
   257
176
     1
 90
        1
176
     1
 90
        1
176
     1
 40
1.0
176
     1
 90
       12
176
     1
 62
     7
176
     1
 40
1.0
176
     1
 90
        1
176
     1
 90
        6
176
     1
 90
        2
176
     1
 62
     7
176
     1
 90
        5
176
     1
 90
        0
176
     1
 90
        0
176
     1
290
     0
176
     1
 90
        1
176
     1
 40
0.0
176
     1
 90
        0
176
     1
290
     0
176
     1
290
     1
176
     1
290
     1
176
     1
290
     0
176
     1
290
     0
176
     1
290
     0
176
     1
290
     0
176
     1
290
     0
176
     1
290
     0
176
     1
 90
       50
176
     1
 40
0.0
176
     1
 40
1.0
176
     1
 90
        0
176
     1
 62
    18
420
        0
176
     1
 90
       50
176
     1
 90
        3
176
     1
 62
     5
420
      255
176
     1
290
     0
176
     1
 90
       50
176
     1
 90
       50
176
     1
 90
       50
176
     1
290
     0
176
     1
 90
       50
176
     1
 62
   256
176
     0
 40
1.0
176
     0
 90
        2
176
     1
  1
strokes_ogs.tif
176
     1
290
     0
176
     1
 40
1.0
176
     1
 40
1.0
176
     1
1001
ACAD
1000
AcDbSavedByObjectVersion
1070
     0
  0
VISUALSTYLE
  5
A0
102
{ACAD_REACTORS
330
99
102
}
330
99
100
AcDbVisualStyle
  2
Wireframe
 70
     5
177
     3
291
     0
 70
    58
 90
        0
176
     1
 90
        2
176
     1
 90
        0
176
     1
 90
        0
176
     1
 40
0.6
176
     1
 40
30.0
176
     1
 62
     7
420
 16777215
176
     1
 90
        1
176
     1
 90
        4
176
     1
 62
     7
176
     1
 62
   257
176
     1
 90
        1
176
     1
 90
        1
176
     1
 40
1.0
176
     1
 90
        0
176
     1
 62
   257
176
     1
 40
1.0
176
     1
 90
        1
176
     1
 90
        6
176
     1
 90
        2
176
     1
 62
     7
176
     1
 90
        3
176
     1
 90
        0
176
     1
 90
        0
176
     1
290
     0
176
     1
 90
        1
176
     1
 40
0.0
176
     1
 90
        0
176
     1
290
     0
176
     1
290
     1
176
     1
290
     1
176
     1
290
     0
176
     1
290
     0
176
     1
290
     0
176
     1
290
     0
176
     1
290
     0
176
     1
290
     0
176
     1
 90
       50
176
     1
 40
0.0
176
     1
 40
1.0
176
     1
 90
        0
176
     1
 62
    18
420
        0
176
     1
 90
       50
176
     1
 90
        3
176
     1
 62
     5
420
      255
176
     1
290
     0
176
     1
 90
       50
176
     1
 90
       50
176
     1
 90
       50
176
     1
290
     0
176
     1
 90
       50
176
     1
 62
   256
176
     0
 40
1.0
176
     0
 90
        2
176
     1
  1
strokes_ogs.tif
176
     1
290
     0
176
     1
 40
1.0
176
     1
 40
1.0
176
     1
1001
ACAD
1000
AcDbSavedByObjectVersion
1070
     0
  0
VISUALSTYLE
  5
180
102
{ACAD_REACTORS
330
99
102
}
330
99
100
AcDbVisualStyle
  2
X-Ray
 70
    25
177
     3
291
     0
 70
    58
 90
        2
176
     1
 90
        2
176
     1
 90
        1
176
     1
 90
        1
176
     1
 40
0.5
176
     1
 40
30.0
176
     1
 62
     7
420
 16777215
176
     1
 90
        1
176
     1
 90
        0
176
     1
 62
     7
176
     1
 62
   257
176
     1
 90
        1
176
     1
 90
        1
176
     1
 40
1.0
176
     1
 90
        8
176
     1
 62
     7
176
     1
 40
1.0
176
     1
 90
        1
176
     1
 90
        6
176
     1
 90
        2
176
     1
 62
     7
176
     1
 90
        3
176
     1
 90
        0
176
     1
 90
        0
176
     1
290
     0
176
     1
 90
       13
176
     1
 40
0.0
176
     1
 90
        0
176
     1
290
     0
176
     1
290
     1
176
     1
290
     1
176
     1
290
     0
176
     1
290
     0
176
     1
290
     0
176
     1
290
     0
176
     1
290
     0
176
     1
290
     0
176
     1
 90
       50
176
     1
 40
0.0
176
     1
 40
1.0
176
     1
 90
        0
176
     1
 62
    18
420
        0
176
     1
 90
       50
176
     1
 90
        3
176
     1
 62
     5
420
      255
176
     1
290
     0
176
     1
 90
       50
176
     1
 90
       50
176
     1
 90
       50
176
     1
290
     0
176
     1
 90
       50
176
     1
 62
   256
176
     0
 40
1.0
176
     0
 90
        2
176
     1
  1
strokes_ogs.tif
176
     1
290
     0
176
     1
 40
1.0
176
     1
 40
1.0
176
     1
1001
ACAD
1000
AcDbSavedByObjectVersion
1070
     0
  0
DICTIONARYVAR
  5
F0
102
{ACAD_REACTORS
330
66
102
}
330
66
100
DictionaryVariables
280
     0
  1
1:1
  0
DICTIONARYVAR
  5
EF
102
{ACAD_REACTORS
330
66
102
}
330
66
100
DictionaryVariables
280
     0
  1
STANDARD
  0
DICTIONARYVAR
  5
89
102
{ACAD_REACTORS
330
66
102
}
330
66
100
DictionaryVariables
280
     0
  1
STANDARD
  0
DICTIONARYVAR
  5
1B7
102
{ACAD_REACTORS
330
66
102
}
330
66
100
DictionaryVariables
280
     0
  1
Imperial24
  0
DICTIONARYVAR
  5
1B8
102
{ACAD_REACTORS
330
66
102
}
330
66
100
DictionaryVariables
280
     0
  1
Imperial24
  0
DICTIONARYVAR
  5
67
102
{ACAD_REACTORS
330
66
102
}
330
66
100
DictionaryVariables
280
     0
  1
2
  0
DICTIONARYVAR
  5
6B
102
{ACAD_REACTORS
330
66
102
}
330
66
100
DictionaryVariables
280
     0
  1
1
  0
DICTIONARYVAR
  5
14D
102
{ACAD_REACTORS
330
66
102
}
330
66
100
DictionaryVariables
280
     0
  1
0
  0
DICTIONARYVAR
  5
14E
102
{ACAD_REACTORS
330
66
102
}
330
66
100
DictionaryVariables
280
     0
  1
0
  0
DICTIONARY
  5
29C
102
{ACAD_REACTORS
330
29A
102
}
330
29A
100
AcDbDictionary
281
     1
  0
DICTIONARY
  5
29B
102
{ACAD_REACTORS
330
29A
102
}
330
29A
100
AcDbDictionary
281
     1
  3
2635297615312
350
295
  3
2635297615328
350
296
  3
2635297615344
350
297
  3
2635297615360
350
298
  3
2635297615376
350
299
  0
XRECORD
  5
28D
102
{ACAD_REACTORS
330
21B
102
}
330
21B
100
AcDbXrecord
280
     1
1000
ADE02C001
1070
     1
1070
     0
1002
{
1002
}
1002
{
1002
}
1002
{
1002
}
1000

  0
XRECORD
  5
28F
102
{ACAD_REACTORS
330
28E
102
}
330
28E
100
AcDbXrecord
280
     1
  0
DMSTYLIZEDENTITIESTABLE
  5
215
102
{ACAD_REACTORS
330
204
102
}
330
204
100
AcMapDMStylizedEntitiesTable
 70
     1
  0
MAPRESOURCEMANAGEROBJECT
  5
209
102
{ACAD_REACTORS
330
204
102
}
330
204
100
AcMapResourceManager
 70
     1
 90
        0
  0
DATATABLE
  5
208
102
{ACAD_REACTORS
330
204
102
}
330
204
100
AcDbDataTable
 70
     2
 90
        4
 91
       15
  1

 92
        3
  2
OriginalClassName
  3
AcMapDMDefaultStyle
  3
AcMapDMEntityStyle
  3
AcMapDMRasterStyle
  3
AcMapDMSEAnnotationStyle
  3
AcMapDMSEHatchStyle
  3
AcMapDMSETextStyle
  3
AcMapDMThematicStyle
  3
AcMapDMBaseElement
  3
AcMapDMAttachedDwgsQueryElement
  3
AcMapDMFeatureElement
  3
AcMapDMLayerElement
  3
AcMapDMCurrentDwgQueryElement
  3
AcMapDMRasterElement
  3
AcMapDMTopoElement
  3
AcMapDMTopoQueryElement
 92
        3
  2
ProxyDisplayName
  3
Default
  3
Entity
  3
Raster
  3
Annotation
  3
Hatch
  3
Text
  3
Thematic
  3
Map Base
  3
Ade Query
  3
Feature Class
  3
Layer
  3
Ade Project Query
  3
Raster
  3
Topology
  3
Topology Query
 92
        1
  2
CustomObjectType
 93
        2
 93
        2
 93
        2
 93
        2
 93
        2
 93
        2
 93
        2
 93
        1
 93
        1
 93
        1
 93
        1
 93
        1
 93
        1
 93
        1
 93
        1
 92
        1
  2
StyleCoExistanceType
 93
        1
 93
        1
 93
        1
 93
        1
 93
        1
 93
        1
 93
        2
 93
        0
 93
        0
 93
        0
 93
        0
 93
        0
 93
        0
 93
        0
 93
        0
  0
DMMAPMANAGER
  5
205
102
{ACAD_REACTORS
330
204
102
}
330
204
100
AcDbDictionary
281
     1
  3
DisplayMap1
350
20B
100
AcDbDictionaryWithDefault
340
20B
100
AcMapDMMapManager
 70
     1
340
20B
  0
DMSTYLELIBRARY
  5
206
102
{ACAD_REACTORS
330
204
102
}
330
204
100
AcMapDMStyleLibrary
 70
     1
 70
     1
360
207
  0
DICTIONARY
  5
216
102
{ACAD_REACTORS
330
204
102
}
330
204
100
AcDbDictionary
281
     1
  0
DICTIONARY
  5
29F
330
1AC
100
AcDbDictionary
280
     1
281
     1
  3
ACAD_XREC_ROUNDTRIP
360
2A0
  0
DICTIONARY
  5
2A3
330
239
100
AcDbDictionary
280
     1
281
     1
  3
ACAD_XREC_ROUNDTRIP
360
2A4
  0
DICTIONARY
  5
194
330
22
100
AcDbDictionary
280
     1
281
     1
  0
DICTIONARY
  5
188
330
97
100
AcDbDictionary
280
     1
281
     1
  3
FBXASSET
360
189
  0
DICTIONARY
  5
186
330
96
100
AcDbDictionary
280
     1
281
     1
  3
FBXASSET
360
187
  0
DICTIONARY
  5
110
330
98
100
AcDbDictionary
280
     1
281
     1
  3
BUMPTILE
360
112
  3
DIFFUSETILE
360
111
  3
FBXASSET
360
18A
  3
OPACITYTILE
360
113
  3
REFLECTIONTILE
360
114
  0
DICTIONARY
  5
29D
330
1AA
100
AcDbDictionary
280
     1
281
     1
  3
ACAD_XREC_ROUNDTRIP
360
29E
  0
DICTIONARY
  5
2A1
330
238
100
AcDbDictionary
280
     1
281
     1
  3
ACAD_XREC_ROUNDTRIP
360
2A2
  0
DICTIONARY
  5
291
330
20D
100
AcDbDictionary
280
     1
281
     1
  3
ACAD_ROUNDTRIP_2008_TABLESTYLE_CELLSTYLEMAP
360
292
  0
DICTIONARY
  5
104
330
87
100
AcDbDictionary
280
     1
281
     1
  3
ACAD_ROUNDTRIP_2008_TABLESTYLE_CELLSTYLEMAP
360
290
  0
XRECORD
  5
295
102
{ACAD_REACTORS
330
29B
102
}
330
29B
100
AcDbXrecord
280
     1
  1
AcDb_Thumbnail_Schema
102
{ATTRRECORD
341
296
  2
AcDbDs::TreatedAsObjectData
280
     1
291
     1
102
ATTRRECORD}
102
{ATTRRECORD
341
297
  2
AcDbDs::Legacy
280
     1
291
     1
102
ATTRRECORD}
  2
AcDbDs::ID
280
    10
 91
        8
102
{ATTRRECORD
341
298
  2
AcDs:Indexable
280
     1
291
     1
102
ATTRRECORD}
102
{ATTRRECORD
341
299
  2
AcDbDs::HandleAttribute
280
     7
282
     1
102
ATTRRECORD}
  2
Thumbnail_Data
280
    15
 91
        0
  0
XRECORD
  5
296
102
{ACAD_REACTORS
330
29B
102
}
330
29B
100
AcDbXrecord
280
     1
  1
AcDbDs::TreatedAsObjectDataSchema
  2
AcDbDs::TreatedAsObjectData
280
     1
 91
        0
  0
XRECORD
  5
297
102
{ACAD_REACTORS
330
29B
102
}
330
29B
100
AcDbXrecord
280
     1
  1
AcDbDs::LegacySchema
  2
AcDbDs::Legacy
280
     1
 91
        0
  0
XRECORD
  5
298
102
{ACAD_REACTORS
330
29B
102
}
330
29B
100
AcDbXrecord
280
     1
  1
AcDbDs::IndexedPropertySchema
  2
AcDs:Indexable
280
     1
 91
        0
  0
XRECORD
  5
299
102
{ACAD_REACTORS
330
29B
102
}
330
29B
100
AcDbXrecord
280
     1
  1
AcDbDs::HandleAttributeSchema
  2
AcDbDs::HandleAttribute
280
     7
 91
        1
284
     1
  0
DMMAP
  5
20B
102
{ACAD_REACTORS
330
205
330
20E
102
}
330
205
100
AcMapDMMap
 70
     1
  1
Vorgabe
 70
     1
330
0
100
AcMapDMMap
 70
     1
 90
        1
360
20E
 90
        1
 40
1.797693134862314E+99
 70
     1
100
AcMapDMMap
 70
     6
 70
     0
 40
1.797693134862314E+99
290
     1
290
     1
 40
1.0
 40
3.0
  1
Legend
 90
        1
 40
1.797693134862314E+99
  1

 70
     0
 40
1.0
 70
     1
 90
        0
 90
        1
360
20F
 40
67.82709209913888
290
     0
290
     1
 40
1.0
 90
       40
290
     0
290
     1
 40
76269.17252112928
 40
376370.8919790608
 40
77145.11613034052
 40
376863.344928989
  1

290
     1
 40
123.5167496935449
 40
51.4866775483815
  0
DMSTYLECATEGORY
  5
207
102
{ACAD_REACTORS
330
206
102
}
330
206
100
AcMapDMStyleCategory
 70
     1
  1
Anzeigestile
 70
     0
  0
XRECORD
  5
2A0
102
{ACAD_REACTORS
330
29F
102
}
330
29F
100
AcDbXrecord
280
     1
102
DISPLAYNAME
  1
Imperial24
102
FLAGS
 90
        0
  0
XRECORD
  5
2A4
102
{ACAD_REACTORS
330
2A3
102
}
330
2A3
100
AcDbXrecord
280
     1
102
DISPLAYNAME
  1
Metric50
102
FLAGS
 90
        0
  0
XRECORD
  5
189
102
{ACAD_REACTORS
330
188
102
}
330
188
100
AcDbXrecord
280
     1
 70
     1
 90
429727718
  1
508B35C9-AEE7-456F-BE74-D52651303AC6
310
504B03040A0000080000B670623B3DEE336E79000000790000001B0000006175746F6465736B2D64657369676E2D7061636B6167652E786D6C3C3F786D6C2076657273696F6E3D22312E302220656E636F64696E673D227574662D3822203F3E3C666F726D6174733E3C666F726D61743E687474703A2F2F736368656D612E
310
6175746F6465736B2E636F6D2F64657369676E2D7061636B6167652F323030393C2F666F726D61743E3C2F666F726D6174733E504B0304140006080800B670623BD486FD9CA0000000F4000000130000005B436F6E74656E745F54797065735D2E786D6C7D8EC10E82300C865F65E91D8A1E8C310C0EEA1BF002731658846E
310
D98AC1B77784ABF1D8FE5FBFBF75BBCE937A534CCEB38643598122B6FEE978D0B0485F9C41B54DDD7D022595594E1A469170414C76A4D9A4D207E29CF43ECE46F218070CC6BECC4078ACAA135ACF422C856C0E68EA1BF5669944DDD7BCDE7B1F8E415D77AECB980613C2E4AC91FC167A2B244592486606FC29C8FD7F045B9A
310
EF7053A7E60B504B0304140006080800B670623B28ED286BEB0000007C01000008000000636F72652E786D6C8D90416EC3201045AF82665B6183218D6D61A254764FD00B204C5C94182C03558F5F9C3852BBEB6A467FFE9B197D71FA9E6FE8CBACC17AD7012D0820E3B41FAD9B3A48F1826B40272956EFE32F1B20A766D3C1
310
268314D3EAD3B24BDABB685CCCAAF3A3D94515828980F42D371D04FD696655A814B3235C8B45E9AB9A4C419F5D8653B2237A1CB163DE672FD6AC209BF3C08E0D1B30EB19C3FC9D72FCC6EB231EFA33EDE96BDD341517E5064B11EDFCBCAF57A3A2194156843498524CAA0FCA5B7268F9E185D42D21A2DCEC7FA0B48CFF8492
310
759155FBBB0F2C80A4F991FB408A72CB22977B50B96EB9C91F504B0304140006080800B670623B55019EA25F0000007C00000007000000636E782E786D6C4DCB3B0E80201045D1AD90E915ED2CF8AC45050C11660C8261F98AB1B07AC9C97D42D718D865D3E909258CFD00CCE24AC6E326A164D74DC0B4128928FF32603847
310
2BA13128B1252AC747C6BAB984FC68F0B87FE8960A5C09FE86CFB69FBA01504B0304140006080800B670623B7BC41AC871010000D40300000C0000006662782F636F72652E786D6CC553ED6E8320147D15C2DF4501B56B6D90A64BBB27D80B50A5CE54C120983EFEAE1F4DD7A56BBA5FF3879273EEE59E7310BE393735EA95
310
ED2AA333CC428A91D2B9292A5D66D8BB63B0C26823B835C67D2BC348CB46657880B1E0A535BE9DA1DC68A7B403549B42CDA0EC3AE530CA6B5864B8CB3F552343E91D5474A7B095F949962A6421D0502778E72C0840D390E18DC5F170E664C205F7BE2A66B62A605A75AC94C522DDEEE3651AEF837817C741F2CE92E02D592D
310
83FD6ECB76EC7595A651C2C9D02CB8AB9A8BBADC2AE954814544691A3016D0E883256BBA58278B17BA5A53CAC9507ED3E4DBE2C9265F691747B3DCA9ADC382819091F8E1162272A8933DE82182932144F88C09DF060D8140C84E1EEA8B8F1340BDCA9DB1093085F157AA97B557309586747CD0EF0B4EA64E983A6E0EAEEFCE
310
889E9EF17847386AA94B30211D2C0FDE0D3AF9A4610EAD5536E8DD1969631B593F67E381C33F5157F17725E5A636F6BF1491F980C8FC7B90E13E8A2F504B0304140006080800B670623B70102A487D0000009D0000000B0000006662782F636E782E786D6C4DCCD10A83201886E15B91FFDC95A5C30335ACCDFB886521330D
310
A76397BF1A1DECE883878F57749FD5A3B74D2F17830472A901D9F088930B8B849267CC01754AA418F3DF0D5018572BE160506249B16C274D761E8BCFBB7A179E27F65CB39A0F14D396184C9921B81F34C3ACA1B4B99ABB6E6F062A25AA5F69DF23ACBE504B0304140006080800B670623B3610CA3329010000120200003100
310
00006662782F42384135303843342D343331462D343546312D424341352D3532343432364645413344462F636F72652E786D6C8D515B6EC32010BC0AE22B55850D0E446E848992B43E412FE000495162B07854397EA176A4F62F3F2C9A9D991D58BEBB8F37F0AD7D30CE76905418026DA553C65E3A98E219B510EC04F7CEC5
310
3F3408EC30EA0E16180A7EF12E4D0B249D8DDAC68C5AA7F4020E21E80881BCE54B0783FCD2E3500D296646B856D320AFC34557A4CAEDCC133C449F0380794839A138B47B86DB2345744D7A44594FD0E1B867883594369BFE63BF7EEF793D0B054FC9A8456E548E63CE46FB674D8A58F068C6477CE9F510B582A2C1F80D1182
310
70F349E816B32D65AFB8DD62CCEB42FF274A937A52948C8DEB66893BCB021484D7734370E5D2E9F608A3EF93F3119479ABA0E50B14B8C298119A43CCC4FCFCECB8A18B6388CEE7EF5D5D4F994BD86CBBA182D76543B9FCAE2FD7B24DF103504B0304140006080800B670623B1B8617914E0100003303000030000000666278
310
2F42384135303843342D343331462D343546312D424341352D3532343432364645413344462F636E782E786D6CD593C16EC32010447F0571AD6CE3D489D20813A9877E410FBD62D82434182CC055F3F75D1292E692438FBD206B7698593D61BEFD1E2DF982108D773D6D6B460938E5B571FB9ECE6957AD29D90A1EBC4F7736
310
4A9C1CA1A759A682EF839FA72269D8C9D92654AD71C72206887E0E0A22CAF926B15E498B01E0AA19451807D01A34B919F16B070157417138917400F2F6FA41FCF0092A45DEE414C19BDC21783E4BD39D891265658C3D8DEA00A3ACE59CBC8678ACB54CB26EEB6BD7839D7E9348BE70AD9C8321B9BCA7F9A4A26C542347DEE0
310
50F09802D22BA6749A800A394DD62899107273365E3C82CFC6A55557BC06C10774B7ABE7AEC3B0F34CF06446280E154026D0542C187BA9DAB6628BF7B6DBB0E5A65B3EB1F58631DE64BBE083F7B65CC218087E22CABB042E51D1F2268F1FE12B3EA24D40D63E9CFE00120194D60B9D5BC67FE6D39CDF37E20AF817881F504B
310
0304140006080800B670623BBFEF2E3B690500003C100000340000006662782F42384135303843342D343331462D343546312D424341352D3532343432364645413344462F6F626A656374732E786D6CAD575D739B3814FD2B0CFB0C98D84E931D4227B6938EA793B6534F3BFB90198F0099B001899144EAECAFDF231018B0
310
D37A3FFC609090EEE7B94757C1FB7D915B2F54C88CB31BDB7727B64559CC938CA53776A576CE956DBD0F03C1B9EA2DB32D460A7A63EB693B0C52C1ABD24C257447AA5C8D66EF177F5832A68CDA569C13296F6C193FD182B8A4523CA1F2D94D88226EBADBBBBEDB2C1C8A4D05299F46424B222853B014F30C52ACC6287F389C
310
D85E1878FA7B18E87FB36AFAF62AAFF667A83F635211161F291B8999FAB3D5DDC5FCDA99CF6653677679E13B8BFBC5CAF1DF4D27CBCBE5F2FAF6EE1A8AA51290642C117467871F101B91C581D77CEA2C36869F3229E68CD1B8F61F1ED6361B89092D294B90C78C4A68EB793D190E7D1D9BDEE7A91E1B95FDE9F3BCEAEFE809
310
6A6D6F9F7D4B79F4275C90E7A04248AA51D5C4C738DAE06F72885AC4796EBE65D22A88A22223B995679120E2D50EB1542F098381188D4EA111AE3DB043FF20AF6F2B4AE3D7D83D65E5AECA730D4D3BAC91BD05FEA992B565D95F549CD6069B90AB2A63EACA38A45E4B6A87D781574F86817E4C2FCCC72690D62E2729520E37
310
9BAF234797BAF6D62B3BFC781FED37BA1E4F2B2F052FA9501A3E80569BB8F6A9A364D4FA67654E6F803383981F82F21591FF84F23D9882BC896C3FDBCF8C162508933B2E0AE4C69DD43F6BD2BE38DDDBF10BF86CB4FA784D37F3AF16075E67EC9030DECA1FC0A55373F5DFF3378C591FA9BDF485C10B0A8C8BA909E5262639
310
A8E72163488806A595734C81CB77D1DE0ED7604A303B76913CEC0272F412782FF88EFF4636D8AA56DF7B322474C4B767303F625997056C7B032C473C592B36CEBD15F3F9FF5233B7ABCDC74D257624A60F8658567497B14CE1EC3C80B76FD02011038F9EE9EB0F2E12387A9C844D3F09855125116D1D731DF8B43D2CF4E0A0
310
79A020C6BE946BCE0B7EA1E1219331CD73C228AF5A2DDD31A4B1DA918CE91350854D40A71723140BFA92E94E62B0626016CEFA5864A50E5977E8753CEDBEE1CBB7F52780D20E17AF0BA0F5F9B02A3AD07DCC732EB6D1EBB661421BE0C39E21BABF0FE16D22EA6929407C8DE596724C88B749B6DB5512BC7B228ADFD7CB7EA6
310
3A22397E690BA8D5D8D4E40CEC8CDA23C2C0B7D5898640101CEC9C6D331CE328CB93CAFBBAC70A642DF70DF95155945B52F08AA973C23469FD69ADEF84F7BB18F983A8F8C90E37F5D35980B2139A1C523540813E824EF83448CF7C72B598CE97D7CEEDDDDD3B6736BFBC771677EF66CE6A7E7139F7A793E9EDF2B2B3A8B624
310
0CDA13AA5F8388264EC4A0129909F3B7F5A16CEDF08128E97D680ACA4B9BE7B7B58BB638F0B00700EF36AE8B32A705658A68F83EE897FC2B41573190D1CCAF0B92D233A47CFEB019D9809933F67DD1A5467F8CF69AD9A5AE859342D45355448C64F968A371DC2D596ADC6E43D93D1B466F877A64E2893E54F23C4B40388995
310
525E5005DA3983ED45412510D3EFCA13737B3863F74BD30F2A12E5B4B5E489A025CE25500DB855B11ACE5BBFA185D35DD48D8DC3CE7DC69F2944DB42AA6F6CF09BCA622ADD08C7A36E7C6AE18000BAB08E040135C2D21C9D75B3A91B77BB746C403F38018DFE6EC939DD92F16B40BC05294B9CDA035AAD6D330AE27FE4786B
310
8E45145EA34A75BE1C263A676A35A8ACC6297337400BF16C54EF515F3F77CB77EB3583889C754FFA29081AA98E2222ADEF05DA3E63D2EDEA8B8756C05A7FB6CABC4A91CBF325398202CC952E70A008A830324BA200D5E5EF8F5F04C75DB4B0EE3340E071C98B823333B83577596BF3849B69F2085AA0FAFA212F26BEFF5877
310
FDE622B28D88A42E49E43326DA82D31E8CB006401E1DA726059ECEC168F97A6599036306A135688F9AD2E61A6EA178F4CD51974A9F2CCB9F36FE5EBD14601068D9C3BF01504B0304140006080000B670623B000000000000000000000000350000006662782F42384135303843342D343331462D343546312D424341352D35
310
32343432364645413344462F76657274696365732E62696E504B0304140006080800B670623BF270F1330600000004000000360000006662782F42384135303843342D343331462D343546312D424341352D3532343432364645413344462F747269616E676C65732E62696E636660600000504B0304140006080000B67062
310
3B000000000000000000000000370000006662782F42384135303843342D343331462D343546312D424341352D3532343432364645413344462F617474726962757465732E62696E504B0304140006080800B670623B08DA0BD19000000041010000360000006662782F42384135303843342D343331462D343546312D4243
310
41352D3532343432364645413344462F6469726563746F72792E786D6C858F410AC3201045AF22B36F53E9A60B35CBEEBAE80D244E44489C6234F4F835464A48035D0DF398FF9F8AF63D0E6CC63039F212F8F9020C7D47C6792B21C5FE7403D62A1188E2E60C98D7234A5830286103A55745067B9D86B8A3CF9C7F90C11DE6
310
07FB144396D7B6A82D282E9A152AD114D5EF2CB866EEE831B8EEA07A7BB5A8D7D61A2BAAEB7FD5F70921FF497D00504B0304140006080800B670623B3B4606F3FE000000A00100003B0000006662782F42384135303843342D343331462D343546312D424341352D3532343432364645413344462F7265736F75726365732F
310
636F72652E786D6C8D504B6E833010BD0A9A6D65B08134808CA354A427E8052C332156828DFCA97AFC9A40A576D7CDCCE87D344F8F9FBEE647F689CE6B6B7A6039850C8DB2A336530F315C4903D94970676DF82583CCC8197B5861107C72362E3BA4AC096842428D1D7107A5F71820538F74F4E0D50D6799CB1892C2DFF345
310
AABB9C306779A2934E701F5C0A906D4FD609C2A1B7D129F4BCD858C163D4E3AED163FAA9AF1A1D88F67CA98E6D35906AA82A52BFB39ABCD5CD915C86331BD86BD3B665CD8BD52C78D0F34F46E550061C419494B6843142CB0F5677F4D0D58717DA7494F26295FF31C565FCA7296A13AA728FBBD93C0896823C09C18BB5AFB4
310
9E65A6BD762BBE01504B010214000A0000080000B670623B3DEE336E79000000790000001B00000000000000000000000000000000006175746F6465736B2D64657369676E2D7061636B6167652E786D6C504B01021400140006080800B670623BD486FD9CA0000000F40000001300000000000000000000000000B2000000
310
5B436F6E74656E745F54797065735D2E786D6C504B01021400140006080800B670623B28ED286BEB0000007C010000080000000000000000000000000083010000636F72652E786D6C504B01021400140006080800B670623B55019EA25F0000007C000000070000000000000000000000000094020000636E782E786D6C50
310
4B01021400140006080800B670623B7BC41AC871010000D40300000C00000000000000000000000000180300006662782F636F72652E786D6C504B01021400140006080800B670623B70102A487D0000009D0000000B00000000000000000000000000B30400006662782F636E782E786D6C504B01021400140006080800B6
310
70623B3610CA3329010000120200003100000000000000000000000000590500006662782F42384135303843342D343331462D343546312D424341352D3532343432364645413344462F636F72652E786D6C504B01021400140006080800B670623B1B8617914E010000330300003000000000000000000000000000D10600
310
006662782F42384135303843342D343331462D343546312D424341352D3532343432364645413344462F636E782E786D6C504B01021400140006080800B670623BBFEF2E3B690500003C10000034000000000000000000000000006D0800006662782F42384135303843342D343331462D343546312D424341352D35323434
310
32364645413344462F6F626A656374732E786D6C504B01021400140006080000B670623B0000000000000000000000003500000000000000000000000000280E00006662782F42384135303843342D343331462D343546312D424341352D3532343432364645413344462F76657274696365732E62696E504B010214001400
310
06080800B670623BF270F133060000000400000036000000000000000000000000007B0E00006662782F42384135303843342D343331462D343546312D424341352D3532343432364645413344462F747269616E676C65732E62696E504B01021400140006080000B670623B00000000000000000000000037000000000000
310
00000000000000D50E00006662782F42384135303843342D343331462D343546312D424341352D3532343432364645413344462F617474726962757465732E62696E504B01021400140006080800B670623B08DA0BD1900000004101000036000000000000000000000000002A0F00006662782F42384135303843342D3433
310
31462D343546312D424341352D3532343432364645413344462F6469726563746F72792E786D6C504B01021400140006080800B670623B3B4606F3FE000000A00100003B000000000000000000000000000E1000006662782F42384135303843342D343331462D343546312D424341352D3532343432364645413344462F72
310
65736F75726365732F636F72652E786D6C504B0506000000000E000E0080040000651100000000
  0
XRECORD
  5
187
102
{ACAD_REACTORS
330
186
102
}
330
186
100
AcDbXrecord
280
     1
 70
     1
 90
429727718
  1
887D55A9-D0DD-414E-B741-A7DCD4DA2B4C
310
504B03040A0000080000B670623B3DEE336E79000000790000001B0000006175746F6465736B2D64657369676E2D7061636B6167652E786D6C3C3F786D6C2076657273696F6E3D22312E302220656E636F64696E673D227574662D3822203F3E3C666F726D6174733E3C666F726D61743E687474703A2F2F736368656D612E
310
6175746F6465736B2E636F6D2F64657369676E2D7061636B6167652F323030393C2F666F726D61743E3C2F666F726D6174733E504B0304140006080800B670623BD486FD9CA0000000F4000000130000005B436F6E74656E745F54797065735D2E786D6C7D8EC10E82300C865F65E91D8A1E8C310C0EEA1BF002731658846E
310
D98AC1B77784ABF1D8FE5FBFBF75BBCE937A534CCEB38643598122B6FEE978D0B0485F9C41B54DDD7D022595594E1A469170414C76A4D9A4D207E29CF43ECE46F218070CC6BECC4078ACAA135ACF422C856C0E68EA1BF5669944DDD7BCDE7B1F8E415D77AECB980613C2E4AC91FC167A2B244592486606FC29C8FD7F045B9A
310
EF7053A7E60B504B0304140006080800B670623BBC1638F5EC0000007C01000008000000636F72652E786D6C8D90416EC3201045AF82665B61836BE2D8C24471DB9CA01740401C94182C03558F5F9C3852BBEB6A467FFE9B197D7EF89E6EE8CB2CC17AD7032D0820E394D7D68D3DA478C67B4007C117EFE32F1B202727D3C3
310
2A83E0E3E2D3BC49CABB685CCCAAF3DA6CA20CC14440EA969B1E82BA98491632C5EC08D76296EA2A4753D06797E194AC468F2356E77DF66CCD02825543D50CACC62D39ED70FDC68EB8FD68F6F8787A6784342D1DDA1D2F5758F068A7E77DB518198D065111D2624A31A93E69DD11D6D5EC85EC3B4278B9DAFF4069D6FF8492
310
75F1B5DADE7D600104CD8FDC0782976B16B9DC83CA75CD4DFC00504B0304140006080800B670623B55019EA25F0000007C00000007000000636E782E786D6C4DCB3B0E80201045D1AD90E915ED2CF8AC45050C11660C8261F98AB1B07AC9C97D42D718D865D3E909258CFD00CCE24AC6E326A164D74DC0B4128928FF326038
310
472BA13128B1252AC747C6BAB984FC68F0B87FE8960A5C09FE86CFB69FBA01504B0304140006080800B670623B3586FFB671010000D40300000C0000006662782F636F72652E786D6CC553ED6E8320147D15C2DF4541A76D6D90A6DDD627D80B50A4CE54C120983EFEAE1F4DD7A55BBA5FF3879273EEE59E7310B6393735EA
310
95ED2AA3731C851423A5A5292A5DE6D8BB63B0C268C39935C67D29C3488B46E578803167A535BE9D2169B453DA01AA4DA16650749D7218C91A1639EEE4876A4428BC838AEE14B6429E44A9C228041AEA38EB9C0501681A32BC313F1ECE8C4C3867DE57C5CC56054CAB8E95B298A7F12E5EEED224C8E87E11242FE936C8DE96
310
AB60BB7F4D295D66D12E5B30323473E6AAE6A24E5A259C2A308F29CD82280A68FC1E256B9AAE93F489AED694323294DF34F9B678B0C957DA3DC7B3DCA9ADC33C022123F1CD2D44E450277AD04338234388F01913BE0D1A0281909D38D4171F27807A259DB1093085F157AA17B557309586747CD0CF0B46A64E983A6E0EAEEF
310
CE881F9EF1FB8E70D44297604238581EBC1B74B249C31C5AAB6CD0BB33D2C636A27ECCC62F0EFF445DC5DF95244D6DEC7F2922F30191F9F720C37DE49F504B0304140006080800B670623B4220A0FF7D0000009D0000000B0000006662782F636E782E786D6C4DCCD10A83201886E15B91FFDCE542CB0335D0EC3E6259C84A
310
C3E9D8E5AF46073BFAE0E1E315DD675BD1DBA5978F41C2FD4600B9F088930F8B849267CC01754AA418F3DF0D50183727E164506249B1EC174D6E1ECB9A0F5D7D785E68DB8151CD286E5A5363CA6B8A39E90D36D40E96B086F55A43A544F52B1D7B86D517504B0304140006080800B670623B2FA3FEDE290100001202000031
310
0000006662782F45374635344235342D363743322D343832342D383044432D4334454645303536354442422F636F72652E786D6C8D515B6EC32010BC0AE22B55850D2E386E848994D7097A0117488A1283C5A3CAF10BB523B57FF961D1ECCCECC0F2ED7DBC816FED8371B687A4C210682B9D32F6D2C314CFA883602BB8772E
310
FEA141608751F7B0C050F08B77695A20E96CD43666D43AA5177008414708E42D5F7A18E4971E876A483133C2B59A06791D2EBA22556E679EE021FA1C00CC43CA09C5717D6274C7286AD7FB06D1AEA1A8C3873DDAD3E3E98859CB0EBB1DAF67A1E02919B5C88DCA71CCD968FFAC49110B1ECDF8882FBD1EA256503418BF2342
310
106E3E08DD60B6A1EC15771B8C795DE8FF4469524F8A92B1F1AD59E2CEB20005E1F5DC105CB9F4797B84D1F7C9F908CABC55D0F2050A5C61CC1AD2F27A26E6E767C7962E8E213A9FBF7775FDCC5CC266DB960A5E970DE5F2BBBE5CCB36C50F504B0304140006080800B670623B1B8617914E01000033030000300000006662
310
782F45374635344235342D363743322D343832342D383044432D4334454645303536354442422F636E782E786D6CD593C16EC32010447F0571AD6CE3D489D20813A9877E410FBD62D82434182CC055F3F75D1292E692438FBD206B7698593D61BEFD1E2DF982108D773D6D6B460938E5B571FB9ECE6957AD29D90A1EBC4F77
310
364A9C1CA1A759A682EF839FA72269D8C9D92654AD71C72206887E0E0A22CAF926B15E498B01E0AA19451807D01A34B919F16B070157417138917400F2F6FA41FCF0092A45DEE414C19BDC21783E4BD39D891265658C3D8DEA00A3ACE59CBC8678ACB54CB26EEB6BD7839D7E9348BE70AD9C8321B9BCA7F9A4A26C542347DE
310
E050F09802D22BA6749A800A394DD62899107273365E3C82CFC6A55557BC06C10774B7ABE7AEC3B0F34CF06446280E154026D0542C187BA9DAB6628BF7B6DBB0E5A65B3EB1F58631DE64BBE083F7B65CC218087E22CABB042E51D1F2268F1FE12B3EA24D40D63E9CFE00120194D60B9D5BC67FE6D39CDF37E20AF817881F50
310
4B0304140006080800B670623B29652116630500003C100000340000006662782F45374635344235342D363743322D343832342D383044432D4334454645303536354442422F6F626A656374732E786D6CAD575D739B3814FD2B0CFB0C989834C90EA1639B24E3E9A6EDD4D3CE3E64C623834CD8006224913AFDF57B040203
310
B65BEF871F0C12D2FD3CF7E8CA7FBFCB33E3957291B2E2D674ED8969D02262715A24B76625B7D6B569BC0F7CCE98EC2D338D82E4F4D654D366E0279C55A59E8AE99654991CCDDECFFF3444440B6A1A514684B83545F44C7362934AB2988A173B2692D8C97667BB76B3702836E1A47C1E092D09A78584A5982F20C5688C7287
310
C389E904BEA3BE07BEFAD7ABA6A75739B53F43FD69212429A20365233153D70BEF2E2E6FAC4BCF9B5ADEBB0BD79ADFCF43CBBD9A4E16EF168B9BD9DD0D140BC921495BC2E9D60C1E101B9E46BED37CEA2CD6861F3329624541A3DA7F7858DBAC25C6B4A4458C3CA654405BCFEBC970E8AAD8F43E4FD558ABEC4F9FE7557F47
310
4F506B7BFBEC5BCA367FC105710E2AB8A00A554D7CB4A30DFE26FBA86D18CBF4B75418399194A72433B274C3097F33032C554B027F2046A1932B842B0FCCC0DDCBEBDB8AD2F835768F59B9ADB24C41D30C6A64AF817F2A456D59FA83F2E3DA60137255A585BCD60EC9B7929AC18DEFD49381AF1ED30BFDB109A4B1CD488294
310
C3CDE6EBC8D185AABD6568061FEE37BB95AAC7E3CA4BCE4ACAA5820FA0D526AE7DAA2869B5EE5999531BE0CC20E6FBA07C41E43FA27CF7A6206F3CDD793B4F6B919C1462CB788EDCD893FA674CDA17AB7B3B7C019F8D561FAEE966FED562DFE98C1D12C6A9FC015C2A35D7FF3D7FC398F591DA4B5FE0BFA2C0189FEA50AE22
310
92817A1ED3020951A03432862970F976B33383259812CC8E5D240BBA801CBCF8CE2BBEE3BF910DB6AAD5F79E05123AE2DB33981FB1ACCB02B69D00CB014FD68AB573A7627EF9BFD4CC2C5C7D58557C4B22FAA88925A4DBB44825CECE3D78FB060D1231F0E885BE7D673C86A3874958F593906B5502D1563157814FDAC3420D
310
F69A070A22EC4B98E23CFF171A1E5311D12C23056555ABA53B8614563B92D17D02AAB009E8F46284624E5F53D5490C560CCCC2591FF1B45421EB0EBD8EA7ED13BE7C5D7E0428CD60FEF60779EB13E6664FF711CB185F6FDED60D139A001FF60CD1FD6D086F1D51474901E26B2CB794A343BC8ED3EDB612E0DD2351FCB65CF4
310
33D511C9E14B5B40ADC6A6263DB0336A8F700DDF56271A024E70B0B3629DE21847591E55DED73D56206AB927E46FAABC5C939C55853C274C93D69FD6FA4E78BF8B11DF898C9ECD60553FAD39283BA6F18984AA23E8884F83F45C5F5F859797B31B2B9C84A1E5B9DE9D35BFF25C6B76152E422F9C5DCC3D847F5801ED09D5AF
310
41441327A25FF15487F9EB725FB666F048A4701E9A827292E6F97569A32DF61DEC01C0BB8DCBBCCC684E0B49147C1FD54BF685A0AB18C868E6973949E819523E3DAC463660E68C7D9F55A9D1EFA3BD7A76A16AE1A810F95CE59B82A4D968A376DC2E8B44BBDD86B27B368CDE0ED548C7137DA860591A83706223A12CA712B4
310
7306DBF39C0A20A6DF95C7FAF670C6EED7A61F946493D1D6926782963813403548A78AE470DEF80D2D9CEAA26E4D1C76F60BFE74219A06527D6B82DF641A51616F703CAAC6A7160E08A00BEB4810A0274592A1B36E3675E36E978A0DE80727A0D6DF2D39A75BD27E0D8837276589537B40ABB56D5A41F48F1C6FCD3188C4EB
310
A6929D2FFB89CE995A4D00AE813BDD032DC48B56BD437DFDDC2DD7AED70C2272D63DE9A72068A45A92F0A4BE17A8A06B9366E16707AD80B1FC649459952097E74BB23805982B55E0401150A165964402AA8BDF9F3E7386BB686EDCA780C0D382E5392BF460A6EFB2C6EA1937D3F809B440D5F5435C4C5CF7A9EEFAF54564BD
310
2182DA24162F98680B4E7930C21A0079709CEAEB99A372305ABE0C0D7D6078105A83F6A0296DAEE1068A47DD1C55A9F4C9B2FC69E3EFD44B81028E963DF81B504B0304140006080000B670623B000000000000000000000000350000006662782F45374635344235342D363743322D343832342D383044432D433445464530
310
3536354442422F76657274696365732E62696E504B0304140006080800B670623BF270F1330600000004000000360000006662782F45374635344235342D363743322D343832342D383044432D4334454645303536354442422F747269616E676C65732E62696E636660600000504B0304140006080000B670623B00000000
310
0000000000000000370000006662782F45374635344235342D363743322D343832342D383044432D4334454645303536354442422F617474726962757465732E62696E504B0304140006080800B670623B08DA0BD19000000041010000360000006662782F45374635344235342D363743322D343832342D383044432D4334
310
454645303536354442422F6469726563746F72792E786D6C858F410AC3201045AF22B36F53E9A60B35CBEEBAE80D244E44489C6234F4F835464A48035D0DF398FF9F8AF63D0E6CC63039F212F8F9020C7D47C6792B21C5FE7403D62A1188E2E60C98D7234A5830286103A55745067B9D86B8A3CF9C7F90C11DE607FB144396
310
D7B6A82D282E9A152AD114D5EF2CB866EEE831B8EEA07A7BB5A8D7D61A2BAAEB7FD5F70921FF497D00504B0304140006080800B670623B6378F24DFF000000A00100003B0000006662782F45374635344235342D363743322D343832342D383044432D4334454645303536354442422F7265736F75726365732F636F72652E
310
786D6C8D504B6E833010BD0A9A6D65B0094E42641C85B639412F6099496225D8C89FAAC7AF09546A77DDCC8CDE47F3F4C4F16B7C149FE88371B603565228D06A37187BED20C50BD9437194C23B177FC9A0B06AC40E6618A4B87A97A615D2CE46B431A3D60DB8822A048C50E8473E3A08FA86A32A558A5911EEE5A4F45D5DB1
310
6465A6B34E8A107D0E502C4FE609D26370C96B0CA25A58295232C3AA3143FE692E063D485EF7F5AEE71BD2D2F39634AFFC44DAF7DD9E9CCE6F9CD25DCBFA762BAAD92C4534E34F46ED51451C40D694B6843142EB0FD61C283F34FC85EE0F948A6A96FF31A569F8A729191B37F51A77B105902C0779125254735F793DCBCC7B
310
EE567E03504B010214000A0000080000B670623B3DEE336E79000000790000001B00000000000000000000000000000000006175746F6465736B2D64657369676E2D7061636B6167652E786D6C504B01021400140006080800B670623BD486FD9CA0000000F40000001300000000000000000000000000B20000005B436F6E
310
74656E745F54797065735D2E786D6C504B01021400140006080800B670623BBC1638F5EC0000007C010000080000000000000000000000000083010000636F72652E786D6C504B01021400140006080800B670623B55019EA25F0000007C000000070000000000000000000000000095020000636E782E786D6C504B010214
310
00140006080800B670623B3586FFB671010000D40300000C00000000000000000000000000190300006662782F636F72652E786D6C504B01021400140006080800B670623B4220A0FF7D0000009D0000000B00000000000000000000000000B40400006662782F636E782E786D6C504B01021400140006080800B670623B2F
310
A3FEDE290100001202000031000000000000000000000000005A0500006662782F45374635344235342D363743322D343832342D383044432D4334454645303536354442422F636F72652E786D6C504B01021400140006080800B670623B1B8617914E010000330300003000000000000000000000000000D2060000666278
310
2F45374635344235342D363743322D343832342D383044432D4334454645303536354442422F636E782E786D6C504B01021400140006080800B670623B29652116630500003C10000034000000000000000000000000006E0800006662782F45374635344235342D363743322D343832342D383044432D4334454645303536
310
354442422F6F626A656374732E786D6C504B01021400140006080000B670623B0000000000000000000000003500000000000000000000000000230E00006662782F45374635344235342D363743322D343832342D383044432D4334454645303536354442422F76657274696365732E62696E504B01021400140006080800
310
B670623BF270F13306000000040000003600000000000000000000000000760E00006662782F45374635344235342D363743322D343832342D383044432D4334454645303536354442422F747269616E676C65732E62696E504B01021400140006080000B670623B0000000000000000000000003700000000000000000000
310
000000D00E00006662782F45374635344235342D363743322D343832342D383044432D4334454645303536354442422F617474726962757465732E62696E504B01021400140006080800B670623B08DA0BD190000000410100003600000000000000000000000000250F00006662782F45374635344235342D363743322D34
310
3832342D383044432D4334454645303536354442422F6469726563746F72792E786D6C504B01021400140006080800B670623B6378F24DFF000000A00100003B00000000000000000000000000091000006662782F45374635344235342D363743322D343832342D383044432D4334454645303536354442422F7265736F75
310
726365732F636F72652E786D6C504B0506000000000E000E0080040000611100000000
  0
XRECORD
  5
112
102
{ACAD_REACTORS
330
110
102
}
330
110
100
AcDbXrecord
280
     1
270
     1
271
     1
  0
XRECORD
  5
111
102
{ACAD_REACTORS
330
110
102
}
330
110
100
AcDbXrecord
280
     1
270
     1
271
     1
  0
XRECORD
  5
18A
102
{ACAD_REACTORS
330
110
102
}
330
110
100
AcDbXrecord
280
     1
 70
     0
 90
1778669749
  1
9BF507EE-FAF7-4A99-A33D-4EE51894BC40
310
504B03040A0000080000B670623B3DEE336E79000000790000001B0000006175746F6465736B2D64657369676E2D7061636B6167652E786D6C3C3F786D6C2076657273696F6E3D22312E302220656E636F64696E673D227574662D3822203F3E3C666F726D6174733E3C666F726D61743E687474703A2F2F736368656D612E
310
6175746F6465736B2E636F6D2F64657369676E2D7061636B6167652F323030393C2F666F726D61743E3C2F666F726D6174733E504B0304140006080800B670623BD486FD9CA0000000F4000000130000005B436F6E74656E745F54797065735D2E786D6C7D8EC10E82300C865F65E91D8A1E8C310C0EEA1BF002731658846E
310
D98AC1B77784ABF1D8FE5FBFBF75BBCE937A534CCEB38643598122B6FEE978D0B0485F9C41B54DDD7D022595594E1A469170414C76A4D9A4D207E29CF43ECE46F218070CC6BECC4078ACAA135ACF422C856C0E68EA1BF5669944DDD7BCDE7B1F8E415D77AECB980613C2E4AC91FC167A2B244592486606FC29C8FD7F045B9A
310
EF7053A7E60B504B0304140006080800B670623BCA089DFFEC0000007C01000008000000636F72652E786D6C8D90416E83301045AF62CDB632D8402020E32882F604BD80653BC44AB011B6AB1EBF262152BBEB6A467FFE9B197D76FA9EEFE84BAFDE38DB03CD08206DA553C64E3DC470C1474027CE56E7C22F1B202B66DDC3
310
260367D3EAE2B24BD2D9A06D48AA754AEFA2F05E0740F29E9A1EBCBCEA59642286E4F0B76C11F226269DD15797E0188D42CF2346A57DE662F40ABCAEC77628C6120F654571D50C04B7F5B9C1E3997CD4F550BE3745C3F20DE62C98F9755FAE5A04AD801784B498524C8A4F5A75E4D055873772EC0861F966FF03C545FD138A
310
C686B2D8DF7D621E384D8F3C069CE55B16A93C824A75CB8DFF00504B0304140006080800B670623B55019EA25F0000007C00000007000000636E782E786D6C4DCB3B0E80201045D1AD90E915ED2CF8AC45050C11660C8261F98AB1B07AC9C97D42D718D865D3E909258CFD00CCE24AC6E326A164D74DC0B4128928FF326038
310
472BA13128B1252AC747C6BAB984FC68F0B87FE8960A5C09FE86CFB69FBA01504B0304140006080800B670623B68FC0B7272010000D40300000C0000006662782F636F72652E786D6CC5535B6E833010BC8AE5DF0A6C1E8124328E22D29EA01770C0A128602363A31CBFCB234A53A555FA553EC09AD9F5CE8C31DB5DDA060D
310
D2F4B556190E7C8A9154852E6B5565D8D993B7C668C799D1DA7E29C3488956667884316795D1AE5BA0422B2B950554E9522EA0E87B69312A1A5864B82F3E642B7CE12C54F467BF13C55954D20F7CA0A18EB3DE1A1080E621E31BF3D3F1C2C88C73E65C5D2E6C5DC2B4FA544B8379921C36797888BC3C8A032F4E73EA6D927D
310
EA1DF6F42D49F2E8350D5346C666CE6CDD5ED515460A2B4BCC434A375E1078347C0FE22D5D6DE3D50B5D6F2965642CBF6B725DF96493AB958DC245EEDCD6631E809089F8E61622B2A81703E8219C913144F84C09DF070D8140C8561C9BAB8F3340832CAC363130A576376A108D933095FA747AD0CF0B46E64E983A6D0EAE1F
310
CE089F9EF1FB8E70D44255604258581E9D1D75B259C3125A278D37D80B52DAB4A279CEC62F0EFF44DDC43F9454E8469BFF5244960322CBEF41C6FBC83F01504B0304140006080800B670623B0F71DDB67E0000009D0000000B0000006662782F636E782E786D6C4DCCD10A83201886E15B91FFDCA54DB73F502386BB8F5816
310
32D3703976F9ABD1C18E3E78F87855FB990379BBFCF2296AE02706C4C5471A7C9C349475A408A4352AA7B4FEDD80C47E761A7606A3A69CCA72D0E0C6BE8475D3E0E3F3409428EA6B27A84079A782899AA2EC1A7AE3ECCC2FD858CB2D544655BFD2B67BD87C01504B0304140006080800B670623BE134B4FB28010000120200
310
00310000006662782F38353834323741342D343835462D343034322D383541392D4331303331363839454531452F636F72652E786D6C8D515B6EC32010BC0AE22B55850D0EA424C24451959EA0172086A42831583CAA1CBF503B52FB971F16CDCECC0EACD8DFC71BF836215AEF7A481A0C817183D7D65D7A98D3197108F652
310
04EFD31F1A044E8DA6871586525C82CFD3020DDE25E352419DD76601558C264130DCCAA58771F832A36A544E8511AFCDA486ABBA988634A55D7852C4144A00300FA927949C71DABD1D28A29C7D208A6987383B6CD13BC16BB2E1DBE3911C453B0BA5C8D9EA456E758963CFD684674DAA588A64C747FC2118958C86B2C3788B
310
0841B8FB247487D98EB257CC77188BB6D2FF89F2A49F1465EBD2BA5BE2CEB2082511EDDC9042FB7CBA3DC298FBE4430275DE2A9AE1054ADC60CC08E3A29D89E5F9C5714317C7987C28DFBBBA9E0A97B0D97643A568EB864AF95D5FA9759BF207504B0304140006080800B670623B1B8617914E010000330300003000000066
310
62782F38353834323741342D343835462D343034322D383541392D4331303331363839454531452F636E782E786D6CD593C16EC32010447F0571AD6CE3D489D20813A9877E410FBD62D82434182CC055F3F75D1292E692438FBD206B7698593D61BEFD1E2DF982108D773D6D6B460938E5B571FB9ECE6957AD29D90A1EBC4F
310
77364A9C1CA1A759A682EF839FA72269D8C9D92654AD71C72206887E0E0A22CAF926B15E498B01E0AA19451807D01A34B919F16B070157417138917400F2F6FA41FCF0092A45DEE414C19BDC21783E4BD39D891265658C3D8DEA00A3ACE59CBC8678ACB54CB26EEB6BD7839D7E9348BE70AD9C8321B9BCA7F9A4A26C542347
310
DEE050F09802D22BA6749A800A394DD62899107273365E3C82CFC6A55557BC06C10774B7ABE7AEC3B0F34CF06446280E154026D0542C187BA9DAB6628BF7B6DBB0E5A65B3EB1F58631DE64BBE083F7B65CC218087E22CABB042E51D1F2268F1FE12B3EA24D40D63E9CFE00120194D60B9D5BC67FE6D39CDF37E20AF817881F
310
504B0304140006080800B670623B5933D422630500003B100000340000006662782F38353834323741342D343835462D343034322D383541392D4331303331363839454531452F6F626A656374732E786D6CAD575B6FA33814FE2B887D0642934E9B156594264D158D3A534DD4D13E548A0C38942D60649B4EBABF7E3F8321
310
40924EF6928780CDF1B97EE762EFF32E4B8D37CA45C2F21BD3B547A641F39045491EDF98A5DC5AD7A6F1D9F73863B243661A39C9E88DA9B64DDF8B392B0BBD15D12D295339D85DDEFE618890E6D434C2940871638AF08566C426A5641115AF764424B1E3EDCE76ED9AB0CF36E6A47819302D08A7B984A6D8CFC1C5A89572FB
310
CB91E9F89EA3BEFB9EFAD754E3D3544E654F5F7E920B49F2F040D880CDD89D2CEE2E2EA7D6E56432B6269F2E5CEB7679BBB0DCABF168FE693E9FCEEEA6102C240727AD09A75BD3BF876F78127A4EFDA9D5582B7E4CA590E5390D2BFB6161A5B3E618D182E611E2985001691DAB47FDA5AB7CD3F93C566B2DB2BB7D9E55DD13
310
1D468DEECDB3AB290BFE8409E21C54704115AA6AFF68436BFC8DF65E0B184BF5B74418199194272435D224E084BF9B3E481589EFF5D828747285706581E9BB7B7E5D5D911ABFC6EE312DB7659A2A689A7E85EC0DF04FA5A8344BFEA2FCB834E8845895492EAFB541F2BDA0A63FF59C6AD3F7D4637CA13FD68E34B629891172
310
98597F1D183A57B9B75A98FE9765B05BAB7C3C2EBCE0ACA05C2AF8005A4DE09AA7F29216EB9E15397500C6F47CBE77CA7778FE2BD277AF0AE2C693DD6437D1522427B9D8329E2136F6A8FA19A3E6C56ADF0E5F50CF06D48734EDCEBF22F69C56D97EC138153F804B85E6FABFC7AFEFB32E523BE1F3BD372418E363EDCA7548
310
52949E8724474014288D94610BB57C1BEC4C7F854A89CA8E5324F55B871CBC78CE1BBEE3BFE68D6A5589EF3C730474506FCFA8FCF0659516D0ED04580EEA6425581B77CAE797FF4BCECC16EB2FEB926F49481F746159D06D922712BD730FDEAE42BD40F42C7AA5EF3F198F60E86110D6DD20645A9480B795CF95E3E3A659A8
310
C55E724F408873315335CFFB8584874484344D494E59D94869DB90C26A5B64F49C802CAC1D3ABE18A098D3B7444D123D8A9E5AE8F5214F0AE5B2B6E9B575DA3E61CBD3EA2B4009FA940524DD1305FB6A1FB294F14DF0BEA90BA109ECE1481FDC3FFAE8D60E75141700BE82725371B4873751B2DD960265F788137FACE6DD40
310
B575E4F0A5C99F46629D92131467A41EE11ABD8D4CCC039CA0AFB37C93A08B232B8F0AEFCA1E0A1015DF13FC83322B362463652ECF71D3A8B1A7D1BE65DE1D62C44F22C317D35F574FEB16153BA2D13E543D10A80E74C4A65E78A6B7CBCBD1D5DD9DB59C2DAFACC96C3AB566E3F1C29ADCDD5DBAD7D3C9ED7C822ED74F80A6
310
41755310DE4443F44A9E68373FADF6596BFA0F440AE7BECE2727AE9F4F2B1B53B1E7E00CF0DD1E5C65454A339A4BA2D0FBA05ED2EF0443458F47BDBFCA484CCFE0F2ED7E3DD0013B679C7B5499467F0ECEEADDB9CA85A34CE44B99053949D2C1416DB85DE4B136BB7165FBAC0B7AB3542BED4F8CA182A549847A1319316519
310
95A83A67147B9E5101C47487F2485F1ECE38FD568F839204296D3479219888530154036E6528FBFBC66F98E0D4107563A2D7D9AFF8D389681A08F58D89F22693900A3B407754734FC51C10C010D6D640809EE4718AC1BA3ED4AEDB53CA37283F68805A7E4B72CEB0A4EDEAD5DD8C14059A76AFAA56BA6901E13F32BC51C720
310
12AF41295B5BF61BAD3195181FB506E6B40F4C10AF5AF40EF9F5B159AE5DD1F43C72D635E94310D45C2D49785C5D0B94D3B54AB3C5A38349C0587D338AB48C11CBF339599C02CCA54A70A008A8D03C0B2201D5F9EFCF8F9CE12A9A19CB0410789EB32C63B95ECCF455D658BFE0621A3DA32C5075FB101723D77DAE867E7D0F
310
D90444509B44E2151B4DC2290B065803200FBAA9BE9D392A0603F2D5C2D00D6302A615680F66D2FA166E2079D4C551A54AB758161FCEFD4E450A14704CECFEDF504B0304140006080000B670623B000000000000000000000000350000006662782F38353834323741342D343835462D343034322D383541392D4331303331
310
363839454531452F76657274696365732E62696E504B0304140006080800B670623BF270F1330600000004000000360000006662782F38353834323741342D343835462D343034322D383541392D4331303331363839454531452F747269616E676C65732E62696E636660600000504B0304140006080000B670623B000000
310
000000000000000000370000006662782F38353834323741342D343835462D343034322D383541392D4331303331363839454531452F617474726962757465732E62696E504B0304140006080800B670623B08DA0BD19000000041010000360000006662782F38353834323741342D343835462D343034322D383541392D43
310
31303331363839454531452F6469726563746F72792E786D6C858F410AC3201045AF22B36F53E9A60B35CBEEBAE80D244E44489C6234F4F835464A48035D0DF398FF9F8AF63D0E6CC63039F212F8F9020C7D47C6792B21C5FE7403D62A1188E2E60C98D7234A5830286103A55745067B9D86B8A3CF9C7F90C11DE607FB1443
310
96D7B6A82D282E9A152AD114D5EF2CB866EEE831B8EEA07A7BB5A8D7D61A2BAAEB7FD5F70921FF497D00504B0304140006080800B670623BD9A3B367FE000000A00100003B0000006662782F38353834323741342D343835462D343034322D383541392D4331303331363839454531452F7265736F75726365732F636F7265
310
2E786D6C8D504B6E833010BD0A9A6D65B01D0201194711694FD00B586642AD043BF2A7EAF16B122AB5BB6E6646EFA3797AE2F8B5DC8A4FF4C1383B002B291468B59B8C9D0748F1420E501CA5F0CEC55F3228AC5A708015062966EFD27D83B4B3116DCCA875136EA00A012314FA968F0182FEC045952AC5AC08D7F2AEF455CD
310
58B232D3592745883E07289E4FD609D26370C96B0CA27AB252A464A64D63A6FCD35C0C7A904D73EE467EE664DCD58CD4ED4849D79C5A723ED1B7A61977AF2D6F45B59AA58866F9C9A83DAA8813484E6947182394BFB3BAA7FBBEDEBFD0434FA9A856F91F53BA4FFF342563E38E6F719FB60092E5200F428A6AED2BAF479979
310
AFDDCA6F504B010214000A0000080000B670623B3DEE336E79000000790000001B00000000000000000000000000000000006175746F6465736B2D64657369676E2D7061636B6167652E786D6C504B01021400140006080800B670623BD486FD9CA0000000F40000001300000000000000000000000000B20000005B436F6E
310
74656E745F54797065735D2E786D6C504B01021400140006080800B670623BCA089DFFEC0000007C010000080000000000000000000000000083010000636F72652E786D6C504B01021400140006080800B670623B55019EA25F0000007C000000070000000000000000000000000095020000636E782E786D6C504B010214
310
00140006080800B670623B68FC0B7272010000D40300000C00000000000000000000000000190300006662782F636F72652E786D6C504B01021400140006080800B670623B0F71DDB67E0000009D0000000B00000000000000000000000000B50400006662782F636E782E786D6C504B01021400140006080800B670623BE1
310
34B4FB280100001202000031000000000000000000000000005C0500006662782F38353834323741342D343835462D343034322D383541392D4331303331363839454531452F636F72652E786D6C504B01021400140006080800B670623B1B8617914E010000330300003000000000000000000000000000D3060000666278
310
2F38353834323741342D343835462D343034322D383541392D4331303331363839454531452F636E782E786D6C504B01021400140006080800B670623B5933D422630500003B10000034000000000000000000000000006F0800006662782F38353834323741342D343835462D343034322D383541392D4331303331363839
310
454531452F6F626A656374732E786D6C504B01021400140006080000B670623B0000000000000000000000003500000000000000000000000000240E00006662782F38353834323741342D343835462D343034322D383541392D4331303331363839454531452F76657274696365732E62696E504B01021400140006080800
310
B670623BF270F13306000000040000003600000000000000000000000000770E00006662782F38353834323741342D343835462D343034322D383541392D4331303331363839454531452F747269616E676C65732E62696E504B01021400140006080000B670623B0000000000000000000000003700000000000000000000
310
000000D10E00006662782F38353834323741342D343835462D343034322D383541392D4331303331363839454531452F617474726962757465732E62696E504B01021400140006080800B670623B08DA0BD190000000410100003600000000000000000000000000260F00006662782F38353834323741342D343835462D34
310
3034322D383541392D4331303331363839454531452F6469726563746F72792E786D6C504B01021400140006080800B670623BD9A3B367FE000000A00100003B000000000000000000000000000A1000006662782F38353834323741342D343835462D343034322D383541392D4331303331363839454531452F7265736F75
310
726365732F636F72652E786D6C504B0506000000000E000E0080040000611100000000
  0
XRECORD
  5
113
102
{ACAD_REACTORS
330
110
102
}
330
110
100
AcDbXrecord
280
     1
270
     1
271
     1
  0
XRECORD
  5
114
102
{ACAD_REACTORS
330
110
102
}
330
110
100
AcDbXrecord
280
     1
270
     1
271
     1
  0
XRECORD
  5
29E
102
{ACAD_REACTORS
330
29D
102
}
330
29D
100
AcDbXrecord
280
     1
102
DISPLAYNAME
  1
Imperial24
102
FLAGS
 90
        0
  0
XRECORD
  5
2A2
102
{ACAD_REACTORS
330
2A1
102
}
330
2A1
100
AcDbXrecord
280
     1
102
DISPLAYNAME
  1
Metric50
102
FLAGS
 90
        0
  0
CELLSTYLEMAP
  5
292
102
{ACAD_REACTORS
330
291
102
}
330
291
100
AcDbCellStyleMap
 90
        3
300
CELLSTYLE
  1
TABLEFORMAT_BEGIN
 90
        5
170
     1
 91
        0
 92
    32768
 62
   257
 93
        1
300
CONTENTFORMAT
  1
CONTENTFORMAT_BEGIN
 90
        0
 91
        0
 92
      512
 93
        0
300

 40
0.0
140
1.0
 94
        5
 62
     0
340
20C
144
0.25
309
CONTENTFORMAT_END
171
     0
 94
        6
 95
        1
302
GRIDFORMAT
  1
GRIDFORMAT_BEGIN
 90
        0
 91
        1
 62
     0
 92
       -2
340
0
 93
        1
 40
0.045
309
GRIDFORMAT_END
 95
        2
302
GRIDFORMAT
  1
GRIDFORMAT_BEGIN
 90
        0
 91
        1
 62
     0
 92
       -2
340
0
 93
        1
 40
0.045
309
GRIDFORMAT_END
 95
        4
302
GRIDFORMAT
  1
GRIDFORMAT_BEGIN
 90
        0
 91
        1
 62
     0
 92
       -2
340
0
 93
        1
 40
0.045
309
GRIDFORMAT_END
 95
        8
302
GRIDFORMAT
  1
GRIDFORMAT_BEGIN
 90
        0
 91
        1
 62
     0
 92
       -2
340
0
 93
        1
 40
0.045
309
GRIDFORMAT_END
 95
       16
302
GRIDFORMAT
  1
GRIDFORMAT_BEGIN
 90
        0
 91
        1
 62
     0
 92
       -2
340
0
 93
        1
 40
0.045
309
GRIDFORMAT_END
 95
       32
302
GRIDFORMAT
  1
GRIDFORMAT_BEGIN
 90
        0
 91
        1
 62
     0
 92
       -2
340
0
 93
        1
 40
0.045
309
GRIDFORMAT_END
309
TABLEFORMAT_END
  1
CELLSTYLE_BEGIN
 90
        1
 91
        1
300
_TITLE
309
CELLSTYLE_END
300
CELLSTYLE
  1
TABLEFORMAT_BEGIN
 90
        5
170
     1
 91
        0
 92
        0
 62
   257
 93
        1
300
CONTENTFORMAT
  1
CONTENTFORMAT_BEGIN
 90
        0
 91
        0
 92
      512
 93
        0
300

 40
0.0
140
1.0
 94
        4
 62
     0
340
20C
144
0.18
309
CONTENTFORMAT_END
171
     0
 94
        6
 95
        1
302
GRIDFORMAT
  1
GRIDFORMAT_BEGIN
 90
        0
 91
        1
 62
     0
 92
       -2
340
0
 93
        1
 40
0.045
309
GRIDFORMAT_END
 95
        2
302
GRIDFORMAT
  1
GRIDFORMAT_BEGIN
 90
        0
 91
        1
 62
     0
 92
       -2
340
0
 93
        1
 40
0.045
309
GRIDFORMAT_END
 95
        4
302
GRIDFORMAT
  1
GRIDFORMAT_BEGIN
 90
        0
 91
        1
 62
     0
 92
       -2
340
0
 93
        1
 40
0.045
309
GRIDFORMAT_END
 95
        8
302
GRIDFORMAT
  1
GRIDFORMAT_BEGIN
 90
        0
 91
        1
 62
     0
 92
       -2
340
0
 93
        1
 40
0.045
309
GRIDFORMAT_END
 95
       16
302
GRIDFORMAT
  1
GRIDFORMAT_BEGIN
 90
        0
 91
        1
 62
     0
 92
       -2
340
0
 93
        1
 40
0.045
309
GRIDFORMAT_END
 95
       32
302
GRIDFORMAT
  1
GRIDFORMAT_BEGIN
 90
        0
 91
        1
 62
     0
 92
       -2
340
0
 93
        1
 40
0.045
309
GRIDFORMAT_END
309
TABLEFORMAT_END
  1
CELLSTYLE_BEGIN
 90
        2
 91
        1
300
_HEADER
309
CELLSTYLE_END
300
CELLSTYLE
  1
TABLEFORMAT_BEGIN
 90
        5
170
     1
 91
        0
 92
        0
 62
   257
 93
        1
300
CONTENTFORMAT
  1
CONTENTFORMAT_BEGIN
 90
        0
 91
        0
 92
      512
 93
        0
300

 40
0.0
140
1.0
 94
        4
 62
     0
340
20C
144
0.18
309
CONTENTFORMAT_END
171
     0
 94
        6
 95
        1
302
GRIDFORMAT
  1
GRIDFORMAT_BEGIN
 90
        0
 91
        1
 62
     0
 92
       -2
340
0
 93
        1
 40
0.045
309
GRIDFORMAT_END
 95
        2
302
GRIDFORMAT
  1
GRIDFORMAT_BEGIN
 90
        0
 91
        1
 62
     0
 92
       -2
340
0
 93
        1
 40
0.045
309
GRIDFORMAT_END
 95
        4
302
GRIDFORMAT
  1
GRIDFORMAT_BEGIN
 90
        0
 91
        1
 62
     0
 92
       -2
340
0
 93
        1
 40
0.045
309
GRIDFORMAT_END
 95
        8
302
GRIDFORMAT
  1
GRIDFORMAT_BEGIN
 90
        0
 91
        1
 62
     0
 92
       -2
340
0
 93
        1
 40
0.045
309
GRIDFORMAT_END
 95
       16
302
GRIDFORMAT
  1
GRIDFORMAT_BEGIN
 90
        0
 91
        1
 62
     0
 92
       -2
340
0
 93
        1
 40
0.045
309
GRIDFORMAT_END
 95
       32
302
GRIDFORMAT
  1
GRIDFORMAT_BEGIN
 90
        0
 91
        1
 62
     0
 92
       -2
340
0
 93
        1
 40
0.045
309
GRIDFORMAT_END
309
TABLEFORMAT_END
  1
CELLSTYLE_BEGIN
 90
        3
 91
        2
300
_DATA
309
CELLSTYLE_END
  0
CELLSTYLEMAP
  5
290
102
{ACAD_REACTORS
330
104
102
}
330
104
100
AcDbCellStyleMap
 90
        3
300
CELLSTYLE
  1
TABLEFORMAT_BEGIN
 90
        5
170
     1
 91
        0
 92
    32768
 62
   257
 93
        1
300
CONTENTFORMAT
  1
CONTENTFORMAT_BEGIN
 90
        0
 91
        0
 92
      512
 93
        0
300

 40
0.0
140
1.0
 94
        5
 62
     0
340
11
144
0.25
309
CONTENTFORMAT_END
171
     1
301
MARGIN
  1
CELLMARGIN_BEGIN
 40
0.06
 40
0.06
 40
0.06
 40
0.06
 40
0.18
 40
0.18
309
CELLMARGIN_END
 94
        6
 95
        1
302
GRIDFORMAT
  1
GRIDFORMAT_BEGIN
 90
        0
 91
        1
 62
     0
 92
       -2
340
0
 93
        0
 40
0.045
309
GRIDFORMAT_END
 95
        2
302
GRIDFORMAT
  1
GRIDFORMAT_BEGIN
 90
        0
 91
        1
 62
     0
 92
       -2
340
0
 93
        0
 40
0.045
309
GRIDFORMAT_END
 95
        4
302
GRIDFORMAT
  1
GRIDFORMAT_BEGIN
 90
        0
 91
        1
 62
     0
 92
       -2
340
0
 93
        0
 40
0.045
309
GRIDFORMAT_END
 95
        8
302
GRIDFORMAT
  1
GRIDFORMAT_BEGIN
 90
        0
 91
        1
 62
     0
 92
       -2
340
0
 93
        0
 40
0.045
309
GRIDFORMAT_END
 95
       16
302
GRIDFORMAT
  1
GRIDFORMAT_BEGIN
 90
        0
 91
        1
 62
     0
 92
       -2
340
0
 93
        0
 40
0.045
309
GRIDFORMAT_END
 95
       32
302
GRIDFORMAT
  1
GRIDFORMAT_BEGIN
 90
        0
 91
        1
 62
     0
 92
       -2
340
0
 93
        0
 40
0.045
309
GRIDFORMAT_END
309
TABLEFORMAT_END
  1
CELLSTYLE_BEGIN
 90
        1
 91
        1
300
_TITLE
309
CELLSTYLE_END
300
CELLSTYLE
  1
TABLEFORMAT_BEGIN
 90
        5
170
     1
 91
        0
 92
        0
 62
   257
 93
        1
300
CONTENTFORMAT
  1
CONTENTFORMAT_BEGIN
 90
        0
 91
        0
 92
      512
 93
        0
300

 40
0.0
140
1.0
 94
        5
 62
     0
340
11
144
0.18
309
CONTENTFORMAT_END
171
     1
301
MARGIN
  1
CELLMARGIN_BEGIN
 40
0.06
 40
0.06
 40
0.06
 40
0.06
 40
0.18
 40
0.18
309
CELLMARGIN_END
 94
        6
 95
        1
302
GRIDFORMAT
  1
GRIDFORMAT_BEGIN
 90
        0
 91
        1
 62
     0
 92
       -2
340
0
 93
        0
 40
0.045
309
GRIDFORMAT_END
 95
        2
302
GRIDFORMAT
  1
GRIDFORMAT_BEGIN
 90
        0
 91
        1
 62
     0
 92
       -2
340
0
 93
        0
 40
0.045
309
GRIDFORMAT_END
 95
        4
302
GRIDFORMAT
  1
GRIDFORMAT_BEGIN
 90
        0
 91
        1
 62
     0
 92
       -2
340
0
 93
        0
 40
0.045
309
GRIDFORMAT_END
 95
        8
302
GRIDFORMAT
  1
GRIDFORMAT_BEGIN
 90
        0
 91
        1
 62
     0
 92
       -2
340
0
 93
        0
 40
0.045
309
GRIDFORMAT_END
 95
       16
302
GRIDFORMAT
  1
GRIDFORMAT_BEGIN
 90
        0
 91
        1
 62
     0
 92
       -2
340
0
 93
        0
 40
0.045
309
GRIDFORMAT_END
 95
       32
302
GRIDFORMAT
  1
GRIDFORMAT_BEGIN
 90
        0
 91
        1
 62
     0
 92
       -2
340
0
 93
        0
 40
0.045
309
GRIDFORMAT_END
309
TABLEFORMAT_END
  1
CELLSTYLE_BEGIN
 90
        2
 91
        1
300
_HEADER
309
CELLSTYLE_END
300
CELLSTYLE
  1
TABLEFORMAT_BEGIN
 90
        5
170
     1
 91
        0
 92
        0
 62
   257
 93
        1
300
CONTENTFORMAT
  1
CONTENTFORMAT_BEGIN
 90
        0
 91
        0
 92
      512
 93
        0
300

 40
0.0
140
1.0
 94
        2
 62
     0
340
11
144
0.18
309
CONTENTFORMAT_END
171
     1
301
MARGIN
  1
CELLMARGIN_BEGIN
 40
0.06
 40
0.06
 40
0.06
 40
0.06
 40
0.18
 40
0.18
309
CELLMARGIN_END
 94
        6
 95
        1
302
GRIDFORMAT
  1
GRIDFORMAT_BEGIN
 90
        0
 91
        1
 62
     0
 92
       -2
340
0
 93
        0
 40
0.045
309
GRIDFORMAT_END
 95
        2
302
GRIDFORMAT
  1
GRIDFORMAT_BEGIN
 90
        0
 91
        1
 62
     0
 92
       -2
340
0
 93
        0
 40
0.045
309
GRIDFORMAT_END
 95
        4
302
GRIDFORMAT
  1
GRIDFORMAT_BEGIN
 90
        0
 91
        1
 62
     0
 92
       -2
340
0
 93
        0
 40
0.045
309
GRIDFORMAT_END
 95
        8
302
GRIDFORMAT
  1
GRIDFORMAT_BEGIN
 90
        0
 91
        1
 62
     0
 92
       -2
340
0
 93
        0
 40
0.045
309
GRIDFORMAT_END
 95
       16
302
GRIDFORMAT
  1
GRIDFORMAT_BEGIN
 90
        0
 91
        1
 62
     0
 92
       -2
340
0
 93
        0
 40
0.045
309
GRIDFORMAT_END
 95
       32
302
GRIDFORMAT
  1
GRIDFORMAT_BEGIN
 90
        0
 91
        1
 62
     0
 92
       -2
340
0
 93
        0
 40
0.045
309
GRIDFORMAT_END
309
TABLEFORMAT_END
  1
CELLSTYLE_BEGIN
 90
        3
 91
        2
300
_DATA
309
CELLSTYLE_END
  0
DMBASEELEMENT
  5
20E
102
{ACAD_XDICTIONARY
360
212
102
}
102
{ACAD_REACTORS
330
20B
102
}
330
20B
100
AcMapDMBaseElement
 70
     1
  1
Kartenbasis
 70
     1
330
20B
100
AcMapDMBaseElement
 70
     2
  1

 70
     2
  1

 70
     1
 40
1.797693134862314E+99
 70
        1
 70
     1
 70
     1
 70
     1
360
211
100
AcMapDMBaseElement
 70
     1
  0
DMDEFAULTSTYLE
  5
20F
102
{ACAD_REACTORS
330
20B
102
}
330
20B
100
AcMapDMDefaultStyle
 70
     1
 90
        1
  1
Vorgabe
100
AcMapDMDefaultStyle
 70
     1
280
   100
 90
        0
1001
AcMapDMDisplayStyleRegapp
1070
     2
1071
        1
1000
Vorgabe
1000

  0
DICTIONARY
  5
212
330
20E
100
AcDbDictionary
280
     1
281
     1
  3
AcMapDMSurrogateStyleSets
360
213
  0
DMSTYLEREFERENCE
  5
211
330
20E
100
AcMapDMStyleReference
 70
     1
 70
     0
340
20F
330
20B
  0
DMSURROGATESTYLESETS
  5
213
102
{ACAD_REACTORS
330
212
102
}
330
212
100
AcMapDMSurrogateStyleSets
 70
     1
  1
Kartenbasis
 70
     1
 40
1.797693134862314E+99
 70
        1
 70
     1
 70
     1
 70
     1
330
211
 70
     0
  0
ENDSEC
  0
SECTION
  2
ACDSDATA
 70
     2
 71
     8
  0
ACDSSCHEMA
 90
        0
  1
AcDb_Thumbnail_Schema
  2
AcDbDs::ID
280
    10
 91
        8
  2
Thumbnail_Data
280
    15
 91
        0
101
ACDSRECORD
 95
        0
 90
        1
  2
AcDbDs::TreatedAsObjectData
280
     1
291
     1
101
ACDSRECORD
 95
        0
 90
        2
  2
AcDbDs::Legacy
280
     1
291
     1
101
ACDSRECORD
  1
AcDbDs::ID
 90
        3
  2
AcDs:Indexable
280
     1
291
     1
101
ACDSRECORD
  1
AcDbDs::ID
 90
        4
  2
AcDbDs::HandleAttribute
280
     7
282
     1
  0
ACDSSCHEMA
 90
        1
  1
AcDbDs::TreatedAsObjectDataSchema
  2
AcDbDs::TreatedAsObjectData
280
     1
 91
        0
  0
ACDSSCHEMA
 90
        2
  1
AcDbDs::LegacySchema
  2
AcDbDs::Legacy
280
     1
 91
        0
  0
ACDSSCHEMA
 90
        3
  1
AcDbDs::IndexedPropertySchema
  2
AcDs:Indexable
280
     1
 91
        0
  0
ACDSSCHEMA
 90
        4
  1
AcDbDs::HandleAttributeSchema
  2
AcDbDs::HandleAttribute
280
     7
 91
        1
284
     1
  0
ACDSRECORD
 90
        0
  2
AcDbDs::ID
280
    10
320
22
  2
Thumbnail_Data
280
    15
 94
      896
310
89504E470D0A1A0A0000000D4948445200000100000000690803000000E2200D7200000300504C5445D7D7D7FFFFFFD7D7D70000000000000000000000000000000000000000000000000000330000660000990000CC0000FF0033000033330033660033990033CC0033FF0066000066330066660066990066CC0066FF0099
310
000099330099660099990099CC0099FF00CC0000CC3300CC6600CC9900CCCC00CCFF00FF0000FF3300FF6600FF9900FFCC00FFFF3300003300333300663300993300CC3300FF3333003333333333663333993333CC3333FF3366003366333366663366993366CC3366FF3399003399333399663399993399CC3399FF33CC00
310
33CC3333CC6633CC9933CCCC33CCFF33FF0033FF3333FF6633FF9933FFCC33FFFF6600006600336600666600996600CC6600FF6633006633336633666633996633CC6633FF6666006666336666666666996666CC6666FF6699006699336699666699996699CC6699FF66CC0066CC3366CC6666CC9966CCCC66CCFF66FF0066
310
FF3366FF6666FF9966FFCC66FFFF9900009900339900669900999900CC9900FF9933009933339933669933999933CC9933FF9966009966339966669966999966CC9966FF9999009999339999669999999999CC9999FF99CC0099CC3399CC6699CC9999CCCC99CCFF99FF0099FF3399FF6699FF9999FFCC99FFFFCC0000CC00
310
33CC0066CC0099CC00CCCC00FFCC3300CC3333CC3366CC3399CC33CCCC33FFCC6600CC6633CC6666CC6699CC66CCCC66FFCC9900CC9933CC9966CC9999CC99CCCC99FFCCCC00CCCC33CCCC66CCCC99CCCCCCCCCCFFCCFF00CCFF33CCFF66CCFF99CCFFCCCCFFFFFF0000FF0033FF0066FF0099FF00CCFF00FFFF3300FF3333
310
FF3366FF3399FF33CCFF33FFFF6600FF6633FF6666FF6699FF66CCFF66FFFF9900FF9933FF9966FF9999FF99CCFF99FFFFCC00FFCC33FFCC66FFCC99FFCCCCFFCCFFFFFF00FFFF33FFFF66FFFF99FFFFCCFFFFFF0000000D0D0D1A1A1A2828283535354343435050505D5D5D6B6B6B787878868686939393A1A1A1AEAEAEBB
310
BBBBC9C9C9D6D6D6E4E4E4F1F1F1FFFFFF0000000000000000000000000000000000000000000000000000000000004CC95296000000314944415478DAEDC13101000000C2A0F54F6D0D0FA000000000000000000000000000000000000000000000000000004E0D696900013EF8F3470000000049454E44AE426082000049
310
454E44AE426082
  0
ENDSEC
  0
EOF
