  0
SECTION
  2
HEADER
  9
$ACADVER
  1
AC1027
  9
$ACADMAINTVER
 70
   125
  9
$DWGCODEPAGE
  3
ANSI_1252
  9
$LASTSAVEDBY
  1
P04857991
  9
$REQUIREDVERSIONS
160
                 0
  9
$INSBASE
 10
0.0
 20
0.0
 30
0.0
  9
$EXTMIN
 10
70207.87440000009
 20
341763.8168955615
 30
0.0
  9
$EXTMAX
 10
70905.16949999984
 20
342258.9916999992
 30
0.0
  9
$LIMMIN
 10
0.0
 20
0.0
  9
$LIMMAX
 10
12.0
 20
9.0
  9
$ORTHOMODE
 70
     0
  9
$REGENMODE
 70
     1
  9
$FILLMODE
 70
     1
  9
$QTEXTMODE
 70
     0
  9
$MIRRTEXT
 70
     0
  9
$LTSCALE
 40
1.0
  9
$ATTMODE
 70
     1
  9
$TEXTSIZE
 40
0.2
  9
$TRACEWID
 40
0.05
  9
$TEXTSTYLE
  7
Legend
  9
$CLAYER
  8
0
  9
$CELTYPE
  6
ByLayer
  9
$CECOLOR
 62
   256
  9
$CELTSCALE
 40
1.0
  9
$DISPSILH
 70
     0
  9
$DIMSCALE
 40
1.0
  9
$DIMASZ
 40
0.18
  9
$DIMEXO
 40
0.0625
  9
$DIMDLI
 40
0.38
  9
$DIMRND
 40
0.0
  9
$DIMDLE
 40
0.0
  9
$DIMEXE
 40
0.18
  9
$DIMTP
 40
0.0
  9
$DIMTM
 40
0.0
  9
$DIMTXT
 40
0.18
  9
$DIMCEN
 40
0.09
  9
$DIMTSZ
 40
0.0
  9
$DIMTOL
 70
     0
  9
$DIMLIM
 70
     0
  9
$DIMTIH
 70
     1
  9
$DIMTOH
 70
     1
  9
$DIMSE1
 70
     0
  9
$DIMSE2
 70
     0
  9
$DIMTAD
 70
     0
  9
$DIMZIN
 70
     0
  9
$DIMBLK
  1

  9
$DIMASO
 70
     1
  9
$DIMSHO
 70
     1
  9
$DIMPOST
  1

  9
$DIMAPOST
  1

  9
$DIMALT
 70
     0
  9
$DIMALTD
 70
     2
  9
$DIMALTF
 40
25.4
  9
$DIMLFAC
 40
1.0
  9
$DIMTOFL
 70
     0
  9
$DIMTVP
 40
0.0
  9
$DIMTIX
 70
     0
  9
$DIMSOXD
 70
     0
  9
$DIMSAH
 70
     0
  9
$DIMBLK1
  1

  9
$DIMBLK2
  1

  9
$DIMSTYLE
  2
Standard
  9
$DIMCLRD
 70
     0
  9
$DIMCLRE
 70
     0
  9
$DIMCLRT
 70
     0
  9
$DIMTFAC
 40
1.0
  9
$DIMGAP
 40
0.09
  9
$DIMJUST
 70
     0
  9
$DIMSD1
 70
     0
  9
$DIMSD2
 70
     0
  9
$DIMTOLJ
 70
     1
  9
$DIMTZIN
 70
     0
  9
$DIMALTZ
 70
     0
  9
$DIMALTTZ
 70
     0
  9
$DIMUPT
 70
     0
  9
$DIMDEC
 70
     4
  9
$DIMTDEC
 70
     4
  9
$DIMALTU
 70
     2
  9
$DIMALTTD
 70
     2
  9
$DIMTXSTY
  7
Standard
  9
$DIMAUNIT
 70
     0
  9
$DIMADEC
 70
     0
  9
$DIMALTRND
 40
0.0
  9
$DIMAZIN
 70
     0
  9
$DIMDSEP
 70
    46
  9
$DIMATFIT
 70
     3
  9
$DIMFRAC
 70
     0
  9
$DIMLDRBLK
  1

  9
$DIMLUNIT
 70
     2
  9
$DIMLWD
 70
    -2
  9
$DIMLWE
 70
    -2
  9
$DIMTMOVE
 70
     0
  9
$DIMFXL
 40
1.0
  9
$DIMFXLON
 70
     0
  9
$DIMJOGANG
 40
0.7853981633974483
  9
$DIMTFILL
 70
     0
  9
$DIMTFILLCLR
 70
     0
  9
$DIMARCSYM
 70
     0
  9
$DIMLTYPE
  6

  9
$DIMLTEX1
  6

  9
$DIMLTEX2
  6

  9
$DIMTXTDIRECTION
 70
     0
  9
$LUNITS
 70
     2
  9
$LUPREC
 70
     4
  9
$SKETCHINC
 40
0.1
  9
$FILLETRAD
 40
0.0
  9
$AUNITS
 70
     0
  9
$AUPREC
 70
     0
  9
$MENU
  1
.
  9
$ELEVATION
 40
0.0
  9
$PELEVATION
 40
0.0
  9
$THICKNESS
 40
0.0
  9
$LIMCHECK
 70
     0
  9
$CHAMFERA
 40
0.0
  9
$CHAMFERB
 40
0.0
  9
$CHAMFERC
 40
0.0
  9
$CHAMFERD
 40
0.0
  9
$SKPOLY
 70
     0
  9
$TDCREATE
 40
2459629.382534722
  9
$TDUCREATE
 40
2459629.340868056
  9
$TDUPDATE
 40
2459629.482476852
  9
$TDUUPDATE
 40
2459629.440810186
  9
$TDINDWG
 40
0.0999768519
  9
$TDUSRTIMER
 40
0.0999421296
  9
$USRTIMER
 70
     1
  9
$ANGBASE
 50
0.0
  9
$ANGDIR
 70
     0
  9
$PDMODE
 70
     0
  9
$PDSIZE
 40
0.0
  9
$PLINEWID
 40
0.0
  9
$SPLFRAME
 70
     0
  9
$SPLINETYPE
 70
     6
  9
$SPLINESEGS
 70
     8
  9
$HANDSEED
  5
306
  9
$SURFTAB1
 70
     6
  9
$SURFTAB2
 70
     6
  9
$SURFTYPE
 70
     6
  9
$SURFU
 70
     6
  9
$SURFV
 70
     6
  9
$UCSBASE
  2

  9
$UCSNAME
  2

  9
$UCSORG
 10
0.0
 20
0.0
 30
0.0
  9
$UCSXDIR
 10
1.0
 20
0.0
 30
0.0
  9
$UCSYDIR
 10
0.0
 20
1.0
 30
0.0
  9
$UCSORTHOREF
  2

  9
$UCSORTHOVIEW
 70
     0
  9
$UCSORGTOP
 10
0.0
 20
0.0
 30
0.0
  9
$UCSORGBOTTOM
 10
0.0
 20
0.0
 30
0.0
  9
$UCSORGLEFT
 10
0.0
 20
0.0
 30
0.0
  9
$UCSORGRIGHT
 10
0.0
 20
0.0
 30
0.0
  9
$UCSORGFRONT
 10
0.0
 20
0.0
 30
0.0
  9
$UCSORGBACK
 10
0.0
 20
0.0
 30
0.0
  9
$PUCSBASE
  2

  9
$PUCSNAME
  2

  9
$PUCSORG
 10
0.0
 20
0.0
 30
0.0
  9
$PUCSXDIR
 10
1.0
 20
0.0
 30
0.0
  9
$PUCSYDIR
 10
0.0
 20
1.0
 30
0.0
  9
$PUCSORTHOREF
  2

  9
$PUCSORTHOVIEW
 70
     0
  9
$PUCSORGTOP
 10
0.0
 20
0.0
 30
0.0
  9
$PUCSORGBOTTOM
 10
0.0
 20
0.0
 30
0.0
  9
$PUCSORGLEFT
 10
0.0
 20
0.0
 30
0.0
  9
$PUCSORGRIGHT
 10
0.0
 20
0.0
 30
0.0
  9
$PUCSORGFRONT
 10
0.0
 20
0.0
 30
0.0
  9
$PUCSORGBACK
 10
0.0
 20
0.0
 30
0.0
  9
$USERI1
 70
     0
  9
$USERI2
 70
     0
  9
$USERI3
 70
     0
  9
$USERI4
 70
     0
  9
$USERI5
 70
     0
  9
$USERR1
 40
0.0
  9
$USERR2
 40
0.0
  9
$USERR3
 40
0.0
  9
$USERR4
 40
0.0
  9
$USERR5
 40
0.0
  9
$WORLDVIEW
 70
     1
  9
$SHADEDGE
 70
     3
  9
$SHADEDIF
 70
    70
  9
$TILEMODE
 70
     1
  9
$MAXACTVP
 70
    64
  9
$PINSBASE
 10
0.0
 20
0.0
 30
0.0
  9
$PLIMCHECK
 70
     0
  9
$PEXTMIN
 10
0.0
 20
0.0
 30
0.0
  9
$PEXTMAX
 10
0.0
 20
0.0
 30
0.0
  9
$PLIMMIN
 10
0.0
 20
0.0
  9
$PLIMMAX
 10
12.0
 20
9.0
  9
$UNITMODE
 70
     0
  9
$VISRETAIN
 70
     1
  9
$PLINEGEN
 70
     0
  9
$PSLTSCALE
 70
     1
  9
$TREEDEPTH
 70
  3020
  9
$CMLSTYLE
  2
Standard
  9
$CMLJUST
 70
     0
  9
$CMLSCALE
 40
1.0
  9
$PROXYGRAPHICS
 70
     1
  9
$MEASUREMENT
 70
     1
  9
$CELWEIGHT
370
    -1
  9
$ENDCAPS
280
     0
  9
$JOINSTYLE
280
     0
  9
$LWDISPLAY
290
     0
  9
$INSUNITS
 70
     1
  9
$HYPERLINKBASE
  1

  9
$STYLESHEET
  1

  9
$XEDIT
290
     1
  9
$CEPSNTYPE
380
     0
  9
$PSTYLEMODE
290
     1
  9
$FINGERPRINTGUID
  2
{7D90DE6F-AAD3-5544-9AAB-84D88900248D}
  9
$VERSIONGUID
  2
{62E2F6ED-8FCA-F84E-9FC3-2C33479AB0CB}
  9
$EXTNAMES
290
     1
  9
$PSVPSCALE
 40
0.0
  9
$OLESTARTUP
290
     0
  9
$SORTENTS
280
   127
  9
$INDEXCTL
280
     0
  9
$HIDETEXT
280
     1
  9
$XCLIPFRAME
280
     2
  9
$HALOGAP
280
     0
  9
$OBSCOLOR
 70
   257
  9
$OBSLTYPE
280
     0
  9
$INTERSECTIONDISPLAY
280
     0
  9
$INTERSECTIONCOLOR
 70
   257
  9
$DIMASSOC
280
     2
  9
$PROJECTNAME
  1

  9
$CAMERADISPLAY
290
     0
  9
$LENSLENGTH
 40
50.0
  9
$CAMERAHEIGHT
 40
0.0
  9
$STEPSPERSEC
 40
2.0
  9
$STEPSIZE
 40
100.0
  9
$3DDWFPREC
 40
2.0
  9
$PSOLWIDTH
 40
0.25
  9
$PSOLHEIGHT
 40
4.0
  9
$LOFTANG1
 40
1.570796326794896
  9
$LOFTANG2
 40
1.570796326794896
  9
$LOFTMAG1
 40
0.0
  9
$LOFTMAG2
 40
0.0
  9
$LOFTPARAM
 70
     7
  9
$LOFTNORMALS
280
     1
  9
$LATITUDE
 40
37.795
  9
$LONGITUDE
 40
-122.394
  9
$NORTHDIRECTION
 40
0.0
  9
$TIMEZONE
 70
 -8000
  9
$LIGHTGLYPHDISPLAY
280
     1
  9
$TILEMODELIGHTSYNCH
280
     1
  9
$CMATERIAL
347
96
  9
$SOLIDHIST
280
     0
  9
$SHOWHIST
280
     1
  9
$DWFFRAME
280
     2
  9
$DGNFRAME
280
     0
  9
$REALWORLDSCALE
290
     1
  9
$INTERFERECOLOR
 62
     1
  9
$INTERFEREOBJVS
345
A3
  9
$INTERFEREVPVS
346
A0
  9
$CSHADOW
280
     0
  9
$SHADOWPLANELOCATION
 40
0.0
  0
ENDSEC
  0
SECTION
  2
CLASSES
  0
CLASS
  1
ACDBDICTIONARYWDFLT
  2
AcDbDictionaryWithDefault
  3
ObjectDBX Classes
 90
        0
 91
        1
280
     0
281
     0
  0
CLASS
  1
DICTIONARYVAR
  2
AcDbDictionaryVar
  3
ObjectDBX Classes
 90
        0
 91
        9
280
     0
281
     0
  0
CLASS
  1
TABLESTYLE
  2
AcDbTableStyle
  3
ObjectDBX Classes
 90
     4095
 91
        2
280
     0
281
     0
  0
CLASS
  1
MATERIAL
  2
AcDbMaterial
  3
ObjectDBX Classes
 90
     1153
 91
        3
280
     0
281
     0
  0
CLASS
  1
VISUALSTYLE
  2
AcDbVisualStyle
  3
ObjectDBX Classes
 90
     4095
 91
       24
280
     0
281
     0
  0
CLASS
  1
SCALE
  2
AcDbScale
  3
ObjectDBX Classes
 90
     1153
 91
       33
280
     0
281
     0
  0
CLASS
  1
MLEADERSTYLE
  2
AcDbMLeaderStyle
  3
ACDB_MLEADERSTYLE_CLASS
 90
     4095
 91
        2
280
     0
281
     0
  0
CLASS
  1
CELLSTYLEMAP
  2
AcDbCellStyleMap
  3
ObjectDBX Classes
 90
     1152
 91
        6
280
     0
281
     0
  0
CLASS
  1
EXACXREFPANELOBJECT
  2
ExAcXREFPanelObject
  3
EXAC_ESW
 90
     1025
 91
        0
280
     0
281
     0
  0
CLASS
  1
NPOCOLLECTION
  2
AcDbImpNonPersistentObjectsCollection
  3
ObjectDBX Classes
 90
     1153
 91
        0
280
     0
281
     0
  0
CLASS
  1
LAYER_INDEX
  2
AcDbLayerIndex
  3
ObjectDBX Classes
 90
        0
 91
        0
280
     0
281
     0
  0
CLASS
  1
SPATIAL_INDEX
  2
AcDbSpatialIndex
  3
ObjectDBX Classes
 90
        0
 91
        0
280
     0
281
     0
  0
CLASS
  1
IDBUFFER
  2
AcDbIdBuffer
  3
ObjectDBX Classes
 90
        0
 91
        0
280
     0
281
     0
  0
CLASS
  1
ACDBSECTIONVIEWSTYLE
  2
AcDbSectionViewStyle
  3
ObjectDBX Classes
 90
     1025
 91
        2
280
     0
281
     0
  0
CLASS
  1
ACDBDETAILVIEWSTYLE
  2
AcDbDetailViewStyle
  3
ObjectDBX Classes
 90
     1025
 91
        2
280
     0
281
     0
  0
CLASS
  1
DMMAPMANAGER
  2
AcMapDMMapManager
  3
AcMapDisplayManagement
 90
     1024
 91
        1
280
     0
281
     0
  0
CLASS
  1
DMSTYLELIBRARY
  2
AcMapDMStyleLibrary
  3
AcMapDisplayManagement
 90
     1024
 91
        1
280
     0
281
     0
  0
CLASS
  1
DMSTYLECATEGORY
  2
AcMapDMStyleCategory
  3
AcMapDisplayManagement
 90
     1024
 91
        1
280
     0
281
     0
  0
CLASS
  1
DATATABLE
  2
AcDbDataTable
  3
ObjectDBX Classes
 90
        0
 91
        1
280
     0
281
     0
  0
CLASS
  1
MAPRESOURCEMANAGEROBJECT
  2
AcMapResourceManager
  3
AcMapSharedComponents
 90
     1024
 91
        1
280
     0
281
     0
  0
CLASS
  1
MAPGWSUNDOOBJECT
  2
AcMapGWSUndoRecorder
  3
AcMapFeatureSourceManager
 90
     1025
 91
        1
280
     0
281
     0
  0
CLASS
  1
DMMAP
  2
AcMapDMMap
  3
AcMapDisplayManagement
 90
     1024
 91
        1
280
     0
281
     0
  0
CLASS
  1
DMBASEELEMENT
  2
AcMapDMBaseElement
  3
AcMapDisplayManagement
 90
     1024
 91
        1
280
     0
281
     0
  0
CLASS
  1
DMDEFAULTSTYLE
  2
AcMapDMDefaultStyle
  3
AcMapDisplayManagement
 90
     1024
 91
        1
280
     0
281
     0
  0
CLASS
  1
DMSTYLEREFERENCE
  2
AcMapDMStyleReference
  3
AcMapDisplayManagement
 90
     1024
 91
        1
280
     0
281
     0
  0
CLASS
  1
DMSURROGATESTYLESETS
  2
AcMapDMSurrogateStyleSets
  3
AcMapDisplayManagement
 90
     1153
 91
        1
280
     0
281
     0
  0
CLASS
  1
SORTENTSTABLE
  2
AcDbSortentsTable
  3
ObjectDBX Classes
 90
        0
 91
        1
280
     0
281
     0
  0
CLASS
  1
DMSTYLIZEDENTITIESTABLE
  2
AcMapDMStylizedEntitiesTable
  3
AcMapDisplayManagement
 90
     1024
 91
        1
280
     0
281
     0
  0
CLASS
  1
SUN
  2
AcDbSun
  3
SCENEOE
 90
     1153
 91
        1
280
     0
281
     0
  0
ENDSEC
  0
SECTION
  2
TABLES
  0
TABLE
  2
VPORT
  5
8
330
0
100
AcDbSymbolTable
 70
     1
1001
ACAD
1000
DbSaveVer
1071
      122
  0
VPORT
  5
94
330
8
100
AcDbSymbolTableRecord
100
AcDbViewportTableRecord
  2
*Active
 70
     0
 10
0.0
 20
0.0
 11
1.0
 21
1.0
 12
70680.09581853027
 22
341886.1342910563
 13
0.0
 23
0.0
 14
0.5
 24
0.5
 15
0.5
 25
0.5
 16
0.0
 26
0.0
 36
1.0
 17
0.0
 27
0.0
 37
0.0
 40
122.7758169811568
 41
1.778735632183908
 42
50.0
 43
0.0
 44
0.0
 50
0.0
 51
0.0
 71
     0
 72
  1000
 73
     1
 74
     3
 75
     0
 76
     0
 77
     0
 78
     0
281
     0
 65
     1
110
0.0
120
0.0
130
0.0
111
1.0
121
0.0
131
0.0
112
0.0
122
1.0
132
0.0
 79
     0
146
0.0
348
9F
 60
     3
 61
     5
292
     1
282
     1
141
0.0
142
0.0
 63
   250
421
  3355443
361
217
1001
ACAD_NAV_VCDISPLAY
1070
     3
  0
ENDTAB
  0
TABLE
  2
LTYPE
  5
5
330
0
100
AcDbSymbolTable
 70
     1
  0
LTYPE
  5
14
330
5
100
AcDbSymbolTableRecord
100
AcDbLinetypeTableRecord
  2
ByBlock
 70
     0
  3

 72
    65
 73
     0
 40
0.0
  0
LTYPE
  5
15
330
5
100
AcDbSymbolTableRecord
100
AcDbLinetypeTableRecord
  2
ByLayer
 70
     0
  3

 72
    65
 73
     0
 40
0.0
  0
LTYPE
  5
16
330
5
100
AcDbSymbolTableRecord
100
AcDbLinetypeTableRecord
  2
Continuous
 70
     0
  3
Solid line
 72
    65
 73
     0
 40
0.0
  0
ENDTAB
  0
TABLE
  2
LAYER
  5
2
102
{ACAD_XDICTIONARY
360
18E
102
}
330
0
100
AcDbSymbolTable
 70
     3
  0
LAYER
  5
10
102
{ACAD_XDICTIONARY
360
E6
102
}
330
2
100
AcDbSymbolTableRecord
100
AcDbLayerTableRecord
  2
0
 70
     0
 62
     7
  6
Continuous
370
    -3
390
F
347
98
348
0
  0
LAYER
  5
267
330
2
100
AcDbSymbolTableRecord
100
AcDbLayerTableRecord
  2
Straßenverlauf_ACHS
 70
     0
 62
     2
  6
Continuous
370
    -3
390
F
347
98
348
0
  0
LAYER
  5
274
330
2
100
AcDbSymbolTableRecord
100
AcDbLayerTableRecord
  2
Straßenverlauf_FBRD
 70
     0
 62
     1
  6
Continuous
370
    -3
390
F
347
98
348
0
  0
ENDTAB
  0
TABLE
  2
STYLE
  5
3
330
0
100
AcDbSymbolTable
 70
     3
  0
STYLE
  5
11
330
3
100
AcDbSymbolTableRecord
100
AcDbTextStyleTableRecord
  2
Standard
 70
     0
 40
0.0
 41
1.0
 50
0.0
 71
     0
 42
0.2
  3
arial.ttf
  4

1001
ACAD
1000
Arial
1071
       34
  0
STYLE
  5
DC
330
3
100
AcDbSymbolTableRecord
100
AcDbTextStyleTableRecord
  2
Beschriftung
 70
     0
 40
0.0
 41
1.0
 50
0.0
 71
     0
 42
0.2
  3
arial.ttf
  4

1001
AcadAnnotative
1000
AnnotativeData
1002
{
1070
     1
1070
     1
1002
}
1001
ACAD
1000
Arial
1071
       34
  0
STYLE
  5
20C
330
3
100
AcDbSymbolTableRecord
100
AcDbTextStyleTableRecord
  2
Legend
 70
     0
 40
0.0
 41
1.0
 50
0.0
 71
     0
 42
0.2
  3
calibri.ttf
  4

1001
ACAD
1000
Calibri
1071
       80
  0
ENDTAB
  0
TABLE
  2
VIEW
  5
6
330
0
100
AcDbSymbolTable
 70
     2
  0
ENDTAB
  0
TABLE
  2
UCS
  5
7
330
0
100
AcDbSymbolTable
 70
     0
  0
ENDTAB
  0
TABLE
  2
APPID
  5
9
330
0
100
AcDbSymbolTable
 70
    13
  0
APPID
  5
12
330
9
100
AcDbSymbolTableRecord
100
AcDbRegAppTableRecord
  2
ACAD
 70
     0
  0
APPID
  5
DD
330
9
100
AcDbSymbolTableRecord
100
AcDbRegAppTableRecord
  2
AcadAnnoPO
 70
     0
  0
APPID
  5
DE
330
9
100
AcDbSymbolTableRecord
100
AcDbRegAppTableRecord
  2
AcadAnnotative
 70
     0
  0
APPID
  5
DF
330
9
100
AcDbSymbolTableRecord
100
AcDbRegAppTableRecord
  2
ACAD_DSTYLE_DIMJAG
 70
     0
  0
APPID
  5
E0
330
9
100
AcDbSymbolTableRecord
100
AcDbRegAppTableRecord
  2
ACAD_DSTYLE_DIMTALN
 70
     0
  0
APPID
  5
107
330
9
100
AcDbSymbolTableRecord
100
AcDbRegAppTableRecord
  2
ACAD_MLEADERVER
 70
     0
  0
APPID
  5
1A6
330
9
100
AcDbSymbolTableRecord
100
AcDbRegAppTableRecord
  2
ACAD_NAV_VCDISPLAY
 70
     0
  0
APPID
  5
210
330
9
100
AcDbSymbolTableRecord
100
AcDbRegAppTableRecord
  2
AcMapDMDisplayStyleRegapp
 70
     0
  0
APPID
  5
21A
330
9
100
AcDbSymbolTableRecord
100
AcDbRegAppTableRecord
  2
ADE
 70
     0
  0
APPID
  5
21F
330
9
100
AcDbSymbolTableRecord
100
AcDbRegAppTableRecord
  2
DCO15
 70
     0
  0
APPID
  5
221
330
9
100
AcDbSymbolTableRecord
100
AcDbRegAppTableRecord
  2
MapGWS
 70
     0
  0
APPID
  5
265
330
9
100
AcDbSymbolTableRecord
100
AcDbRegAppTableRecord
  2
AcMap_E615D161-C9D7-11d3-839F-0060B0FB6B57
 70
     0
  0
APPID
  5
2F5
330
9
100
AcDbSymbolTableRecord
100
AcDbRegAppTableRecord
  2
ADE_PROJECTION
 70
     0
  0
ENDTAB
  0
TABLE
  2
DIMSTYLE
  5
A
330
0
100
AcDbSymbolTable
 70
     2
100
AcDbDimStyleTable
 71
     2
340
27
340
E1
  0
DIMSTYLE
105
27
330
A
100
AcDbSymbolTableRecord
100
AcDbDimStyleTableRecord
  2
Standard
 70
     0
340
11
  0
DIMSTYLE
105
E1
330
A
100
AcDbSymbolTableRecord
100
AcDbDimStyleTableRecord
  2
Beschriftung
 70
     0
 40
0.0
340
11
1001
AcadAnnotative
1000
AnnotativeData
1002
{
1070
     1
1070
     1
1002
}
1001
ACAD_DSTYLE_DIMJAG
1070
   388
1040
1.5
1001
ACAD_DSTYLE_DIMTALN
1070
   392
1070
     0
  0
ENDTAB
  0
TABLE
  2
BLOCK_RECORD
  5
1
330
0
100
AcDbSymbolTable
 70
     1
  0
BLOCK_RECORD
  5
1F
102
{ACAD_XDICTIONARY
360
15D
102
}
330
1
100
AcDbSymbolTableRecord
100
AcDbBlockTableRecord
  2
*Model_Space
340
22
 70
     0
280
     1
281
     0
  0
BLOCK_RECORD
  5
58
330
1
100
AcDbSymbolTableRecord
100
AcDbBlockTableRecord
  2
*Paper_Space
340
59
 70
     0
280
     1
281
     0
  0
BLOCK_RECORD
  5
5D
330
1
100
AcDbSymbolTableRecord
100
AcDbBlockTableRecord
  2
*Paper_Space0
340
5E
 70
     0
280
     1
281
     0
  0
ENDTAB
  0
ENDSEC
  0
SECTION
  2
BLOCKS
  0
BLOCK
  5
20
330
1F
100
AcDbEntity
  8
0
100
AcDbBlockBegin
  2
*Model_Space
 70
     0
 10
0.0
 20
0.0
 30
0.0
  3
*Model_Space
  1

  0
ENDBLK
  5
21
330
1F
100
AcDbEntity
  8
0
100
AcDbBlockEnd
  0
BLOCK
  5
5A
330
58
100
AcDbEntity
 67
     1
  8
0
100
AcDbBlockBegin
  2
*Paper_Space
 70
     0
 10
0.0
 20
0.0
 30
0.0
  3
*Paper_Space
  1

  0
ENDBLK
  5
5B
330
58
100
AcDbEntity
 67
     1
  8
0
100
AcDbBlockEnd
  0
BLOCK
  5
5F
330
5D
100
AcDbEntity
 67
     1
  8
0
100
AcDbBlockBegin
  2
*Paper_Space0
 70
     0
 10
0.0
 20
0.0
 30
0.0
  3
*Paper_Space0
  1

  0
ENDBLK
  5
60
330
5D
100
AcDbEntity
 67
     1
  8
0
100
AcDbBlockEnd
  0
ENDSEC
  0
SECTION
  2
ENTITIES
  0
LWPOLYLINE
  5
268
330
1F
100
AcDbEntity
  8
Straßenverlauf_ACHS
100
AcDbPolyline
 90
       81
 70
     0
 43
0.0
 10
70207.87440000009
 20
341825.4553999994
 10
70216.21410000045
 20
341813.079500001
 10
70217.85879999958
 20
341810.6414000001
 10
70219.03729999997
 20
341808.9024
 10
70220.53930000029
 20
341806.7060000003
 10
70221.8956000004
 20
341804.7492999993
 10
70223.39740000013
 20
341802.6209999994
 10
70224.82320000045
 20
341800.6447999999
 10
70226.35950000025
 20
341798.5711000003
 10
70227.85319999978
 20
341796.6154999994
 10
70229.44579999987
 20
341794.6017000005
 10
70231.01690000016
 20
341792.6904000007
 10
70232.68300000019
 20
341790.7481999993
 10
70234.34250000026
 20
341788.9017999992
 10
70236.09649999999
 20
341787.0464999993
 10
70237.85479999985
 20
341785.2855999991
 10
70239.70789999981
 20
341783.5358000007
 10
70241.57340000011
 20
341781.8824000005
 10
70247.47213801626
 20
341777.3121716833
 10
70253.79582742456
 20
341773.3507263255
 10
70260.4818696489
 20
341770.0372785095
 10
70267.46407916125
 20
341767.4046282515
 10
70274.67333865597
 20
341765.4788363125
 10
70282.03828324627
 20
341764.2789662207
 10
70289.48600690929
 20
341763.8168955615
 10
70296.94278418731
 20
341764.0971983995
 10
70304.3348000003
 20
341765.1171000005
 10
70307.74000000022
 20
341765.8414999992
 10
70311.18580000009
 20
341766.7346999999
 10
70314.51150000002
 20
341767.7441000007
 10
70317.88150000013
 20
341768.9091999996
 10
70321.11670000013
 20
341770.1567000002
 10
70324.40809999965
 20
341771.5495999996
 10
70327.54959999956
 20
341772.9890000001
 10
70330.76900000032
 20
341774.5683999994
 10
70333.81819999963
 20
341776.1541000009
 10
70336.98139999993
 20
341777.8825000004
 10
70339.93890000042
 20
341779.5668000002
 10
70343.07359999977
 20
341781.4134
 10
70345.91860000044
 20
341783.1346000005
 10
70349.08129999973
 20
341785.0863000006
 10
70351.56909999996
 20
341786.6417999994
 10
70355.04559999983
 20
341788.8296000008
 10
70362.38829999976
 20
341793.4560000003
 10
70367.63549999986
 20
341796.7566
 10
70374.28830000013
 20
341800.9272000008
 10
70380.24930000026
 20
341804.6453000009
 10
70386.78369999956
 20
341808.6934999992
 10
70392.91079999972
 20
341812.4573
 10
70399.41830000001
 20
341816.4140000008
 10
70405.64290000032
 20
341820.1535999999
 10
70427.92075083039
 20
341833.1353328787
 10
70450.46689598741
 20
341845.6453034904
 10
70473.27134676036
 20
341857.6779694912
 10
70496.32400000002
 20
341869.2280000001
 10
70499.69079999998
 20
341870.8636000007
 10
70502.77749999985
 20
341872.3478999995
 10
70506.1091
 20
341873.929300001
 10
70509.26219999976
 20
341875.4024
 10
70516.03949999996
 20
341878.4739999995
 10
70522.37150000036
 20
341881.2029
 10
70529.19079999998
 20
341883.9590000008
 10
70535.73120000027
 20
341886.3984999993
 10
70542.65730000008
 20
341888.7375000008
 10
70549.38879999984
 20
341890.7469999995
 10
70559.0994486057
 20
341893.1588987042
 10
70568.92911338253
 20
341895.0274923154
 10
70578.84742133746
 20
341896.3470070062
 10
70588.82372557627
 20
341897.1133655665
 10
70598.82720000017
 20
341897.3242000006
 10
70604.94340000022
 20
341897.1832999997
 10
70611.35059999954
 20
341896.8400999997
 10
70617.38970000018
 20
341896.3582000007
 10
70623.83260000031
 20
341895.7027000003
 10
70629.70999999996
 20
341895.0011999998
 10
70636.26809999998
 20
341894.1315000001
 10
70639.19909999985
 20
341893.7208999992
 10
70642.47329999972
 20
341893.2511999999
 10
70645.0577999996
 20
341892.8748000003
 10
70648.67470000032
 20
341892.3440000006
 10
70657.04590000025
 20
341891.113
1001
AcMap_E615D161-C9D7-11d3-839F-0060B0FB6B57
1071
        1
1071
        1
  0
LWPOLYLINE
  5
269
330
1F
100
AcDbEntity
  8
Straßenverlauf_ACHS
100
AcDbPolyline
 90
        7
 70
     0
 43
0.0
 10
70797.94429999962
 20
341883.7299000006
 10
70805.81520000007
 20
341864.7029999998
 10
70807.27006016959
 20
341861.5752091664
 10
70808.98900000006
 20
341858.5844000001
 10
70816.82349999994
 20
341846.2959000003
 10
70820.04899805029
 20
341841.5501445313
 10
70823.52199999988
 20
341836.9824000001
1001
AcMap_E615D161-C9D7-11d3-839F-0060B0FB6B57
1071
        1
1071
        1
  0
LWPOLYLINE
  5
26A
330
1F
100
AcDbEntity
  8
Straßenverlauf_ACHS
100
AcDbPolyline
 90
       19
 70
     0
 43
0.0
 10
70797.94429999962
 20
341883.7299000006
 10
70801.08550000004
 20
341885.0548
 10
70803.71800000034
 20
341886.2744999993
 10
70806.3702999996
 20
341887.6032999996
 10
70808.92169999983
 20
341888.9739999995
 10
70811.50129999965
 20
341890.4491000008
 10
70813.9737999998
 20
341891.9443999995
 10
70816.48720000032
 20
341893.5424000006
 10
70818.8853000002
 20
341895.1366000008
 10
70821.3432
 20
341896.8364000004
 10
70823.67200000025
 20
341898.5035999995
 10
70826.0893000001
 20
341900.2869000007
 10
70828.35089999996
 20
341901.9984000009
 10
70830.74969999958
 20
341903.8524999991
 10
70832.9282999998
 20
341905.5648999997
 10
70835.35140000004
 20
341907.4936999996
 10
70837.25789999962
 20
341909.0239000004
 10
70839.92329999991
 20
341911.1722
 10
70905.16949999984
 20
341963.8151999992
1001
AcMap_E615D161-C9D7-11d3-839F-0060B0FB6B57
1071
        1
1071
        1
  0
LWPOLYLINE
  5
26B
330
1F
100
AcDbEntity
  8
Straßenverlauf_ACHS
100
AcDbPolyline
 90
       21
 70
     0
 43
0.0
 10
70662.84420000017
 20
341890.2603999991
 10
70728.13269999996
 20
341880.6601999998
 10
70731.51960000023
 20
341880.1638999992
 10
70733.93950000032
 20
341879.8144000005
 10
70737.00650000013
 20
341879.3840999994
 10
70739.75289999973
 20
341879.015900001
 10
70742.76099999994
 20
341878.6375999991
 10
70745.57849999982
 20
341878.3124000002
 10
70748.56659999955
 20
341878.0044
 10
70751.41949999984
 20
341877.7514999994
 10
70754.4001000002
 20
341877.5361000002
 10
70757.27560000029
 20
341877.3812000007
 10
70760.25229999982
 20
341877.2817000002
 10
70763.14159999974
 20
341877.2499000002
 10
70766.11290000006
 20
341877.2897999995
 10
70769.00700000021
 20
341877.4054000005
 10
70771.9665000001
 20
341877.6083000004
 10
70774.85360000003
 20
341877.8950999994
 10
70782.71273050647
 20
341879.1556673966
 10
70790.42975030438
 20
341881.1056848117
 10
70797.94429999962
 20
341883.7299000006
1001
AcMap_E615D161-C9D7-11d3-839F-0060B0FB6B57
1071
        1
1071
        1
  0
LWPOLYLINE
  5
26C
330
1F
100
AcDbEntity
  8
Straßenverlauf_ACHS
100
AcDbPolyline
 90
       73
 70
     0
 43
0.0
 10
70662.84420000017
 20
341890.2603999991
 10
70664.13639225101
 20
341896.4136188691
 10
70665.97549950179
 20
341902.4260682697
 10
70668.34668434749
 20
341908.2492414342
 10
70671.23081672932
 20
341913.8361586233
 10
70674.60462827066
 20
341919.1417461458
 10
70678.44089999981
 20
341924.1231999993
 10
70680.92069999966
 20
341926.9094999992
 10
70683.59690000024
 20
341929.6267000009
 10
70686.3320000004
 20
341932.1535
 10
70689.2489
 20
341934.6206999999
 10
70692.1799999997
 20
341936.9032000005
 10
70695.28629999981
 20
341939.1424000003
 10
70698.36079999991
 20
341941.2050999999
 10
70701.61479999963
 20
341943.2478
 10
70704.78519999981
 20
341945.1209999993
 10
70708.15560000017
 20
341947.0066
 10
70711.37330000009
 20
341948.7223000005
 10
70714.84329999983
 20
341950.4981999994
 10
70718.03639999963
 20
341952.078400001
 10
70721.62280000001
 20
341953.8083999996
 10
70724.46339999977
 20
341955.1550999992
 10
70728.44639999978
 20
341957.0271000006
 10
70731.2352
 20
341958.3363000006
 10
70733.22559999954
 20
341959.274700001
 10
70735.74280000012
 20
341960.4715999998
 10
70737.9896999998
 20
341961.5537999999
 10
70740.44020000007
 20
341962.7539000008
 10
70742.72329999972
 20
341963.8955000006
 10
70745.12930000015
 20
341965.1284999997
 10
70747.40959999989
 20
341966.3304999993
 10
70749.77199999988
 20
341967.6160000004
 10
70752.02990000043
 20
341968.8883999996
 10
70754.34310000017
 20
341970.2427999992
 10
70756.56309999991
 20
341971.5973000005
 10
70761.08910000045
 20
341974.5547000002
 10
70765.26960000023
 20
341977.5709000007
 10
70771.99083193857
 20
341983.1574207235
 10
70778.19860990974
 20
341989.3094663359
 10
70783.84551638077
 20
341995.9800450112
 10
70788.88841798329
 20
342003.1182041564
 10
70793.28879498386
 20
342010.6694196088
 10
70797.0130355132
 20
342018.5760121135
 10
70800.03269230742
 20
342026.7775879012
 10
70802.32469999976
 20
342035.2115000002
 10
70803.03100000042
 20
342038.6152999998
 10
70803.63819999993
 20
342042.1175999996
 10
70804.12550000008
 20
342045.5537000001
 10
70804.52460000012
 20
342049.0918000005
 10
70804.82180000004
 20
342052.5413000007
 10
70805.04220000002
 20
342056.1032999997
 10
70805.17949999962
 20
342059.5510000009
 10
70805.25129999966
 20
342063.1309999991
 10
70805.25970000029
 20
342066.5628999993
 10
70805.21320000011
 20
342070.1619000007
 10
70805.12449999992
 20
342073.5591000002
 10
70804.98979999963
 20
342077.1894000005
 10
70804.83750000037
 20
342080.5062000007
 10
70804.64290000032
 20
342084.2120999992
 10
70804.47640000004
 20
342087.1370000001
 10
70804.23429999966
 20
342091.2314
 10
70800.03890000004
 20
342161.5273000002
 10
70799.86479999963
 20
342164.4630999994
 10
70799.74340000004
 20
342166.5603
 10
70799.59750000015
 20
342169.2171999999
 10
70799.47730000037
 20
342171.5949000009
 10
70799.26109999977
 20
342176.9122000001
 10
70799.15089999977
 20
342181.6723999996
 10
70799.15199999977
 20
342186.8819999993
 10
70799.29509999975
 20
342191.7533
 10
70799.62719999999
 20
342196.9039999992
 10
70800.14410000015
 20
342201.7980000005
 10
70801.35850000009
 20
342209.2291999999
1001
AcMap_E615D161-C9D7-11d3-839F-0060B0FB6B57
1071
        1
1071
        1
  0
LINE
  5
26D
330
1F
100
AcDbEntity
  8
Straßenverlauf_ACHS
100
AcDbLine
 10
70657.04590000025
 20
341891.113
 30
0.0
 11
70662.84420000017
 21
341890.2603999991
 31
0.0
1001
AcMap_E615D161-C9D7-11d3-839F-0060B0FB6B57
1071
        1
1071
        1
  0
LWPOLYLINE
  5
26E
330
1F
100
AcDbEntity
  8
Straßenverlauf_ACHS
100
AcDbPolyline
 90
       19
 70
     0
 43
0.0
 10
70657.04590000025
 20
341891.113
 10
70658.84520000033
 20
341903.3499999996
 10
70659.9719658352
 20
341908.8478316037
 10
70661.70774845206
 20
341914.1847607115
 10
70664.03068004539
 20
341919.2935514105
 10
70666.91149576611
 20
341924.109841931
 10
70670.31390240718
 20
341928.5729554902
 10
70674.19503563409
 20
341932.6266647136
 10
70678.50600000005
 20
341936.2199000008
 10
70680.43017784816
 20
341937.9227337961
 10
70682.03550595144
 20
341939.9289802931
 10
70683.27487943252
 20
341942.1797705321
 10
70684.11193156006
 20
341944.609059947
 10
70684.52210085178
 20
341947.1455662998
 10
70684.49335177791
 20
341949.7148613035
 10
70684.02652791776
 20
341952.2415545593
 10
70683.13532720672
 20
341954.6515057245
 10
70681.84590000007
 20
341956.8739999998
 10
70666.29519999958
 20
341979.0544000007
1001
AcMap_E615D161-C9D7-11d3-839F-0060B0FB6B57
1071
        1
1071
        1
  0
LINE
  5
26F
330
1F
100
AcDbEntity
  8
Straßenverlauf_ACHS
100
AcDbLine
 10
70719.72009999957
 20
342182.1794000007
 30
0.0
 11
70753.04129999969
 21
342204.9087000005
 31
0.0
1001
AcMap_E615D161-C9D7-11d3-839F-0060B0FB6B57
1071
        1
1071
        1
  0
LWPOLYLINE
  5
270
330
1F
100
AcDbEntity
  8
Straßenverlauf_ACHS
100
AcDbPolyline
 90
       17
 70
     0
 43
0.0
 10
70753.04129999969
 20
342204.9087000005
 10
70759.64960000012
 20
342195.2168000006
 10
70760.89120278815
 20
342193.0350257759
 10
70761.76433017095
 20
342190.6814402509
 10
70762.24608012394
 20
342188.217777686
 10
70762.32381640472
 20
342185.7086596496
 10
70761.99550000019
 20
342183.2199000009
 10
70761.59003190636
 20
342181.9021730914
 10
70760.96433710014
 20
342180.6736314387
 10
70760.1369986514
 20
342179.5707626004
 10
70759.13258842501
 20
342178.6263216652
 10
70757.98093729898
 20
342177.8683584292
 10
70756.71624919056
 20
342177.319384321
 10
70755.37608520349
 20
342176.9957038138
 10
70754.00024806712
 20
342176.9069301844
 10
70752.62959999964
 20
342177.0557000004
 10
70737.10030000005
 20
342180.1130999997
1001
AcMap_E615D161-C9D7-11d3-839F-0060B0FB6B57
1071
        1
1071
        1
  0
LWPOLYLINE
  5
271
330
1F
100
AcDbEntity
  8
Straßenverlauf_ACHS
100
AcDbPolyline
 90
        8
 70
     0
 43
0.0
 10
70753.04129999969
 20
342204.9087000005
 10
70758.81680000015
 20
342208.8484000005
 10
70763.04032883725
 20
342211.2528645197
 10
70767.59667966892
 20
342212.9438147143
 10
70772.36627577904
 20
342213.876873345
 10
70777.22394404966
 20
342214.0275532528
 10
70782.04220000002
 20
342213.3918999993
 10
70801.35850000009
 20
342209.2291999999
1001
AcMap_E615D161-C9D7-11d3-839F-0060B0FB6B57
1071
        1
1071
        1
  0
LINE
  5
272
330
1F
100
AcDbEntity
  8
Straßenverlauf_ACHS
100
AcDbLine
 10
70801.35850000009
 20
342209.2291999999
 30
0.0
 11
70801.97369999997
 21
342209.0965999998
 31
0.0
1001
AcMap_E615D161-C9D7-11d3-839F-0060B0FB6B57
1071
        1
1071
        1
  0
LWPOLYLINE
  5
273
330
1F
100
AcDbEntity
  8
Straßenverlauf_ACHS
100
AcDbPolyline
 90
        8
 70
     0
 43
0.0
 10
70801.35850000009
 20
342209.2291999999
 10
70803.2146350558
 20
342217.0184606111
 10
70805.64278442084
 20
342224.6487888396
 10
70808.62960039815
 20
342232.0782402682
 10
70812.15866426344
 20
342239.265974713
 10
70816.21057652006
 20
342246.1724807238
 10
70820.76306353931
 20
342252.7597927821
 10
70825.79110000003
 20
342258.9916999992
1001
AcMap_E615D161-C9D7-11d3-839F-0060B0FB6B57
1071
        1
1071
        1
  0
LWPOLYLINE
  5
275
330
1F
100
AcDbEntity
  8
Straßenverlauf_FBRD
100
AcDbPolyline
 90
       44
 70
     0
 43
0.0
 10
70821.09410000033
 20
341835.0325000008
 10
70820.95940000005
 20
341835.1969000009
 10
70820.79110000003
 20
341835.4013999998
 10
70820.6222000001
 20
341835.6054999996
 10
70820.45289999991
 20
341835.8092999998
 10
70820.43890000042
 20
341835.8260999993
 10
70820.28299999982
 20
341836.0127000009
 10
70820.11259999965
 20
341836.2158000004
 10
70819.94159999955
 20
341836.4184000008
 10
70819.77579999994
 20
341836.6140999999
 10
70819.77010000032
 20
341836.6207999997
 10
70819.59810000006
 20
341836.8227999993
 10
70819.42540000007
 20
341837.0244999993
 10
70819.25229999981
 20
341837.2258000001
 10
70819.10450000036
 20
341837.3969000001
 10
70819.07859999966
 20
341837.4268999994
 10
70819.01999999955
 20
341837.4943000004
 10
70818.90429999958
 20
341837.6275999993
 10
70818.7293999996
 20
341837.8279999997
 10
70818.55399999954
 20
341838.0281000008
 10
70818.42480000015
 20
341838.1747999993
 10
70818.37799999956
 20
341838.2279000003
 10
70818.20139999967
 20
341838.4274000004
 10
70818.02419999987
 20
341838.6265999992
 10
70817.94099999964
 20
341838.7197999992
 10
70817.76300000027
 20
341838.9186000005
 10
70817.73639999981
 20
341838.9482000005
 10
70817.58430000022
 20
341839.1171000004
 10
70817.40510000009
 20
341839.3154000007
 10
70817.22520000022
 20
341839.5133999996
 10
70817.04480000026
 20
341839.7112000008
 10
70817.03899999987
 20
341839.7174999994
 10
70816.86349999998
 20
341839.9090999999
 10
70816.68200000003
 20
341840.1061000004
 10
70816.49969999958
 20
341840.3030999992
 10
70816.33249999955
 20
341840.4831000008
 10
70816.31670000032
 20
341840.5
 10
70816.13320000004
 20
341840.6965999995
 10
70815.94890000019
 20
341840.893100001
 10
70815.76410000026
 20
341841.0892999992
 10
70815.61649999954
 20
341841.2453000005
 10
70815.57859999966
 20
341841.2852999997
 10
70815.4785000002
 20
341841.3906999994
 10
70815.39230000041
 20
341841.4801000003
1001
AcMap_E615D161-C9D7-11d3-839F-0060B0FB6B57
1071
        1
1071
        2
  0
LWPOLYLINE
  5
276
330
1F
100
AcDbEntity
  8
Straßenverlauf_FBRD
100
AcDbPolyline
 90
      352
 70
     0
 43
0.0
 10
70825.94730000011
 20
341838.9302999992
 10
70822.63056723335
 20
341843.4046889731
 10
70819.55900000036
 20
341848.0507999994
 10
70811.17449999973
 20
341861.2068000007
 10
70810.61169525455
 20
341862.2438899648
 10
70810.19919999968
 20
341863.3494000007
 10
70809.32670000009
 20
341866.3248999994
 10
70808.89641075304
 20
341869.1525600851
 10
70808.88049874107
 20
341872.0127274234
 10
70809.27929999958
 20
341874.8450000007
 10
70809.7447112863
 20
341876.8409522839
 10
70810.39989999961
 20
341878.7829
 10
70810.93699999992
 20
341880.1314000003
 10
70811.46850000043
 20
341881.1139000002
 10
70811.58569999971
 20
341881.3346999995
 10
70811.70469999965
 20
341881.5545000005
 10
70811.8256000001
 20
341881.7733999994
 10
70811.94840000011
 20
341881.9911000002
 10
70812.07299999985
 20
341882.2079000007
 10
70812.19940000027
 20
341882.4234999996
 10
70812.32770000026
 20
341882.6381000001
 10
70812.45779999997
 20
341882.8516000007
 10
70812.58970000036
 20
341883.0639999993
 10
70812.72429999988
 20
341883.2747000009
 10
70812.86409999989
 20
341883.4818999991
 10
70813.00910000037
 20
341883.6854999997
 10
70813.15940000023
 20
341883.8852999993
 10
70813.31469999999
 20
341884.0811999999
 10
70813.47499999963
 20
341884.2730000001
 10
70813.5382000003
 20
341884.3467999995
 10
70813.70120000001
 20
341884.5364999995
 10
70813.86459999997
 20
341884.7256000005
 10
70814.02859999984
 20
341884.9143000004
 10
70814.19319999963
 20
341885.1024999991
 10
70814.35819999967
 20
341885.2903000005
 10
70814.52400000021
 20
341885.4774999991
 10
70814.69000000041
 20
341885.6643000003
 10
70814.8563000001
 20
341885.8509999998
 10
70815.02280000038
 20
341886.0374999996
 10
70815.18960000016
 20
341886.2237
 10
70815.35659999959
 20
341886.4098000006
 10
70815.52379999962
 20
341886.5955999997
 10
70815.69120000024
 20
341886.7813000009
 10
70815.85890000034
 20
341886.9667000007
 10
70815.9682
 20
341887.0868999996
 10
70816.13819999993
 20
341887.2701999993
 10
70816.31020000018
 20
341887.4516000002
 10
70816.48429999966
 20
341887.6309999991
 10
70816.6604000004
 20
341887.8083999995
 10
70816.83860000037
 20
341887.9837999996
 10
70817.0186999999
 20
341888.1571999993
 10
70817.20079999976
 20
341888.3285000008
 10
70817.38489999994
 20
341888.4977000002
 10
70817.57079999987
 20
341888.6646999997
 10
70817.7583999997
 20
341888.8300999999
 10
70817.94670000021
 20
341888.9944000002
 10
70818.13599999994
 20
341889.1578000002
 10
70818.32610000017
 20
341889.3201000002
 10
70818.51709999982
 20
341889.4814
 10
70818.7089999998
 20
341889.6416999996
 10
70818.90160000044
 20
341889.801000001
 10
70819.09520000033
 20
341889.9592000004
 10
70819.28959999978
 20
341890.1164999996
 10
70819.48479999974
 20
341890.2726000008
 10
70819.6808000002
 20
341890.4277999998
 10
70819.87770000007
 20
341890.5819000006
 10
70820.07529999968
 20
341890.7348999996
 10
70820.27379999962
 20
341890.8869000003
 10
70820.39020000025
 20
341890.9684999995
 10
70820.40689999983
 20
341890.9802000001
 10
70820.59470000024
 20
341891.1121999995
 10
70820.79899999965
 20
341891.2563000005
 10
70821.00310000032
 20
341891.4006999993
 10
70821.20679999981
 20
341891.5456000008
 10
70821.41029999964
 20
341891.6908
 10
70821.61359999981
 20
341891.8364000004
 10
70821.81659999955
 20
341891.9823000003
 10
70822.01929999981
 20
341892.1285999995
 10
70822.22169999965
 20
341892.2752999999
 10
70822.42389999982
 20
341892.4222999998
 10
70822.62590000033
 20
341892.5695999992
 10
70822.82780000008
 20
341892.7171
 10
70823.02940000035
 20
341892.8649000005
 10
70823.23080000001
 20
341893.0131000001
 10
70823.43190000019
 20
341893.1615999993
 10
70823.63269999996
 20
341893.3104999997
 10
70823.83320000023
 20
341893.4597999994
 10
70824.0334999999
 20
341893.6094000005
 10
70824.23350000008
 20
341893.7594000008
 10
70824.43329999969
 20
341893.9097000007
 10
70824.63269999996
 20
341894.0603999999
 10
70824.83189999964
 20
341894.2115000002
 10
70824.95320000034
 20
341894.3040999994
 10
70825.15170000028
 20
341894.4561000001
 10
70825.34989999979
 20
341894.6085000001
 10
70825.54779999982
 20
341894.7611999996
 10
70825.74540000036
 20
341894.9143000003
 10
70825.94280000031
 20
341895.0678000003
 10
70826.13989999983
 20
341895.2215999998
 10
70826.33669999987
 20
341895.3757000007
 10
70826.53330000024
 20
341895.5302000008
 10
70826.72950000036
 20
341895.6851000004
 10
70826.9254999999
 20
341895.8402999994
 10
70827.12139999959
 20
341895.9956000001
 10
70827.31709999963
 20
341896.1511000004
 10
70827.51260000001
 20
341896.3070999999
 10
70827.70770000014
 20
341896.4633000009
 10
70827.90259999968
 20
341896.6198999993
 10
70828.09719999972
 20
341896.7769000009
 10
70828.29140000045
 20
341896.9342
 10
70828.48550000042
 20
341897.0919000004
 10
70828.67920000013
 20
341897.2499000002
 10
70828.87260000035
 20
341897.4082999993
 10
70829.06579999998
 20
341897.5669999998
 10
70829.18099999987
 20
341897.6601
 10
70829.37540000025
 20
341897.8172999993
 10
70829.56979999971
 20
341897.9744000007
 10
70829.76429999992
 20
341898.1316
 10
70829.95870000031
 20
341898.2886999995
 10
70830.15309999976
 20
341898.4459000006
 10
70830.34759999998
 20
341898.6030000001
 10
70830.54200000036
 20
341898.7600999996
 10
70830.73649999965
 20
341898.9173000008
 10
70830.93090000003
 20
341899.0744000003
 10
70831.12530000042
 20
341899.2315999997
 10
70831.3197999997
 20
341899.3886999991
 10
70831.51420000009
 20
341899.5459000003
 10
70831.70870000031
 20
341899.7029999998
 10
70831.90309999976
 20
341899.8600999993
 10
70832.09750000015
 20
341900.0173000004
 10
70832.29200000037
 20
341900.1743999999
 10
70832.48639999982
 20
341900.3315999992
 10
70832.68090000004
 20
341900.4887000006
 10
70832.87530000042
 20
341900.6458000001
 10
70833.06969999988
 20
341900.8029999994
 10
70833.26420000009
 20
341900.9601000008
 10
70833.45859999955
 20
341901.1172000003
 10
70833.65309999976
 20
341901.2743999996
 10
70833.84750000015
 20
341901.4315000009
 10
70834.04200000036
 20
341901.5886000004
 10
70834.23639999982
 20
341901.7457999997
 10
70834.43090000003
 20
341901.9028999992
 10
70834.62530000042
 20
341902.0600000005
 10
70834.8197999997
 20
341902.2171999998
 10
70835.01420000009
 20
341902.3742999993
 10
70835.20870000031
 20
341902.5314000007
 10
70835.40309999976
 20
341902.6886000001
 10
70835.59759999998
 20
341902.8456999996
 10
70835.79200000037
 20
341903.0028000009
 10
70835.98649999965
 20
341903.1599000003
 10
70836.18090000004
 20
341903.3170999997
 10
70836.37540000025
 20
341903.4741999992
 10
70836.56979999971
 20
341903.6313000005
 10
70836.76429999992
 20
341903.7884
 10
70836.9587000003
 20
341903.9455999993
 10
70837.15319999959
 20
341904.1027000007
 10
70837.34759999998
 20
341904.2598000002
 10
70837.54220000002
 20
341904.4167999998
 10
70837.73680000007
 20
341904.5736999996
 10
70837.93140000012
 20
341904.7305999995
 10
70838.12600000016
 20
341904.8875999991
 10
70838.32060000021
 20
341905.0445000008
 10
70838.51530000009
 20
341905.2014000006
 10
70838.70990000013
 20
341905.3583000005
 10
70838.90450000017
 20
341905.5152000003
 10
70839.09910000023
 20
341905.6721999999
 10
70839.2938000001
 20
341905.8290999998
 10
70839.48840000014
 20
341905.9859999996
 10
70839.68300000019
 20
341906.1428999994
 10
70839.87770000007
 20
341906.2997999993
 10
70840.07230000011
 20
341906.456700001
 10
70840.26690000016
 20
341906.6136000008
 10
70840.46160000004
 20
341906.7705000006
 10
70840.65620000008
 20
341906.9274000004
 10
70840.85080000013
 20
341907.0842000004
 10
70841.04550000001
 20
341907.2411000003
 10
70841.24010000005
 20
341907.398
 10
70841.43479999993
 20
341907.5548999999
 10
70841.62939999997
 20
341907.7117999997
 10
70841.66949999985
 20
341907.7441000008
 10
70841.86400000006
 20
341907.9011000004
 10
70842.0586000001
 20
341908.0581
 10
70842.25310000032
 20
341908.2150999997
 10
70842.44770000037
 20
341908.3720999994
 10
70842.64230000041
 20
341908.5291000009
 10
70842.8367999997
 20
341908.6861000006
 10
70843.03139999974
 20
341908.8431000002
 10
70843.22589999996
 20
341909.0000999999
 10
70843.4205
 20
341909.1570999995
 10
70843.61500000023
 20
341909.3140999992
 10
70843.80960000027
 20
341909.4711000007
 10
70844.00409999955
 20
341909.6281000003
 10
70844.1986999996
 20
341909.7851
 10
70844.39319999981
 20
341909.9420999997
 10
70844.58779999986
 20
341910.0990999993
 10
70844.78230000008
 20
341910.2561000008
 10
70844.97690000012
 20
341910.4131000004
 10
70845.17140000034
 20
341910.5701000002
 10
70845.36600000038
 20
341910.7270999998
 10
70845.56049999967
 20
341910.8840999995
 10
70845.75509999972
 20
341911.0410999991
 10
70845.94959999994
 20
341911.1981000006
 10
70846.14419999998
 20
341911.3551000003
 10
70846.33870000019
 20
341911.5120999999
 10
70846.53330000024
 20
341911.6690999997
 10
70846.72790000029
 20
341911.8260999993
 10
70846.92239999958
 20
341911.9831000008
 10
70847.11699999962
 20
341912.1401000005
 10
70847.31149999983
 20
341912.2971000001
 10
70847.50609999988
 20
341912.4540999998
 10
70847.7006000001
 20
341912.6110999994
 10
70847.89520000014
 20
341912.7681000009
 10
70848.08970000036
 20
341912.9251000006
 10
70848.2843000004
 20
341913.0821000003
 10
70848.47879999969
 20
341913.2391
 10
70848.67339999973
 20
341913.3960999996
 10
70848.86789999996
 20
341913.5530999992
 10
70849.0625
 20
341913.7101000008
 10
70849.25700000021
 20
341913.8671000004
 10
70849.45160000026
 20
341914.0241
 10
70849.64609999954
 20
341914.1810999998
 10
70849.84069999959
 20
341914.3380999994
 10
70850.03519999981
 20
341914.4951000009
 10
70850.22979999985
 20
341914.6521000005
 10
70850.42430000007
 20
341914.8091000002
 10
70850.61890000011
 20
341914.9660999999
 10
70850.81340000034
 20
341915.1230999995
 10
70851.00800000038
 20
341915.2800999992
 10
70851.20260000042
 20
341915.4371000007
 10
70851.39709999971
 20
341915.5941000003
 10
70851.59169999975
 20
341915.7511
 10
70851.78619999997
 20
341915.9080999996
 10
70851.98080000002
 20
341916.0651999991
 10
70852.17530000023
 20
341916.2222000007
 10
70852.36990000028
 20
341916.3792000003
 10
70852.56439999956
 20
341916.5362
 10
70852.75899999961
 20
341916.6931999997
 10
70852.95349999983
 20
341916.8501999993
 10
70853.14809999987
 20
341917.0072000009
 10
70853.34260000009
 20
341917.1642000005
 10
70853.53720000013
 20
341917.3212000001
 10
70853.73170000035
 20
341917.4781999998
 10
70853.9263000004
 20
341917.6351999995
 10
70854.08880000002
 20
341917.7665999998
 10
70854.28320000041
 20
341917.923800001
 10
70854.47759999986
 20
341918.0810000002
 10
70854.67190000042
 20
341918.2381999996
 10
70854.86629999987
 20
341918.3954000008
 10
70855.06070000026
 20
341918.5526000001
 10
70855.25509999972
 20
341918.7097999994
 10
70855.44940000027
 20
341918.8671000004
 10
70855.64379999973
 20
341919.0242999997
 10
70855.83820000011
 20
341919.1815000009
 10
70856.03249999974
 20
341919.3388000001
 10
70856.22690000012
 20
341919.4959999994
 10
70856.42119999975
 20
341919.6533000004
 10
70856.61560000013
 20
341919.8104999997
 10
70856.80989999976
 20
341919.9678000007
 10
70857.00430000015
 20
341920.125
 10
70857.19859999977
 20
341920.2822999992
 10
70857.39290000033
 20
341920.4396000002
 10
70857.58729999978
 20
341920.5967999995
 10
70857.78160000034
 20
341920.7541000005
 10
70857.97589999996
 20
341920.9113999997
 10
70858.17050000001
 20
341921.0683999993
 10
70858.36500000022
 20
341921.2254000008
 10
70858.55960000027
 20
341921.3824000005
 10
70858.75409999955
 20
341921.5394000001
 10
70858.9486999996
 20
341921.6963999998
 10
70859.14319999981
 20
341921.8533999995
 10
70859.33779999986
 20
341922.0103999991
 10
70859.53230000008
 20
341922.1674000006
 10
70859.72690000012
 20
341922.3244000003
 10
70859.92140000034
 20
341922.4814
 10
70860.11600000039
 20
341922.6383999996
 10
70860.31049999967
 20
341922.7953999993
 10
70860.50509999972
 20
341922.9525000007
 10
70860.69959999993
 20
341923.1095000003
 10
70860.89419999998
 20
341923.2664999999
 10
70861.08870000019
 20
341923.4234999996
 10
70861.28320000042
 20
341923.5804999992
 10
70861.47780000046
 20
341923.7375000007
 10
70861.67229999974
 20
341923.8945000004
 10
70861.86689999979
 20
341924.0515999999
 10
70862.0614
 20
341924.2085999996
 10
70862.25590000022
 20
341924.3655999992
 10
70862.45050000027
 20
341924.5226000008
 10
70862.64499999956
 20
341924.6796000004
 10
70862.8395999996
 20
341924.8366999999
 10
70863.03409999981
 20
341924.9936999996
 10
70863.22860000003
 20
341925.1506999992
 10
70863.42320000007
 20
341925.3077000007
 10
70863.6177000003
 20
341925.4648000002
 10
70863.81219999958
 20
341925.6217999999
 10
70864.0066999998
 20
341925.7787999995
 10
70864.20129999984
 20
341925.9357999992
 10
70864.39580000005
 20
341926.0929000005
 10
70864.59030000027
 20
341926.2499000002
 10
70864.78490000032
 20
341926.4068999999
 10
70864.97939999961
 20
341926.5639999994
 10
70865.17389999982
 20
341926.7210000009
 10
70865.36840000003
 20
341926.8781000003
 10
70865.56290000025
 20
341927.0351
 10
70865.75750000029
 20
341927.1920999996
 10
70865.95199999958
 20
341927.3491999991
 10
70866.12990000006
 20
341927.4927999992
 10
70866.24370000046
 20
341927.5847999994
 10
70866.43819999974
 20
341927.7418000009
 10
70866.63269999996
 20
341927.8989000004
 10
70866.82720000017
 20
341928.0559999999
 10
70867.02170000039
 20
341928.2130999994
 10
70867.21609999984
 20
341928.3702000007
 10
70867.41060000006
 20
341928.5273000002
 10
70867.60510000027
 20
341928.6843999997
 10
70867.79959999956
 20
341928.8414999992
 10
70867.99399999994
 20
341928.9986000006
 10
70868.18850000017
 20
341929.1557000001
 10
70868.38300000038
 20
341929.3127999996
 10
70868.57749999967
 20
341929.4699000009
 10
70868.77199999988
 20
341929.6270000003
 10
70868.96640000026
 20
341929.7840999998
 10
70869.16089999955
 20
341929.9411999993
 10
70869.35539999976
 20
341930.0982000009
 10
70869.54989999998
 20
341930.2553000004
 10
70869.7444000002
 20
341930.4123999998
 10
70869.93879999965
 20
341930.5694999993
 10
70870.13329999987
 20
341930.7266000006
 10
70870.32780000009
 20
341930.8837000001
 10
70870.5223000003
 20
341931.0407999996
 10
70870.71669999976
 20
341931.1978999991
 10
70870.91119999997
 20
341931.3550000005
 10
70871.10570000019
 20
341931.5121
 10
70871.3002000004
 20
341931.6691999995
 10
70871.49469999969
 20
341931.8263000008
 10
70871.68910000007
 20
341931.9834000003
 10
70871.88360000029
 20
341932.1404999998
 10
70872.07809999958
 20
341932.2975999993
 10
70872.27259999979
 20
341932.4546000008
 10
70872.46700000018
 20
341932.6117000003
 10
70872.66150000039
 20
341932.7687999998
 10
70872.85599999968
 20
341932.9258999992
 10
70873.05049999989
 20
341933.0830000006
 10
70873.24500000011
 20
341933.2401000001
 10
70873.43939999956
 20
341933.3971999996
 10
70873.63389999978
 20
341933.5543000009
 10
70873.8284
 20
341933.7114000004
 10
70874.02290000022
 20
341933.8684999999
 10
70874.21729999967
 20
341934.0255999994
 10
70874.41179999989
 20
341934.1827000007
 10
70874.58359999954
 20
341934.3212000001
 10
70874.77830000035
 20
341934.4780999999
 10
70874.82450000011
 20
341934.5153999999
1001
AcMap_E615D161-C9D7-11d3-839F-0060B0FB6B57
1071
        1
1071
        2
  0
LWPOLYLINE
  5
277
330
1F
100
AcDbEntity
  8
Straßenverlauf_FBRD
100
AcDbPolyline
 90
       25
 70
     0
 43
0.0
 10
70815.39230000041
 20
341841.4801000003
 10
70815.35130000021
 20
341841.5242999997
 10
70815.20569999981
 20
341841.6767999996
 10
70815.01819999981
 20
341841.8723000009
 10
70814.9698999999
 20
341841.9225999993
 10
70814.89089999999
 20
341842.0045999996
 10
70814.78160000034
 20
341842.1177999992
 10
70814.61629999988
 20
341842.2885999996
 10
70814.59269999992
 20
341842.3128999994
 10
70814.40319999959
 20
341842.5078999997
 10
70814.21289999969
 20
341842.7027000003
 10
70814.15550000034
 20
341842.7612999995
 10
70814.02199999988
 20
341842.8973999992
 10
70813.83029999956
 20
341843.0919000004
 10
70813.63800000026
 20
341843.2862999998
 10
70813.4450000003
 20
341843.4805999994
 10
70813.41000000015
 20
341843.5157999993
 10
70813.25140000042
 20
341843.6747999992
 10
70813.05700000003
 20
341843.8688999992
 10
70813.05040000007
 20
341843.8754999992
 10
70812.87239999976
 20
341844.0491000004
 10
70812.68719999957
 20
341844.2282999996
 10
70812.66480000038
 20
341844.2499000002
 10
70812.5011
 20
341844.4067000002
 10
70788.8881000001
 20
341867.1022999995
1001
AcMap_E615D161-C9D7-11d3-839F-0060B0FB6B57
1071
        1
1071
        2
  0
LWPOLYLINE
  5
278
330
1F
100
AcDbEntity
  8
Straßenverlauf_FBRD
100
AcDbPolyline
 90
        9
 70
     0
 43
0.0
 10
70469.45849999971
 20
341844.2073999997
 10
70472.59907782751
 20
341845.5685187183
 10
70475.88115497888
 20
341846.5400344572
 10
70479.25659999997
 20
341847.1076999996
 10
70482.22449999954
 20
341847.5830000005
 10
70482.54209884354
 20
341847.623394152
 10
70482.86207382037
 20
341847.6125901077
 10
70483.17622457088
 20
341847.5508647553
 10
70483.47649999987
 20
341847.4397999999
1001
AcMap_E615D161-C9D7-11d3-839F-0060B0FB6B57
1071
        1
1071
        2
  0
LWPOLYLINE
  5
279
330
1F
100
AcDbEntity
  8
Straßenverlauf_FBRD
100
AcDbPolyline
 90
       12
 70
     0
 43
0.0
 10
70467.9271999998
 20
341847.1283000001
 10
70481.00449999981
 20
341853.2207999994
 10
70481.4486999996
 20
341853.4434999992
 10
70481.61539999954
 20
341853.5270000008
 10
70482.3376000002
 20
341853.8882999998
 10
70482.59570000041
 20
341854.0193000008
 10
70483.22400000039
 20
341854.3377999999
 10
70483.25850000046
 20
341854.3552999999
 10
70483.86129999999
 20
341854.6604999993
 10
70484.11070000008
 20
341854.7866999992
 10
70484.99780000001
 20
341855.2347999998
 10
70485.81979999971
 20
341855.6491999999
1001
AcMap_E615D161-C9D7-11d3-839F-0060B0FB6B57
1071
        1
1071
        2
  0
LWPOLYLINE
  5
27A
330
1F
100
AcDbEntity
  8
Straßenverlauf_FBRD
100
AcDbPolyline
 90
       25
 70
     0
 43
0.0
 10
70488.33559999987
 20
341848.7396000009
 10
70488.26869138254
 20
341848.7884315521
 10
70488.21076331534
 20
341848.8476398497
 10
70488.16340579632
 20
341848.9155997559
 10
70488.12791868529
 20
341848.9904459209
 10
70488.10527602539
 20
341849.0701239821
 10
70488.09609930789
 20
341849.1524469516
 10
70488.10064041346
 20
341849.2351552452
 10
70488.11877469876
 20
341849.315978702
 10
70488.15000441753
 20
341849.3926988958
 10
70488.19347238265
 20
341849.4632100259
 10
70488.24798549407
 20
341849.5255767169
 10
70488.31204748673
 20
341849.5780871403
 10
70488.38389999978
 20
341849.6193000004
 10
70489.05209999997
 20
341849.9432999995
 10
70513.62110000011
 20
341861.9342999999
 10
70525.96160000003
 20
341867.4579000008
 10
70533.05260876878
 20
341870.1538674501
 10
70540.29839999974
 20
341872.4009000007
 10
70551.46543176507
 20
341875.2131943384
 10
70562.79550000001
 20
341877.2726000007
 10
70569.334704984
 20
341878.0882465211
 10
70575.90020000003
 20
341878.6546000001
 10
70589.42059999983
 20
341879.5713999998
 10
70600.17929999996
 20
341879.7576999999
1001
AcMap_E615D161-C9D7-11d3-839F-0060B0FB6B57
1071
        1
1071
        2
  0
LWPOLYLINE
  5
27B
330
1F
100
AcDbEntity
  8
Straßenverlauf_FBRD
100
AcDbPolyline
 90
       41
 70
     0
 43
0.0
 10
70475.15330000035
 20
341855.2721999996
 10
70472.27479999978
 20
341853.7886999994
 10
70470.8402203639
 20
341853.1834393385
 10
70469.32907513759
 20
341852.8082070048
 10
70467.77799999993
 20
341852.6721000001
 10
70467.65329216256
 20
341852.6813231478
 10
70467.53184978541
 20
341852.7111369061
 10
70467.41704838244
 20
341852.760712596
 10
70467.31207888046
 20
341852.8286722518
 10
70467.21985892676
 20
341852.9131269218
 10
70467.14295179246
 20
341853.0117291726
 10
70467.08349512602
 20
341853.1217383357
 10
70467.04314153675
 20
341853.2400966856
 10
70467.02301266034
 20
341853.3635144294
 10
70467.02366798274
 20
341853.4885611475
 10
70467.04508928915
 20
341853.6117611425
 10
70467.08668117029
 20
341853.7296900473
 10
70467.14728757189
 20
341853.8390700054
 10
70467.22522392751
 20
341853.9368607802
 10
70467.31832398133
 20
341854.0203442584
 10
70467.42399999965
 20
341854.0872000009
 10
70479.42819999996
 20
341860.2616000008
 10
70479.54310055911
 20
341860.3083970567
 10
70479.66414371084
 20
341860.3356120956
 10
70479.78801725141
 20
341860.3425004102
 10
70479.91133152679
 20
341860.3288735095
 10
70480.03071218658
 20
341860.295104278
 10
70480.14289251915
 20
341860.2421167709
 10
70480.24480284142
 20
341860.1713609291
 10
70480.33365449703
 20
341860.0847729032
 10
70480.40701616474
 20
341859.9847220729
 10
70480.46288038861
 20
341859.8739462118
 10
70480.49971850976
 20
341859.7554765711
 10
70480.51652249623
 20
341859.6325549336
 10
70480.51283252665
 20
341859.5085449056
 10
70480.48874957273
 20
341859.3868398759
 10
70480.44493263621
 20
341859.2707701597
 10
70480.38258071613
 20
341859.1635118687
 10
70480.30339999963
 20
341859.068
 10
70477.88111164647
 20
341856.9628346656
 10
70475.15330000035
 20
341855.2721999996
1001
AcMap_E615D161-C9D7-11d3-839F-0060B0FB6B57
1071
        1
1071
        2
  0
LWPOLYLINE
  5
27C
330
1F
100
AcDbEntity
  8
Straßenverlauf_FBRD
100
AcDbPolyline
 90
      143
 70
     0
 43
0.0
 10
70485.81979999971
 20
341855.6491999999
 10
70485.85360000003
 20
341855.6662000008
 10
70485.8853000002
 20
341855.6821999997
 10
70486.10720000043
 20
341855.7938999999
 10
70486.77319999971
 20
341856.1289000009
 10
70487.66139999963
 20
341856.5747999996
 10
70488.35030000005
 20
341856.9200999998
 10
70488.54989999998
 20
341857.0199999996
 10
70489.43890000042
 20
341857.4645000008
 10
70490.32820000034
 20
341857.9082999993
 10
70491.21789999958
 20
341858.3513999991
 10
70492.10790000017
 20
341858.7937000003
 10
70492.99830000009
 20
341859.2353000008
 10
70493.88900000043
 20
341859.6761000008
 10
70494.78010000009
 20
341860.1162999999
 10
70495.6716
 20
341860.5557000004
 10
70496.56340000034
 20
341860.9944000002
 10
70497.45559999998
 20
341861.4322999996
 10
70498.34810000006
 20
341861.8695999999
 10
70499.24100000039
 20
341862.3060999998
 10
70499.61290000006
 20
341862.4876000006
 10
70500.1342000002
 20
341862.7418000009
 10
70501.02720000036
 20
341863.1765000001
 10
70501.92009999975
 20
341863.6100999993
 10
70502.81280000042
 20
341864.0425000005
 10
70503.70550000016
 20
341864.4736000002
 10
70504.59819999989
 20
341864.9034000002
 10
70505.4907999998
 20
341865.3318000008
 10
70506.38350000046
 20
341865.7587000001
 10
70507.2762000002
 20
341866.1840000004
 10
70508.16899999976
 20
341866.6076999996
 10
70509.06190000008
 20
341867.0297999997
 10
70509.95500000007
 20
341867.4499999993
 10
70510.84819999989
 20
341867.8684
 10
70511.74170000013
 20
341868.2849000003
 10
70512.63540000003
 20
341868.6993000005
 10
70513.52940000034
 20
341869.1118000001
 10
70514.29299999959
 20
341869.4622000009
 10
70514.36029999982
 20
341869.4930000008
 10
70514.42370000016
 20
341869.522
 10
70515.31830000039
 20
341869.9300999995
 10
70516.21329999995
 20
341870.3358999994
 10
70517.10869999975
 20
341870.7392999996
 10
70517.29729999975
 20
341870.8238999993
 10
70518.00439999998
 20
341871.1403000001
 10
70518.90070000012
 20
341871.5386999995
 10
70519.79729999974
 20
341871.9345999993
 10
70520.46999999974
 20
341872.2296999991
 10
70520.69450000021
 20
341872.3278000001
 10
70521.36230000015
 20
341872.6185999997
 10
70521.59229999967
 20
341872.7183999997
 10
70522.49129999988
 20
341873.1041000002
 10
70522.72449999954
 20
341873.2029
 10
70523.39259999991
 20
341873.4829999991
 10
70524.29609999991
 20
341873.8551000003
 10
70525.20170000009
 20
341874.2203000002
 10
70526.10960000008
 20
341874.5782999993
 10
70527.0195000004
 20
341874.9291999992
 10
70527.93159999978
 20
341875.2729000002
 10
70528.38819999993
 20
341875.4419
 10
70528.84580000024
 20
341875.6093000006
 10
70529.53280000016
 20
341875.8565999996
 10
70529.76209999993
 20
341875.9382000007
 10
70530.68030000012
 20
341876.2596000005
 10
70531.60059999954
 20
341876.5734000002
 10
70532.52280000038
 20
341876.8794
 10
70533.44689999986
 20
341877.1776999999
 10
70534.37289999984
 20
341877.4681000002
 10
70535.30059999973
 20
341877.7503999994
 10
70536.2293999996
 20
341878.0266999994
 10
70536.46129999962
 20
341878.0950000007
 10
70537.1584999999
 20
341878.298800001
 10
70537.62320000026
 20
341878.4331999999
 10
70538.08789999969
 20
341878.5666000005
 10
70539.01750000007
 20
341878.8300000001
 10
70539.94730000011
 20
341879.0889999997
 10
70540.87739999965
 20
341879.3435999994
 10
70541.80769999977
 20
341879.5934999995
 10
70542.73819999956
 20
341879.8388000001
 10
70543.66889999993
 20
341880.0792999994
 10
70544.59960000031
 20
341880.3149999995
 10
70545.53089999966
 20
341880.5458000004
 10
70545.76370000001
 20
341880.6028000004
 10
70546.46219999995
 20
341880.7717000004
 10
70547.39350000024
 20
341880.9924999997
 10
70548.32500000019
 20
341881.2083000001
 10
70549.25659999996
 20
341881.4188000001
 10
70550.18829999957
 20
341881.6239999998
 10
70551.12000000011
 20
341881.8238999993
 10
70551.82909999974
 20
341881.9725000002
 10
70552.05169999972
 20
341882.0184000004
 10
70552.75019999966
 20
341882.1607000008
 10
70552.98400000017
 20
341882.2075999994
 10
70553.91700000036
 20
341882.3914999999
 10
70554.85059999954
 20
341882.5701000002
 10
70555.78490000032
 20
341882.7434999999
 10
70556.71970000025
 20
341882.9114999995
 10
70557.65519999992
 20
341883.0743000004
 10
70558.59119999968
 20
341883.2317999993
 10
70559.52770000044
 20
341883.3840999994
 10
70560.46470000036
 20
341883.5309999995
 10
70560.93259999994
 20
341883.6023999993
 10
70561.40220000036
 20
341883.6725999992
 10
70562.1054999996
 20
341883.7753999997
 10
70562.33999999985
 20
341883.8090000003
 10
70563.27830000035
 20
341883.9400999993
 10
70564.21700000018
 20
341884.0658999999
 10
70565.15589999966
 20
341884.1864
 10
70566.09520000033
 20
341884.3016999998
 10
70567.03479999955
 20
341884.4115999994
 10
70567.97460000031
 20
341884.5163000002
 10
70568.91469999961
 20
341884.615700001
 10
70569.14879999961
 20
341884.6395999994
 10
70569.85489999968
 20
341884.7096999996
 10
70570.32510000001
 20
341884.7547999993
 10
70570.79530000034
 20
341884.7985999994
 10
70571.7357999999
 20
341884.8820999991
 10
70572.67640000023
 20
341884.9604000003
 10
70573.61679999996
 20
341885.0353999995
 10
70574.55659999978
 20
341885.1094000004
 10
70575.49600000028
 20
341885.1823999994
 10
70576.43499999959
 20
341885.2543000002
 10
70577.37289999984
 20
341885.3250999991
 10
70578.31180000025
 20
341885.3949999995
 10
70578.54629999958
 20
341885.4123
 10
70579.24969999958
 20
341885.4638000001
 10
70580.18740000017
 20
341885.5316000004
 10
70581.12480000033
 20
341885.5984000006
 10
70582.06199999991
 20
341885.6642000005
 10
70582.99909999966
 20
341885.7290000004
 10
70583.93609999958
 20
341885.7927999999
 10
70584.87299999967
 20
341885.8555999995
 10
70585.80989999976
 20
341885.9175000005
 10
70586.74679999985
 20
341885.9782999997
 10
70587.6838999996
 20
341886.0361000002
 10
70588.62129999976
 20
341886.0887000003
 10
70589.55900000036
 20
341886.1360999998
 10
70590.49700000044
 20
341886.1782000009
 10
70591.43510000035
 20
341886.2151999995
 10
70592.37349999976
 20
341886.2468999997
 10
70593.31199999991
 20
341886.2734999992
 10
70594.25059999991
 20
341886.2948000003
 10
70595.02730000019
 20
341886.3081000001
1001
AcMap_E615D161-C9D7-11d3-839F-0060B0FB6B57
1071
        1
1071
        2
  0
LWPOLYLINE
  5
27D
330
1F
100
AcDbEntity
  8
Straßenverlauf_FBRD
100
AcDbPolyline
 90
       30
 70
     0
 43
0.0
 10
70485.81979999971
 20
341855.6491999999
 10
70485.52697026266
 20
341855.4601921424
 10
70485.27139537381
 20
341855.2232223103
 10
70485.06083531808
 20
341854.945485586
 10
70484.90168330128
 20
341854.6354148511
 10
70484.79877163407
 20
341854.3024247404
 10
70484.75522500914
 20
341853.9566257865
 10
70484.77236562663
 20
341853.608517435
 10
70484.84967304834
 20
341853.2686692517
 10
70484.98479999974
 20
341852.9474
 10
70485.21360000036
 20
341852.5135999992
 10
70485.35843108418
 20
341852.2885061382
 10
70485.53977364813
 20
341852.0916352067
 10
70485.75223722077
 20
341851.9288392626
 10
70485.9895062478
 20
341851.8049574722
 10
70486.24452782402
 20
341851.7236722657
 10
70486.50972134344
 20
341851.687399874
 10
70486.77720383559
 20
341851.6972185068
 10
70487.03902428936
 20
341851.752836302
 10
70487.2873999998
 20
341851.8526000009
 10
70512.56280000042
 20
341864.1992000007
 10
70524.98110000044
 20
341869.7576000002
 10
70532.14016375735
 20
341872.4810777777
 10
70539.45469999965
 20
341874.7542000004
 10
70550.77638401956
 20
341877.6155021908
 10
70562.2637
 20
341879.7152999994
 10
70568.90171220494
 20
341880.5503843002
 10
70575.56670000032
 20
341881.1322000009
 10
70589.29449999984
 20
341882.0681999996
 10
70598.49060000013
 20
341882.2729000002
1001
AcMap_E615D161-C9D7-11d3-839F-0060B0FB6B57
1071
        1
1071
        2
  0
LWPOLYLINE
  5
27E
330
1F
100
AcDbEntity
  8
Straßenverlauf_FBRD
100
AcDbPolyline
 90
       73
 70
     0
 43
0.0
 10
70471.77610000036
 20
341861.4068999999
 10
70472.66330000013
 20
341861.8622999993
 10
70473.55620000046
 20
341862.3198000007
 10
70474.44940000027
 20
341862.7764999997
 10
70475.34310000017
 20
341863.2324999999
 10
70476.23759999964
 20
341863.6881000008
 10
70477.13150000014
 20
341864.1424000003
 10
70478.0262000002
 20
341864.5962000005
 10
70478.06099999975
 20
341864.6138000004
 10
70478.92140000034
 20
341865.0493000001
 10
70479.81689999997
 20
341865.5015999992
 10
70480.71270000003
 20
341865.9531999995
 10
70481.60900000017
 20
341866.4041000009
 10
70482.5055999998
 20
341866.8542999998
 10
70483.20110000018
 20
341867.2029
 10
70483.40249999985
 20
341867.3037000001
 10
70484.29989999998
 20
341867.7523999997
 10
70485.19759999961
 20
341868.2004000004
 10
70486.09559999965
 20
341868.6476000008
 10
70486.99409999978
 20
341869.0941000003
 10
70487.89290000033
 20
341869.5398999993
 10
70488.79200000036
 20
341869.9848999996
 10
70489.69149999972
 20
341870.4291999992
 10
70490.59140000027
 20
341870.8728
 10
70491.49170000013
 20
341871.3156000003
 10
70492.39230000042
 20
341871.7577
 10
70493.29330000002
 20
341872.1989999991
 10
70494.19460000004
 20
341872.6396999993
 10
70494.5700000003
 20
341872.8228999992
 10
70495.09630000033
 20
341873.0796000008
 10
70495.99870000035
 20
341873.5187999998
 10
70496.90180000011
 20
341873.9573999997
 10
70497.80570000037
 20
341874.3950999994
 10
70498.71030000038
 20
341874.8320000005
 10
70499.6157999998
 20
341875.2679999992
 10
70500.52209999971
 20
341875.7029999998
 10
70501.42929999996
 20
341876.1368000005
 10
70502.33739999961
 20
341876.5694999994
 10
70503.24650000035
 20
341877.0010000002
 10
70504.15660000034
 20
341877.4310999997
 10
70505.06769999954
 20
341877.8597999998
 10
70505.97979999985
 20
341878.2870000005
 10
70506.89309999999
 20
341878.7127
 10
70507.80740000028
 20
341879.1368000004
 10
70508.72300000023
 20
341879.5592
 10
70509.50659999997
 20
341879.9188000001
 10
70510.14539999981
 20
341880.2112000007
 10
70510.25293317684
 20
341880.2715677127
 10
70510.34912085037
 20
341880.3487400929
 10
70510.43136272169
 20
341880.4406308944
 10
70510.49743549732
 20
341880.5447559785
 10
70510.54555299251
 20
341880.6583004697
 10
70510.57441441836
 20
341880.7781948519
 10
70510.58323954673
 20
341880.9011979492
 10
70510.57178980268
 20
341881.0239845452
 10
70510.54037471396
 20
341881.1432352769
 10
70510.48984354337
 20
341881.2557263682
 10
70510.42156233019
 20
341881.3584167803
 10
70510.3373769611
 20
341881.4485304221
 10
70510.23956326938
 20
341881.5236311979
 10
70510.13076551085
 20
341881.5816888636
 10
70510.01392488014
 20
341881.6211339118
 10
70509.89219999965
 20
341881.6409000009
 10
70508.22767938014
 20
341881.8504696487
 10
70506.58990000002
 20
341882.2140999996
 10
70506.42842779409
 20
341882.2439773898
 10
70506.26424302035
 20
341882.2470256369
 10
70506.10177307102
 20
341882.2231625419
 10
70505.94539909648
 20
341882.1730315951
 10
70505.79933786366
 20
341882.0979846231
 10
70505.66752804692
 20
341882.0000453361
 10
70505.55352401822
 20
341881.8818547562
 10
70505.46040000021
 20
341881.7466000002
1001
AcMap_E615D161-C9D7-11d3-839F-0060B0FB6B57
1071
        1
1071
        2
  0
LWPOLYLINE
  5
27F
330
1F
100
AcDbEntity
  8
Straßenverlauf_FBRD
100
AcDbPolyline
 90
       14
 70
     0
 43
0.0
 10
70786.33970000036
 20
341864.6971000005
 10
70810.07459999994
 20
341841.8844000008
 10
70810.43010000046
 20
341841.5420999993
 10
70810.7796
 20
341841.1967999991
 10
70811.15220000036
 20
341840.8224999998
 10
70811.52589999978
 20
341840.4438000005
 10
70811.89659999963
 20
341840.0650999994
 10
70812.26449999958
 20
341839.6860000007
 10
70812.67690000031
 20
341839.2569999993
 10
70813.03880000021
 20
341838.8771000002
 10
70813.39850000013
 20
341838.4960999992
 10
70813.77070000023
 20
341838.0982000009
 10
70814.11000000033
 20
341837.7323000003
 10
70814.2918999996
 20
341837.5342999995
1001
AcMap_E615D161-C9D7-11d3-839F-0060B0FB6B57
1071
        1
1071
        2
  0
LINE
  5
280
330
1F
100
AcDbEntity
  8
Straßenverlauf_FBRD
100
AcDbLine
 10
70786.33970000036
 20
341864.6971000005
 30
0.0
 11
70786.05649999994
 21
341864.9693000001
 31
0.0
1001
AcMap_E615D161-C9D7-11d3-839F-0060B0FB6B57
1071
        1
1071
        2
  0
LWPOLYLINE
  5
281
330
1F
100
AcDbEntity
  8
Straßenverlauf_FBRD
100
AcDbPolyline
 90
       42
 70
     0
 43
0.0
 10
70799.29700000025
 20
341866.7961999998
 10
70799.39121161164
 20
341866.6788829234
 10
70799.50422819404
 20
341866.5795532892
 10
70799.63266922772
 20
341866.5011822167
 10
70799.77269282121
 20
341866.4461139191
 10
70799.92011062881
 20
341866.4159955837
 10
70800.0705131312
 20
341866.4117281013
 10
70800.21940153172
 20
341866.4334391197
 10
70800.36232232309
 20
341866.4804792252
 10
70800.49500049947
 20
341866.5514413675
 10
70800.61346742918
 20
341866.6442029473
 10
70800.71417956328
 20
341866.7559893068
 10
70800.79412442917
 20
341866.8834567245
 10
70800.85091073894
 20
341867.0227924311
 10
70800.88283991667
 20
341867.1698286571
 10
70800.88895690595
 20
341867.3201672968
 10
70800.86907873714
 20
341867.4693114637
 10
70800.82380000036
 20
341867.6128000003
 10
70798.54330000002
 20
341873.1258000005
 10
70797.84696317527
 20
341874.5819249481
 10
70796.99820000026
 20
341875.9548000004
 10
70796.80848609541
 20
341876.1880758721
 10
70796.58594466682
 20
341876.390274563
 10
70796.33560562863
 20
341876.5568259483
 10
70796.06312718063
 20
341876.6839656092
 10
70795.77466792087
 20
341876.7688199165
 10
70795.47674764796
 20
341876.8094709804
 10
70795.17609999981
 20
341876.8049999997
 10
70795.01846451389
 20
341876.7779078073
 10
70794.86716454765
 20
341876.7260305143
 10
70794.72607052323
 20
341876.6506952
 10
70794.59879178344
 20
341876.5538290257
 10
70794.48858426064
 20
341876.4379099366
 10
70794.39826718639
 20
341876.3059032722
 10
70794.33015097234
 20
341876.1611859109
 10
70794.28597810735
 20
341876.0074598841
 10
70794.26687858268
 20
341875.8486576755
 10
70794.27334098548
 20
341875.6888416229
 10
70794.3052000003
 20
341875.5320999995
 10
70795.11742888842
 20
341873.3605462819
 10
70796.25459999964
 20
341871.3400999997
 10
70799.29700000025
 20
341866.7961999998
1001
AcMap_E615D161-C9D7-11d3-839F-0060B0FB6B57
1071
        1
1071
        2
  0
LWPOLYLINE
  5
282
330
1F
100
AcDbEntity
  8
Straßenverlauf_FBRD
100
AcDbPolyline
 90
       32
 70
     0
 43
0.0
 10
70788.8881000001
 20
341867.1022999995
 10
70788.58609999995
 20
341866.9773999993
 10
70788.51267180052
 20
341866.9396532042
 10
70788.44645634815
 20
341866.8903375386
 10
70788.38925910467
 20
341866.8307976667
 10
70788.34263963719
 20
341866.7626570307
 10
70788.30786909417
 20
341866.6877735856
 10
70788.28589554567
 20
341866.6081891388
 10
70788.27731813286
 20
341866.5260736774
 10
70788.28237073154
 20
341866.4436662004
 10
70788.30091557517
 20
341866.3632136692
 10
70788.33244701124
 20
341866.2869097404
 10
70788.37610528872
 20
341866.2168349531
 10
70788.43070000037
 20
341866.1548999995
 10
70811.80869999993
 20
341843.6852000002
 10
70812.17559999973
 20
341843.3319000006
 10
70812.54409999959
 20
341842.9679000006
 10
70812.92779999971
 20
341842.5823999998
 10
70813.3088999996
 20
341842.1963
 10
70813.68699999992
 20
341841.8099000007
 10
70814.06259999983
 20
341841.4229000006
 10
70814.48309999983
 20
341840.9855000005
 10
70814.85280000046
 20
341840.5974000003
 10
70815.22030000016
 20
341840.2082000002
 10
70815.4009999996
 20
341840.0150000007
 10
70815.57189999986
 20
341840.5039000008
 10
70815.61477803386
 20
341840.6713829061
 10
70815.62818059893
 20
341840.8437471152
 10
70815.61170743017
 20
341841.015845006
 10
70815.56585049544
 20
341841.1825369101
 10
70815.4919793028
 20
341841.3388446075
 10
70815.39230000041
 20
341841.4801000003
1001
AcMap_E615D161-C9D7-11d3-839F-0060B0FB6B57
1071
        1
1071
        2
  0
LWPOLYLINE
  5
283
330
1F
100
AcDbEntity
  8
Straßenverlauf_FBRD
100
AcDbPolyline
 90
        3
 70
     0
 43
0.0
 10
70788.8881000001
 20
341867.1022999995
 10
70786.18890000042
 20
341869.6965999995
 10
70786.13279999979
 20
341869.7501999997
1001
AcMap_E615D161-C9D7-11d3-839F-0060B0FB6B57
1071
        1
1071
        2
  0
LWPOLYLINE
  5
284
330
1F
100
AcDbEntity
  8
Straßenverlauf_FBRD
100
AcDbPolyline
 90
      149
 70
     0
 43
0.0
 10
70786.13279999979
 20
341869.7501999997
 10
70784.09872053931
 20
341871.3734732828
 10
70781.8146864936
 20
341872.6207438553
 10
70779.34944837383
 20
341873.4544682797
 10
70776.77721102003
 20
341873.8495510543
 10
70774.17540000007
 20
341873.7940999996
 10
70774.17260000016
 20
341873.7939
 10
70774.15809999965
 20
341873.7924000006
 10
70774.07550000026
 20
341873.7833999992
 10
70774.01070000044
 20
341873.7764999998
 10
70773.71889999974
 20
341873.7456999999
 10
70773.03809999953
 20
341873.6761000007
 10
70772.00079999957
 20
341873.5759999994
 10
70770.9637000002
 20
341873.4831000008
 10
70770.71320000011
 20
341873.4616999999
 10
70769.92659999989
 20
341873.3971999996
 10
70768.88970000017
 20
341873.3184999992
 10
70767.85290000029
 20
341873.2467999999
 10
70766.81639999989
 20
341873.1820999999
 10
70766.17769999988
 20
341873.1458000001
 10
70765.78010000009
 20
341873.1245000009
 10
70765.09669999964
 20
341873.0902999994
 10
70764.74409999978
 20
341873.0737999994
 10
70764.53689999971
 20
341873.0645000004
 10
70764.53139999975
 20
341873.0643000007
 10
70763.70839999989
 20
341873.0302000009
 10
70762.67300000042
 20
341872.9934999999
 10
70761.6381000001
 20
341872.9638000001
 10
70761.54079999961
 20
341872.9614000004
 10
70760.60369999986
 20
341872.9409999997
 10
70760.11369999964
 20
341872.9327000007
 10
70760.04710000008
 20
341872.9316000007
 10
70759.56989999953
 20
341872.9252000004
 10
70758.53660000023
 20
341872.9163000006
 10
70758.33490000013
 20
341872.9153000005
 10
70757.50409999955
 20
341872.9142000005
 10
70756.47229999955
 20
341872.9190999997
 10
70755.4413999999
 20
341872.9308000003
 10
70755.09360000025
 20
341872.9363000002
 10
70754.41129999981
 20
341872.9493000004
 10
70754.35790000017
 20
341872.9505000003
 10
70753.38219999988
 20
341872.9747000002
 10
70752.35419999994
 20
341873.0068999995
 10
70751.32739999983
 20
341873.0459000002
 10
70750.30169999972
 20
341873.0917000007
 10
70749.27730000019
 20
341873.1442000009
 10
70748.25430000014
 20
341873.2035000008
 10
70747.57320000045
 20
341873.2467
 10
70747.52219999954
 20
341873.2500999999
 10
70747.23280000035
 20
341873.269200001
 10
70746.21219999995
 20
341873.3366000001
 10
70745.7276999997
 20
341873.3685999998
 10
70745.19240000006
 20
341873.4039999992
 10
70744.17339999974
 20
341873.4714000001
 10
70743.15519999992
 20
341873.5387999993
 10
70742.13779999968
 20
341873.6061000005
 10
70741.12129999976
 20
341873.6732999999
 10
70740.10549999959
 20
341873.7404999994
 10
70739.09059999976
 20
341873.8076000009
 10
70738.33270000014
 20
341873.8577999994
 10
70738.07660000026
 20
341873.8747000006
 10
70737.0636
 20
341873.9416000005
 10
70736.44350000005
 20
341873.9824999999
 10
70736.05140000023
 20
341874.0084000007
 10
70735.04030000045
 20
341874.0750999991
 10
70734.03010000009
 20
341874.1416999996
 10
70733.02109999954
 20
341874.2081000004
 10
70732.01310000009
 20
341874.2744999994
 10
70731.0064000003
 20
341874.3406000007
 10
70730.48510000016
 20
341874.3749000002
 10
70730.26379999983
 20
341874.3893999998
 10
70730.25910000037
 20
341874.3896999993
 10
70730.00090000033
 20
341874.4066000004
 10
70728.99670000001
 20
341874.4725000002
 10
70727.99380000029
 20
341874.5382000003
 10
70727.24199999962
 20
341874.5874000006
 10
70727.2368999999
 20
341874.5877000001
 10
70726.99220000021
 20
341874.6037000008
 10
70725.99110000021
 20
341874.6691999994
 10
70724.99000000022
 20
341874.7347
 10
70723.98890000023
 20
341874.8002000004
 10
70723.4570000004
 20
341874.8350000009
 10
70722.9877000004
 20
341874.8655999993
 10
70721.98660000041
 20
341874.9310999997
 10
70720.98550000042
 20
341874.9966000002
 10
70719.98440000042
 20
341875.0621000007
 10
70718.98330000043
 20
341875.1275999993
 10
70717.98209999967
 20
341875.193
 10
70716.98099999967
 20
341875.2585000005
 10
70715.97989999968
 20
341875.3239999991
 10
70714.97879999969
 20
341875.3894999996
 10
70713.97759999986
 20
341875.4550000001
 10
70712.97649999987
 20
341875.5205000006
 10
70711.97539999988
 20
341875.5858999994
 10
70710.97429999988
 20
341875.6513999999
 10
70709.97310000006
 20
341875.7169000004
 10
70708.97200000007
 20
341875.7824000009
 10
70707.97090000007
 20
341875.8478999995
 10
70706.96980000008
 20
341875.9133000002
 10
70705.96860000025
 20
341875.9788000006
 10
70704.96750000025
 20
341876.0442999993
 10
70703.96640000026
 20
341876.1097999997
 10
70702.96530000027
 20
341876.1753000003
 10
70701.96410000045
 20
341876.2408000008
 10
70700.96300000045
 20
341876.3061999996
 10
70699.96190000046
 20
341876.3717
 10
70698.96079999954
 20
341876.4372000005
 10
70697.95959999971
 20
341876.5026999992
 10
70696.95849999972
 20
341876.5681999996
 10
70695.95739999972
 20
341876.6336000003
 10
70694.95629999972
 20
341876.6991000008
 10
70693.9550999999
 20
341876.7645999994
 10
70692.95399999991
 20
341876.8301
 10
70692.88800000027
 20
341876.8344000001
 10
70691.95289999991
 20
341876.8956000004
 10
70690.95179999992
 20
341876.9609999992
 10
70689.9506000001
 20
341877.0264999997
 10
70689.38410000037
 20
341877.0636
 10
70688.9495000001
 20
341877.0920000002
 10
70688.64919999986
 20
341877.1117000003
 10
70687.94840000011
 20
341877.1575000007
 10
70687.17970000021
 20
341877.2078000009
 10
70687.14749999996
 20
341877.2098999993
 10
70686.94730000012
 20
341877.2229999993
 10
70685.94639999978
 20
341877.2899999992
 10
70685.64620000031
 20
341877.3103999999
 10
70684.94579999986
 20
341877.3588999994
 10
70684.14549999963
 20
341877.4155000001
 10
70684.01080000028
 20
341877.4252000004
 10
70683.94539999962
 20
341877.4298999999
 10
70683.3794999998
 20
341877.4708999992
 10
70682.94539999961
 20
341877.5028000009
 10
70682.6453999998
 20
341877.5251000003
 10
70681.94570000004
 20
341877.5777000003
 10
70681.92009999975
 20
341877.5797000006
 10
70681.14609999955
 20
341877.6391000003
 10
70680.94620000012
 20
341877.6546
 10
70680.19660000037
 20
341877.7136000004
 10
70679.94710000045
 20
341877.7335000001
 10
70679.88129999954
 20
341877.7388000004
 10
70679.64740000013
 20
341877.7576000002
 10
70678.94820000045
 20
341877.8144000005
 10
70678.92269999999
 20
341877.8166000005
 10
70678.1492999997
 20
341877.8805999998
 10
70677.94969999976
 20
341877.8972999994
 10
70676.95139999967
 20
341877.9822000005
 10
70676.78589999955
 20
341877.9965000004
 10
70676.65189999994
 20
341878.0080999993
 10
70676.63609999977
 20
341878.0095000007
1001
AcMap_E615D161-C9D7-11d3-839F-0060B0FB6B57
1071
        1
1071
        2
  0
LWPOLYLINE
  5
285
330
1F
100
AcDbEntity
  8
Straßenverlauf_FBRD
100
AcDbPolyline
 90
      256
 70
     0
 43
0.0
 10
70786.13279999979
 20
341869.7501999997
 10
70784.64580000005
 20
341869.1350999996
 10
70784.5663276815
 20
341869.1097553118
 10
70784.4837473836
 20
341869.0979783419
 10
70784.40035845216
 20
341869.1000970052
 10
70784.31848274839
 20
341869.11605231
 10
70784.24039999954
 20
341869.1454000008
 10
70782.39862518438
 20
341869.8698562903
 10
70780.47535490048
 20
341870.3367639901
 10
70778.50641948199
 20
341870.5374246561
 10
70776.52850000001
 20
341870.4681000002
 10
70773.9001000002
 20
341870.1954999995
 10
70773.36330000032
 20
341870.1411000006
 10
70772.82660000026
 20
341870.0885000006
 10
70772.29009999987
 20
341870.0379000009
 10
70772.03039999958
 20
341870.0140000004
 10
70771.7536000004
 20
341869.9890999999
 10
70771.21769999992
 20
341869.9421999995
 10
70770.95870000031
 20
341869.9201999996
 10
70770.68159999978
 20
341869.8971999996
 10
70770.14609999954
 20
341869.8541000001
 10
70769.61060000025
 20
341869.8127999995
 10
70769.07540000044
 20
341869.7733999994
 10
70768.54040000029
 20
341869.7357999999
 10
70768.00569999963
 20
341869.7000999991
 10
70767.47119999956
 20
341869.6663000007
 10
70766.93690000008
 20
341869.6341999993
 10
70766.40309999977
 20
341869.6041000001
 10
70766.27859999985
 20
341869.5973000005
 10
70765.86909999978
 20
341869.5757
 10
70765.33590000029
 20
341869.5492000003
 10
70765.2229000004
 20
341869.5438000001
 10
70765.20949999988
 20
341869.5377999991
 10
70765.15160000044
 20
341869.5404000003
 10
70764.80260000005
 20
341869.5243999996
 10
70764.5893000001
 20
341869.5151000004
 10
70764.58349999971
 20
341869.5147999991
 10
70764.26939999964
 20
341869.5014999993
 10
70763.7368999999
 20
341869.4804999996
 10
70763.20449999999
 20
341869.4612000007
 10
70762.67239999957
 20
341869.4437000006
 10
70762.14059999958
 20
341869.4279999994
 10
70761.60940000042
 20
341869.4141000007
 10
70761.50910000038
 20
341869.4116999991
 10
70761.07799999975
 20
341869.4020000007
 10
70760.54719999992
 20
341869.3916999996
 10
70760.04409999959
 20
341869.3835000005
 10
70760.01659999974
 20
341869.3830999993
 10
70759.97589999996
 20
341869.3826000001
 10
70759.48649999965
 20
341869.3763999995
 10
70758.95669999998
 20
341869.3714000005
 10
70758.42740000039
 20
341869.3682000004
 10
70758.22049999982
 20
341869.3673999999
 10
70757.89809999987
 20
341869.3666999992
 10
70757.3694000002
 20
341869.3670000005
 10
70756.84109999984
 20
341869.3691000007
 10
70756.31319999974
 20
341869.3728999999
 10
70755.78569999989
 20
341869.3783999998
 10
70755.25860000029
 20
341869.3857000004
 10
70754.90309999977
 20
341869.3915999997
 10
70754.73170000035
 20
341869.3947000001
 10
70754.20579999964
 20
341869.4055000004
 10
70754.1509999996
 20
341869.4067000002
 10
70753.67970000021
 20
341869.4179999997
 10
70753.15440000035
 20
341869.4322999995
 10
70752.62949999981
 20
341869.4482000005
 10
70752.10500000045
 20
341869.4659000002
 10
70751.58100000024
 20
341869.4853000008
 10
70751.05759999994
 20
341869.5064000004
 10
70750.53459999989
 20
341869.5292000007
 10
70750.01209999993
 20
341869.5537000001
 10
70749.49010000005
 20
341869.5799000003
 10
70748.96870000008
 20
341869.6077999995
 10
70748.44780000019
 20
341869.6373999995
 10
70747.92750000022
 20
341869.6687000003
 10
70747.40780000016
 20
341869.7017000001
 10
70747.23460000008
 20
341869.7129999995
 10
70747.18269999977
 20
341869.7164999992
 10
70746.88889999967
 20
341869.7359999996
 10
70746.3711000001
 20
341869.7705000006
 10
70745.85360000003
 20
341869.8048999999
 10
70745.36239999998
 20
341869.8377000001
 10
70745.33650000021
 20
341869.8394000009
 10
70744.81979999971
 20
341869.8739
 10
70744.30350000039
 20
341869.9082999994
 10
70743.78760000039
 20
341869.9427000005
 10
70743.27209999971
 20
341869.9770999998
 10
70742.75700000021
 20
341870.0114999991
 10
70742.24230000004
 20
341870.0459000003
 10
70741.72800000011
 20
341870.0801999997
 10
70741.21410000045
 20
341870.1144999992
 10
70740.7006000001
 20
341870.1488000006
 10
70740.18740000017
 20
341870.1830000002
 10
70739.67470000032
 20
341870.2172999997
 10
70739.1623999998
 20
341870.2513999996
 10
70738.65029999987
 20
341870.2855999992
 10
70738.36859999969
 20
341870.3044000007
 10
70738.13900000043
 20
341870.3197000009
 10
70737.62789999973
 20
341870.3537000008
 10
70737.11730000004
 20
341870.3877000008
 10
70736.60709999967
 20
341870.4217000008
 10
70736.09719999972
 20
341870.4556000009
 10
70735.98259999975
 20
341870.4631999992
 10
70735.58789999969
 20
341870.4894999992
 10
70735.07899999991
 20
341870.5232999996
 10
70734.57050000038
 20
341870.5570999999
 10
70734.06240000017
 20
341870.5908000004
 10
70733.55480000004
 20
341870.6243999992
 10
70733.0477
 20
341870.6579999998
 10
70732.54110000003
 20
341870.6915000007
 10
70732.03490000032
 20
341870.7249999997
 10
70731.52919999976
 20
341870.7584000006
 10
70731.02400000021
 20
341870.7917999998
 10
70730.51919999998
 20
341870.8250999991
 10
70730.01499999966
 20
341870.8583000004
 10
70729.99660000019
 20
341870.8595000003
 10
70729.77469999995
 20
341870.8740999997
 10
70729.77010000031
 20
341870.8743999991
 10
70729.51130000036
 20
341870.8914000001
 10
70729.00810000021
 20
341870.9244999997
 10
70728.50540000014
 20
341870.9574999996
 10
70728.00320000015
 20
341870.9904999994
 10
70727.50160000008
 20
341871.0233999994
 10
70727.00050000008
 20
341871.0561999996
 10
70726.74959999974
 20
341871.0725999996
 10
70726.74450000003
 20
341871.0728999992
 10
70726.49990000017
 20
341871.0888999999
 10
70725.99930000025
 20
341871.1217000001
 10
70725.49870000035
 20
341871.1544000004
 10
70724.99820000026
 20
341871.1871000007
 10
70724.49760000035
 20
341871.2199000009
 10
70723.99700000044
 20
341871.2525999993
 10
70723.49650000036
 20
341871.2853999995
 10
70722.99590000044
 20
341871.3180999998
 10
70722.9645999996
 20
341871.3202
 10
70722.49540000036
 20
341871.3509
 10
70721.99480000045
 20
341871.3836000004
 10
70721.49419999961
 20
341871.4163000006
 10
70720.99370000046
 20
341871.4491000008
 10
70720.49309999961
 20
341871.4817999993
 10
70719.9924999997
 20
341871.5145999995
 10
70719.49199999962
 20
341871.5472999998
 10
70718.9913999997
 20
341871.5800000001
 10
70718.49089999963
 20
341871.6128000003
 10
70717.99029999971
 20
341871.6455000005
 10
70717.4896999998
 20
341871.6783000007
 10
70716.98919999972
 20
341871.7109999992
 10
70716.48859999981
 20
341871.7436999995
 10
70715.98809999972
 20
341871.7764999997
 10
70715.48749999982
 20
341871.8092000001
 10
70714.9868999999
 20
341871.8420000002
 10
70714.48639999982
 20
341871.8747000005
 10
70713.98579999991
 20
341871.9074000009
 10
70713.48519999999
 20
341871.9401999992
 10
70712.98469999991
 20
341871.9728999995
 10
70712.4841
 20
341872.0056999997
 10
70711.98359999992
 20
341872.0384
 10
70711.483
 20
341872.0712000001
 10
70710.9824000001
 20
341872.1039000005
 10
70710.48190000001
 20
341872.1366000009
 10
70709.9813000001
 20
341872.1693999991
 10
70709.48070000019
 20
341872.2020999994
 10
70708.98020000011
 20
341872.2348999996
 10
70708.47960000019
 20
341872.2676
 10
70707.97910000012
 20
341872.3003000002
 10
70707.4785000002
 20
341872.3331000004
 10
70706.97790000028
 20
341872.3658000008
 10
70706.47740000021
 20
341872.3986000009
 10
70705.97680000029
 20
341872.4312999994
 10
70705.47620000038
 20
341872.4639999997
 10
70704.9757000003
 20
341872.4967999999
 10
70704.47510000039
 20
341872.5295000002
 10
70703.9746000003
 20
341872.5623000004
 10
70703.4740000004
 20
341872.5950000007
 10
70702.97339999955
 20
341872.6276999992
 10
70702.4729000004
 20
341872.6604999994
 10
70701.97229999956
 20
341872.6931999997
 10
70701.47169999964
 20
341872.7259999998
 10
70700.97119999956
 20
341872.7587000002
 10
70700.47059999965
 20
341872.7914000005
 10
70699.97009999957
 20
341872.8242000007
 10
70699.46949999965
 20
341872.8568999991
 10
70698.96889999975
 20
341872.8896999993
 10
70698.46839999966
 20
341872.9223999996
 10
70697.96779999975
 20
341872.9551999998
 10
70697.46719999984
 20
341872.9879000001
 10
70696.96669999975
 20
341873.0206000005
 10
70696.46609999984
 20
341873.0534000006
 10
70695.96559999976
 20
341873.0861000009
 10
70695.46499999985
 20
341873.1188999992
 10
70694.96439999994
 20
341873.1515999996
 10
70694.46389999986
 20
341873.1842999998
 10
70693.96329999994
 20
341873.2171
 10
70693.46279999986
 20
341873.2498000004
 10
70692.96219999995
 20
341873.2826000005
 10
70692.46160000004
 20
341873.3153000009
 10
70692.39570000022
 20
341873.3197000008
 10
70691.96109999995
 20
341873.3479999993
 10
70691.46050000004
 20
341873.3807999995
 10
70690.95990000013
 20
341873.4134999998
 10
70690.45940000004
 20
341873.4463
 10
70689.95880000014
 20
341873.4790000003
 10
70689.45830000005
 20
341873.5117000006
 10
70688.95770000015
 20
341873.5445000008
 10
70688.89169999957
 20
341873.548800001
 10
70688.45710000023
 20
341873.5771999993
 10
70688.1568
 20
341873.5968999993
 10
70687.95660000015
 20
341873.6099999994
 10
70687.45600000024
 20
341873.6426999998
 10
70686.95540000033
 20
341873.6754000001
 10
70686.68730000034
 20
341873.693
 10
70686.65500000026
 20
341873.6951000002
 10
70686.45459999982
 20
341873.7083000001
 10
70685.95399999991
 20
341873.7414999995
 10
70685.45309999958
 20
341873.7752000001
 10
70685.15280000027
 20
341873.7957000006
 10
70684.95239999983
 20
341873.8094999996
 10
70684.45199999958
 20
341873.8442000002
 10
70683.95139999967
 20
341873.8794999998
 10
70683.65120000019
 20
341873.9008000009
 10
70683.51659999974
 20
341873.9104999993
 10
70683.45100000035
 20
341873.9152000006
 10
70682.95069999993
 20
341873.9514000006
 10
70682.88480000012
 20
341873.9562999998
 10
70682.45040000044
 20
341873.9881999996
 10
70682.15029999986
 20
341874.0105000008
 10
70681.95010000001
 20
341874.0253999998
 10
70681.45010000002
 20
341874.0631000009
 10
70681.42449999973
 20
341874.0650999993
 10
70680.95000000019
 20
341874.1013999991
 10
70680.65000000038
 20
341874.1246000007
 10
70680.44990000036
 20
341874.1401000005
 10
70679.95010000002
 20
341874.1794000008
 10
70679.70110000018
 20
341874.1991000008
 10
70679.45029999967
 20
341874.2191000003
 10
70679.38410000037
 20
341874.2244000006
 10
70679.15039999969
 20
341874.2432000004
 10
70678.95040000044
 20
341874.2592999991
 10
70678.45089999959
 20
341874.3000000008
 10
70678.42530000024
 20
341874.3022000008
 10
70677.95120000001
 20
341874.3412999995
 10
70677.65149999969
 20
341874.3662000001
 10
70677.45160000026
 20
341874.3829999995
 10
70676.9523
 20
341874.4252000004
 10
70676.64890000037
 20
341874.4510999993
 10
70676.56854086311
 20
341874.4646408344
 10
70676.49144815667
 20
341874.4910540843
 10
70676.41966929071
 20
341874.5296382723
 10
70676.35511055121
 20
341874.5793686887
 10
70676.29948647374
 20
341874.6389246049
 10
70676.25427430924
 20
341874.7067243493
 10
70676.22067479154
 20
341874.7809673123
 10
70676.19958024865
 20
341874.8596817673
 10
70676.19155090435
 20
341874.9407772344
 10
70676.19680000003
 20
341875.0220999997
 10
70676.63609999977
 20
341878.0095000007
1001
AcMap_E615D161-C9D7-11d3-839F-0060B0FB6B57
1071
        1
1071
        2
  0
LWPOLYLINE
  5
286
330
1F
100
AcDbEntity
  8
Straßenverlauf_FBRD
100
AcDbPolyline
 90
        8
 70
     0
 43
0.0
 10
70671.15130000003
 20
341878.5153000001
 10
70671.96439999993
 20
341878.4364999999
 10
70672.96119999978
 20
341878.3417000007
 10
70673.95830000005
 20
341878.2488000002
 10
70674.95569999982
 20
341878.1579999998
 10
70675.92789999954
 20
341878.0713999999
 10
70675.9534
 20
341878.0691
 10
70676.63609999977
 20
341878.0095000007
1001
AcMap_E615D161-C9D7-11d3-839F-0060B0FB6B57
1071
        1
1071
        2
  0
LINE
  5
287
330
1F
100
AcDbEntity
  8
Straßenverlauf_FBRD
100
AcDbLine
 10
70613.72449999955
 20
341879.0557000004
 30
0.0
 11
70613.81689999998
 21
341876.5040000007
 31
0.0
1001
AcMap_E615D161-C9D7-11d3-839F-0060B0FB6B57
1071
        1
1071
        2
  0
LWPOLYLINE
  5
288
330
1F
100
AcDbEntity
  8
Straßenverlauf_FBRD
100
AcDbPolyline
 90
      239
 70
     0
 43
0.0
 10
70613.72449999955
 20
341879.0557000004
 10
70627.71719999984
 20
341877.5636999998
 10
70646.6808000002
 20
341874.8988000006
 10
70658.04770167457
 20
341873.3733930642
 10
70669.44660000038
 20
341872.1090999991
 10
70671.29480000026
 20
341871.9053000007
 10
70676.92140000034
 20
341871.6879999992
 10
70681.12640000041
 20
341871.580600001
 10
70681.23440000042
 20
341871.5723000001
 10
70681.26070000045
 20
341871.5702999998
 10
70681.7620000001
 20
341871.5325000007
 10
70681.96389999986
 20
341871.5174000003
 10
70682.26530000009
 20
341871.4949999992
 10
70682.70040000044
 20
341871.4630999994
 10
70682.70359999965
 20
341871.4627999999
 10
70682.7686999999
 20
341871.4581000004
 10
70683.27039999981
 20
341871.4217000008
 10
70683.33739999961
 20
341871.4168999996
 10
70683.47250000015
 20
341871.4071999993
 10
70683.77379999962
 20
341871.3858000003
 10
70684.27770000044
 20
341871.3502999992
 10
70684.77940000034
 20
341871.3155000006
 10
70684.98139999993
 20
341871.3015999999
 10
70685.28309999965
 20
341871.2809999995
 10
70685.7871000003
 20
341871.2470999994
 10
70686.28899999987
 20
341871.2138000001
 10
70686.49120000005
 20
341871.2005000003
 10
70686.5240000002
 20
341871.1983000003
 10
70686.79229999985
 20
341871.1808000002
 10
70687.29279999994
 20
341871.1480000001
 10
70687.79339999985
 20
341871.1152999998
 10
70687.99359999969
 20
341871.1021999996
 10
70688.29399999976
 20
341871.0825999994
 10
70688.7285000002
 20
341871.0541999992
 10
70688.79449999984
 20
341871.0497999992
 10
70689.29509999976
 20
341871.0171000008
 10
70689.79559999983
 20
341870.9843000006
 10
70690.29619999975
 20
341870.9516000003
 10
70690.79679999966
 20
341870.9189
 10
70691.29729999974
 20
341870.8860999998
 10
70691.79789999965
 20
341870.8533999995
 10
70692.23249999993
 20
341870.8249999993
 10
70692.29849999957
 20
341870.8205999993
 10
70692.79899999965
 20
341870.7879000008
 10
70693.29959999956
 20
341870.7552000005
 10
70693.80009999965
 20
341870.7224000004
 10
70694.30069999955
 20
341870.6897
 10
70694.8013000004
 20
341870.6568999998
 10
70695.30179999955
 20
341870.6241999995
 10
70695.80240000039
 20
341870.5913999994
 10
70696.30300000031
 20
341870.5587000009
 10
70696.80350000038
 20
341870.5260000006
 10
70697.3041000003
 20
341870.4932000004
 10
70697.80460000038
 20
341870.4605000001
 10
70698.30520000029
 20
341870.4276999999
 10
70698.8058000002
 20
341870.3949999996
 10
70699.30630000029
 20
341870.3622999993
 10
70699.80690000019
 20
341870.329500001
 10
70700.30750000011
 20
341870.2968000006
 10
70700.80800000019
 20
341870.2640000005
 10
70701.3086000001
 20
341870.2313000002
 10
70701.80910000019
 20
341870.1985999998
 10
70702.3097000001
 20
341870.1657999996
 10
70702.81030000001
 20
341870.1330999993
 10
70703.31080000009
 20
341870.1002999991
 10
70703.81140000001
 20
341870.0676000007
 10
70704.31190000008
 20
341870.0349000003
 10
70704.8125
 20
341870.0021000002
 10
70705.31309999991
 20
341869.9693999999
 10
70705.81359999999
 20
341869.9365999997
 10
70706.3141999999
 20
341869.9038999994
 10
70706.81479999982
 20
341869.8710999992
 10
70707.31529999989
 20
341869.8384000008
 10
70707.81589999981
 20
341869.8057000004
 10
70708.31639999989
 20
341869.7729000002
 10
70708.8169999998
 20
341869.7401999999
 10
70709.31759999972
 20
341869.7073999997
 10
70709.8180999998
 20
341869.6746999994
 10
70710.31869999971
 20
341869.6420000009
 10
70710.81929999962
 20
341869.6092000008
 10
70711.31979999971
 20
341869.5765000005
 10
70711.82039999961
 20
341869.5437000003
 10
70712.3208999997
 20
341869.511
 10
70712.82149999961
 20
341869.4782999997
 10
70713.32210000045
 20
341869.4454999995
 10
70713.8225999996
 20
341869.4127999991
 10
70714.32320000045
 20
341869.3800000009
 10
70714.82380000036
 20
341869.3473000005
 10
70715.32430000044
 20
341869.3146000002
 10
70715.82490000036
 20
341869.2818
 10
70716.32540000043
 20
341869.2490999997
 10
70716.82600000035
 20
341869.2162999995
 10
70717.32660000026
 20
341869.1835999992
 10
70717.82710000034
 20
341869.1509000007
 10
70718.32770000026
 20
341869.1181000006
 10
70718.82830000017
 20
341869.0854000003
 10
70719.32880000025
 20
341869.0526000001
 10
70719.82940000016
 20
341869.0198999998
 10
70720.32990000025
 20
341868.9870999996
 10
70720.83050000015
 20
341868.9543999992
 10
70721.33110000007
 20
341868.9217000008
 10
70721.83160000015
 20
341868.8889000006
 10
70722.33220000006
 20
341868.8562000003
 10
70722.80140000023
 20
341868.8255000003
 10
70722.83279999997
 20
341868.8234000001
 10
70723.33330000006
 20
341868.7906999998
 10
70723.83389999997
 20
341868.7579999995
 10
70724.33440000005
 20
341868.7251999993
 10
70724.83499999997
 20
341868.6925000009
 10
70725.33559999987
 20
341868.6597000007
 10
70725.83609999996
 20
341868.6270000004
 10
70726.33669999987
 20
341868.5943
 10
70726.58129999973
 20
341868.5782999992
 10
70726.58650000021
 20
341868.5778999999
 10
70726.83729999978
 20
341868.5614999998
 10
70727.33820000011
 20
341868.5286999997
 10
70727.83970000036
 20
341868.4957999997
 10
70728.34169999976
 20
341868.4628999997
 10
70728.84420000017
 20
341868.4298999999
 10
70729.34729999955
 20
341868.3968000003
 10
70729.60589999985
 20
341868.3797999993
 10
70729.61050000041
 20
341868.3794999998
 10
70729.83260000031
 20
341868.3649000004
 10
70729.8507000003
 20
341868.3637000006
 10
70730.35489999968
 20
341868.3304999993
 10
70730.85950000026
 20
341868.2971999999
 10
70731.36450000014
 20
341868.2639000007
 10
70731.87009999994
 20
341868.2304999996
 10
70732.37609999999
 20
341868.1970000007
 10
70732.88260000013
 20
341868.1634999998
 10
70733.38960000034
 20
341868.1298999992
 10
70733.89709999971
 20
341868.0962000005
 10
70734.40500000025
 20
341868.0625
 10
70734.91330000013
 20
341868.0287999996
 10
70735.42210000008
 20
341867.9949999992
 10
70735.81680000015
 20
341867.9688000009
 10
70735.93140000012
 20
341867.9611000009
 10
70736.4411000004
 20
341867.9272000008
 10
70736.95120000001
 20
341867.8933000006
 10
70737.4617999997
 20
341867.8593000006
 10
70737.97279999964
 20
341867.8252000008
 10
70738.2023
 20
341867.8099000008
 10
70738.48400000017
 20
341867.7910999991
 10
70738.99610000011
 20
341867.7569999993
 10
70739.50829999987
 20
341867.7227999996
 10
70740.02099999971
 20
341867.6886
 10
70740.53409999981
 20
341867.6543000005
 10
70741.04760000016
 20
341867.6201000009
 10
70741.56149999984
 20
341867.5857999995
 10
70742.07579999976
 20
341867.5514000002
 10
70742.59049999993
 20
341867.5171000007
 10
70743.10560000036
 20
341867.4826999996
 10
70743.62119999993
 20
341867.4483000003
 10
70744.13709999993
 20
341867.4137999993
 10
70744.65340000019
 20
341867.3794
 10
70745.17019999959
 20
341867.3449000009
 10
70745.19610000029
 20
341867.3432
 10
70745.68740000017
 20
341867.3104999997
 10
70746.20490000024
 20
341867.2760000005
 10
70746.7229000004
 20
341867.2414999996
 10
70747.01680000033
 20
341867.2219999991
 10
70747.06940000038
 20
341867.2184999995
 10
70747.24679999984
 20
341867.2068000008
 10
70747.77329999953
 20
341867.1733999997
 10
70748.30190000031
 20
341867.1416999996
 10
70748.83100000024
 20
341867.1116000004
 10
70749.36060000025
 20
341867.0833000001
 10
70749.89080000016
 20
341867.0566000007
 10
70750.42150000017
 20
341867.0317000002
 10
70750.95280000009
 20
341867.0086000003
 10
70751.48450000025
 20
341866.9870999996
 10
70752.01669999957
 20
341866.9673999995
 10
70752.5493999999
 20
341866.9495000001
 10
70753.08260000031
 20
341866.9332999997
 10
70753.61589999962
 20
341866.9188000001
 10
70754.09140000027
 20
341866.9074000009
 10
70754.09539999999
 20
341866.9074000009
 10
70754.15240000002
 20
341866.9060999994
 10
70754.68329999968
 20
341866.8951999992
 10
70754.85940000042
 20
341866.892000001
 10
70755.22049999982
 20
341866.886
 10
70755.75519999954
 20
341866.8785999995
 10
70756.2910000002
 20
341866.8729999997
 10
70756.82720000017
 20
341866.8691000007
 10
70757.36390000023
 20
341866.8670000006
 10
70757.90000000037
 20
341866.8666999992
 10
70758.22790000029
 20
341866.8673999999
 10
70758.43969999999
 20
341866.8682000004
 10
70758.97609999962
 20
341866.8715000004
 10
70759.51400000043
 20
341866.8764999993
 10
70760.00829999987
 20
341866.8827999998
 10
70760.01190000027
 20
341866.8827999998
 10
70760.05240000039
 20
341866.8834000007
 10
70760.08019999973
 20
341866.8838
 10
70760.08380000014
 20
341866.8838
 10
70760.59169999975
 20
341866.8921000008
 10
70761.13030000031
 20
341866.9024999998
 10
70761.56630000006
 20
341866.9123
 10
70761.56929999962
 20
341866.9123999998
 10
70761.67219999991
 20
341866.9148999993
 10
70762.21019999962
 20
341866.9289999995
 10
70762.75030000042
 20
341866.9449000005
 10
70763.29079999961
 20
341866.9627000001
 10
70763.83160000015
 20
341866.9822000005
 10
70764.37170000001
 20
341867.0035999995
 10
70764.68869999982
 20
341867.0171000008
 10
70764.69240000005
 20
341867.0172000006
 10
70764.69739999994
 20
341867.0174000002
 10
70764.91469999961
 20
341867.0270000007
 10
70765.1529000001
 20
341867.0379000008
 10
70765.68570000026
 20
341867.0140000005
 10
70765.81120000034
 20
341867.0697000008
 10
70765.99710000027
 20
341867.079
 10
70766.41069999989
 20
341867.1008000001
 10
70766.41469999962
 20
341867.1009999998
 10
70766.54160000011
 20
341867.1078999993
 10
70767.08229999989
 20
341867.1384999995
 10
70767.625
 20
341867.1710000001
 10
70768.1679999996
 20
341867.2053999994
 10
70768.71129999962
 20
341867.2416999992
 10
70769.25470000039
 20
341867.2797999997
 10
70769.79849999957
 20
341867.3199000005
 10
70770.34240000043
 20
341867.3618000001
 10
70770.88549999985
 20
341867.4055000004
 10
70771.16799999959
 20
341867.4289999996
 10
70771.43230000045
 20
341867.4515000005
 10
70771.9746000003
 20
341867.4989
 10
70772.25349999964
 20
341867.5240000002
 10
70772.25800000038
 20
341867.5243999996
 10
70772.52190000005
 20
341867.5485999994
 10
70773.06579999998
 20
341867.5999999996
 10
70773.61120000015
 20
341867.6534000002
 10
70774.15510000009
 20
341867.7084999997
 10
70776.78639999963
 20
341867.9813999999
 10
70778.86890210224
 20
341868.0156393107
 10
70780.92595673435
 20
341867.6892751302
 10
70782.89559484873
 20
341867.0121392235
 10
70784.71848083246
 20
341866.0046304007
 10
70786.33970000036
 20
341864.6971000005
1001
AcMap_E615D161-C9D7-11d3-839F-0060B0FB6B57
1071
        1
1071
        2
  0
LINE
  5
289
330
1F
100
AcDbEntity
  8
Straßenverlauf_FBRD
100
AcDbLine
 10
70613.72489999979
 20
341879.0610000007
 30
0.0
 11
70613.72449999955
 21
341879.0557000004
 31
0.0
1001
AcMap_E615D161-C9D7-11d3-839F-0060B0FB6B57
1071
        1
1071
        2
  0
LWPOLYLINE
  5
28A
330
1F
100
AcDbEntity
  8
Straßenverlauf_FBRD
100
AcDbPolyline
 90
        4
 70
     0
 43
0.0
 10
70600.17929999996
 20
341879.7576999999
 10
70600.47229999955
 20
341879.3177000005
 10
70601.41270000022
 20
341877.8394000009
 10
70603.55979999993
 20
341874.4645000007
1001
AcMap_E615D161-C9D7-11d3-839F-0060B0FB6B57
1071
        1
1071
        2
  0
LWPOLYLINE
  5
28B
330
1F
100
AcDbEntity
  8
Straßenverlauf_FBRD
100
AcDbPolyline
 90
       17
 70
     0
 43
0.0
 10
70600.17929999996
 20
341879.7576999999
 10
70600.70299999974
 20
341879.7491999995
 10
70601.61050000042
 20
341879.7298000008
 10
70602.51989999972
 20
341879.7057000008
 10
70603.43109999969
 20
341879.6767999996
 10
70604.34410000033
 20
341879.6434000004
 10
70605.25879999995
 20
341879.6054999996
 10
70606.17530000024
 20
341879.5631000009
 10
70607.09360000025
 20
341879.5163000003
 10
70608.01350000035
 20
341879.4652999994
 10
70608.93520000018
 20
341879.4100000002
 10
70609.85850000009
 20
341879.3507000003
 10
70610.78359999974
 20
341879.2873999998
 10
70611.71030000038
 20
341879.2201000005
 10
70612.63870000001
 20
341879.1491
 10
70613.56869999971
 20
341879.0742000007
 10
70613.72489999979
 20
341879.0610000007
1001
AcMap_E615D161-C9D7-11d3-839F-0060B0FB6B57
1071
        1
1071
        2
  0
LWPOLYLINE
  5
28C
330
1F
100
AcDbEntity
  8
Straßenverlauf_FBRD
100
AcDbPolyline
 90
        3
 70
     0
 43
0.0
 10
70613.62810000032
 20
341881.5702
 10
70613.70660000015
 20
341879.5486999993
 10
70613.72489999979
 20
341879.0610000007
1001
AcMap_E615D161-C9D7-11d3-839F-0060B0FB6B57
1071
        1
1071
        2
  0
LWPOLYLINE
  5
28D
330
1F
100
AcDbEntity
  8
Straßenverlauf_FBRD
100
AcDbPolyline
 90
       16
 70
     0
 43
0.0
 10
70613.62810000032
 20
341881.5702
 10
70621.80290266843
 20
341880.7884907539
 10
70629.95480000041
 20
341879.7960000001
 10
70648.03409999981
 20
341877.2288000007
 10
70659.04599854753
 20
341875.7694052335
 10
70670.0876000002
 20
341874.5549999997
 10
70670.17212743168
 20
341874.5538322552
 10
70670.25564380681
 20
341874.5669190953
 10
70670.33576251298
 20
341874.5938865427
 10
70670.41019403133
 20
341874.63396396
 10
70670.47681136336
 20
341874.6860060715
 10
70670.53371081338
 20
341874.7485256915
 10
70670.57926638953
 20
341874.8197362229
 10
70670.61217626907
 20
341874.897602712
 10
70670.63150000013
 20
341874.9799000006
 10
70671.15130000003
 20
341878.5153000001
1001
AcMap_E615D161-C9D7-11d3-839F-0060B0FB6B57
1071
        1
1071
        2
  0
LINE
  5
28E
330
1F
100
AcDbEntity
  8
Straßenverlauf_FBRD
100
AcDbLine
 10
70613.6277999999
 20
341881.5775000006
 30
0.0
 11
70613.62810000032
 21
341881.5702
 31
0.0
1001
AcMap_E615D161-C9D7-11d3-839F-0060B0FB6B57
1071
        1
1071
        2
  0
LINE
  5
28F
330
1F
100
AcDbEntity
  8
Straßenverlauf_FBRD
100
AcDbLine
 10
70598.50250000041
 20
341882.2755999994
 30
0.0
 11
70600.17929999996
 21
341879.7576999999
 31
0.0
1001
AcMap_E615D161-C9D7-11d3-839F-0060B0FB6B57
1071
        1
1071
        2
  0
LWPOLYLINE
  5
290
330
1F
100
AcDbEntity
  8
Straßenverlauf_FBRD
100
AcDbPolyline
 90
       19
 70
     0
 43
0.0
 10
70598.50250000041
 20
341882.2755999994
 10
70598.72580000013
 20
341882.2745999992
 10
70598.91270000021
 20
341882.2731999997
 10
70599.83059999998
 20
341882.2634999994
 10
70600.74969999957
 20
341882.2488000002
 10
70601.67040000018
 20
341882.2291000001
 10
70602.59260000009
 20
341882.2046000008
 10
70603.51640000008
 20
341882.1754000001
 10
70604.44170000032
 20
341882.1415
 10
70605.36840000003
 20
341882.1031
 10
70606.29669999983
 20
341882.0601000004
 10
70607.22640000004
 20
341882.0128000007
 10
70608.15749999973
 20
341881.9611000009
 10
70609.09009999968
 20
341881.9053000007
 10
70610.02410000003
 20
341881.8453000002
 10
70610.95940000005
 20
341881.7811999992
 10
70611.89620000031
 20
341881.7131999992
 10
70612.83440000005
 20
341881.6414000001
 10
70613.6277999999
 20
341881.5775000006
1001
AcMap_E615D161-C9D7-11d3-839F-0060B0FB6B57
1071
        1
1071
        2
  0
LWPOLYLINE
  5
291
330
1F
100
AcDbEntity
  8
Straßenverlauf_FBRD
100
AcDbPolyline
 90
        9
 70
     0
 43
0.0
 10
70598.50250000041
 20
341882.2755999994
 10
70596.50899999961
 20
341885.2688999996
 10
70596.21619999967
 20
341885.7325999998
 10
70596.10007274438
 20
341885.8882133616
 10
70595.96124738968
 20
341886.0239652627
 10
70595.80307362498
 20
341886.1365801726
 10
70595.62936799361
 20
341886.2233408284
 10
70595.44432180424
 20
341886.2821537997
 10
70595.25239999965
 20
341886.3115999997
1001
AcMap_E615D161-C9D7-11d3-839F-0060B0FB6B57
1071
        1
1071
        2
  0
LWPOLYLINE
  5
292
330
1F
100
AcDbEntity
  8
Straßenverlauf_FBRD
100
AcDbPolyline
 90
       74
 70
     0
 43
0.0
 10
70615.66750000045
 20
341885.4682999999
 10
70615.79420000035
 20
341885.4572000001
 10
70616.01910000015
 20
341885.4374000002
 10
70616.9768000003
 20
341885.3498
 10
70617.93539999984
 20
341885.2588
 10
70618.89489999972
 20
341885.1644000002
 10
70619.85529999994
 20
341885.0669
 10
70620.81659999956
 20
341884.9662999996
 10
70621.77880000043
 20
341884.8627000004
 10
70622.74189999979
 20
341884.7562000007
 10
70623.70600000024
 20
341884.6468000003
 10
70624.67090000025
 20
341884.5348000005
 10
70625.63680000044
 20
341884.4201999996
 10
70626.60360000003
 20
341884.3030999993
 10
70627.57129999995
 20
341884.1835999992
 10
70628.54119999986
 20
341884.0616999995
 10
70629.50970000028
 20
341883.9377999995
 10
70630.48029999993
 20
341883.8117999994
 10
70631.45179999992
 20
341883.6838000007
 10
70632.4243999999
 20
341883.5537999999
 10
70633.39790000021
 20
341883.4222
 10
70634.37249999958
 20
341883.2887999993
 10
70635.34800000023
 20
341883.1538999994
 10
70636.32459999993
 20
341883.0175000001
 10
70637.3021999998
 20
341882.8797999994
 10
70637.54719999991
 20
341882.8451000005
 10
70638.28089999966
 20
341882.7408000008
 10
70639.0159
 20
341882.6358000004
 10
70639.26070000045
 20
341882.6007000003
 10
70640.24149999954
 20
341882.4594999999
 10
70640.48709999956
 20
341882.4241000005
 10
70641.22339999955
 20
341882.3173999991
 10
70641.96079999954
 20
341882.2103000004
 10
70642.20650000032
 20
341882.1744999998
 10
70643.19060000032
 20
341882.0308999997
 10
70643.22400000039
 20
341882.0261000004
 10
70643.43699999992
 20
341881.9948999994
 10
70644.17599999997
 20
341881.8867000007
 10
70644.91579999961
 20
341881.7782000006
 10
70645.1623999998
 20
341881.7420000006
 10
70646.05289999954
 20
341881.6110999994
 10
70646.1501000002
 20
341881.5968999993
 10
70646.3973000003
 20
341881.5604999997
 10
70647.07440000027
 20
341881.4609999992
 10
70647.13889999967
 20
341881.4515000005
 10
70647.88109999988
 20
341881.3430000004
 10
70648.12839999981
 20
341881.3070999999
 10
70649.11830000021
 20
341881.1647999995
 10
70649.36579999979
 20
341881.1294999998
 10
70650.10840000025
 20
341881.0243999995
 10
70651.0987999998
 20
341880.8859000002
 10
70652.08949999977
 20
341880.7495000009
 10
70653.08040000032
 20
341880.6150000003
 10
70654.0717000002
 20
341880.4825
 10
70655.06329999957
 20
341880.3519999999
 10
70656.05510000046
 20
341880.2235000003
 10
70657.04729999974
 20
341880.0968999993
 10
70658.03969999961
 20
341879.9724000004
 10
70659.03239999991
 20
341879.8498
 10
70660.02550000045
 20
341879.7291999999
 10
70661.01879999973
 20
341879.6105000004
 10
70662.01240000036
 20
341879.4938999992
 10
70663.00629999954
 20
341879.3792000003
 10
70664.00040000025
 20
341879.2665999998
 10
70664.99490000028
 20
341879.1558999997
 10
70665.9896999998
 20
341879.0471000001
 10
70666.98469999991
 20
341878.9404000007
 10
70667.98010000027
 20
341878.8355999999
 10
70668.9757000003
 20
341878.7328999993
 10
70669.15899999998
 20
341878.7141999994
 10
70669.97169999964
 20
341878.6320999991
 10
70670.96889999974
 20
341878.5331999995
 10
70671.00179999973
 20
341878.5299999993
 10
70671.15130000003
 20
341878.5153000001
1001
AcMap_E615D161-C9D7-11d3-839F-0060B0FB6B57
1071
        1
1071
        2
  0
LWPOLYLINE
  5
293
330
1F
100
AcDbEntity
  8
Straßenverlauf_FBRD
100
AcDbPolyline
 90
       12
 70
     0
 43
0.0
 10
70615.66750000045
 20
341885.4682999999
 10
70615.33491641328
 20
341885.4591983379
 10
70615.00844392933
 20
341885.3950859374
 10
70614.69711782674
 20
341885.2777371387
 10
70614.40955420061
 20
341885.1103996246
 10
70614.15371150832
 20
341884.8977045389
 10
70613.93667031565
 20
341884.6455383171
 10
70613.76443733885
 20
341884.3608797771
 10
70613.6417792058
 20
341884.0516069767
 10
70613.57209053753
 20
341883.7262791847
 10
70613.55730000045
 20
341883.3938999996
 10
70613.6277999999
 20
341881.5775000006
1001
AcMap_E615D161-C9D7-11d3-839F-0060B0FB6B57
1071
        1
1071
        2
  0
LWPOLYLINE
  5
294
330
1F
100
AcDbEntity
  8
Straßenverlauf_FBRD
100
AcDbPolyline
 90
        3
 70
     0
 43
0.0
 10
70595.02730000019
 20
341886.3081000001
 10
70595.18939999956
 20
341886.3109000009
 10
70595.25239999965
 20
341886.3115999997
1001
AcMap_E615D161-C9D7-11d3-839F-0060B0FB6B57
1071
        1
1071
        2
  0
LWPOLYLINE
  5
295
330
1F
100
AcDbEntity
  8
Straßenverlauf_FBRD
100
AcDbPolyline
 90
        3
 70
     0
 43
0.0
 10
70595.25239999965
 20
341886.3115999997
 10
70595.13977106061
 20
341886.314926926
 10
70595.02730000019
 20
341886.3081000001
1001
AcMap_E615D161-C9D7-11d3-839F-0060B0FB6B57
1071
        1
1071
        2
  0
LWPOLYLINE
  5
296
330
1F
100
AcDbEntity
  8
Straßenverlauf_FBRD
100
AcDbPolyline
 90
       24
 70
     0
 43
0.0
 10
70595.25239999965
 20
341886.3115999997
 10
70596.12820000015
 20
341886.3216999993
 10
70597.06709999963
 20
341886.3274000008
 10
70598.00600000005
 20
341886.3278999999
 10
70598.75289999973
 20
341886.3245000002
 10
70598.94489999954
 20
341886.3231000007
 10
70599.88460000045
 20
341886.3131000009
 10
70600.82540000044
 20
341886.2980000004
 10
70601.76740000025
 20
341886.2778999992
 10
70602.71040000022
 20
341886.2529000007
 10
70603.65460000001
 20
341886.2229999994
 10
70604.59979999997
 20
341886.1884000004
 10
70605.54600000009
 20
341886.1492
 10
70606.4933000002
 20
341886.1053
 10
70607.44159999956
 20
341886.0570999999
 10
70608.39080000016
 20
341886.0044
 10
70609.34109999984
 20
341885.9474999998
 10
70610.29229999985
 20
341885.8863999993
 10
70611.24440000019
 20
341885.8212000002
 10
70612.19749999978
 20
341885.7520000003
 10
70613.15149999969
 20
341885.6789999995
 10
70614.10639999993
 20
341885.6020999998
 10
70615.06230000034
 20
341885.5216000006
 10
70615.66750000045
 20
341885.4682999999
1001
AcMap_E615D161-C9D7-11d3-839F-0060B0FB6B57
1071
        1
1071
        2
  0
LWPOLYLINE
  5
297
330
1F
100
AcDbEntity
  8
Straßenverlauf_FBRD
100
AcDbPolyline
 90
       93
 70
     0
 43
0.0
 10
70670.32359999977
 20
341886.6337000002
 10
70670.17459999956
 20
341885.6204000004
 10
70670.15373541433
 20
341885.2882596777
 10
70670.18823531856
 20
341884.957257742
 10
70670.27714447679
 20
341884.6365589948
 10
70670.41800116683
 20
341884.3350429626
 10
70670.60690534018
 20
341884.0610580394
 10
70670.83862660657
 20
341883.8221903364
 10
70671.10674905362
 20
341883.625053637
 10
70671.40384889074
 20
341883.4751062741
 10
70671.72169999964
 20
341883.3764999993
 10
70674.9813450807
 20
341882.7688081636
 10
70678.27410000004
 20
341882.3784999997
 10
70678.57340000011
 20
341882.3530000002
 10
70679.54580000042
 20
341882.2722999994
 10
70679.57079999987
 20
341882.2701999992
 10
70680.56900000013
 20
341882.1894000005
 10
70680.81900000013
 20
341882.1695000008
 10
70681.5669999998
 20
341882.1106000003
 10
70682.30250000022
 20
341882.0537999999
 10
70682.53940000013
 20
341882.0357000008
 10
70682.56549999956
 20
341882.0337000005
 10
70682.6668999996
 20
341882.0261000004
 10
70683.5641999999
 20
341881.9589000009
 10
70684.56319999974
 20
341881.886
 10
70685.5625
 20
341881.8150999994
 10
70686.56219999958
 20
341881.7463000007
 10
70687.56230000034
 20
341881.6794000007
 10
70687.79430000018
 20
341881.6641000006
 10
70688.56290000025
 20
341881.6139000003
 10
70689.56410000008
 20
341881.5483999998
 10
70690.56520000007
 20
341881.4828999992
 10
70691.56630000006
 20
341881.4174000007
 10
70692.56740000006
 20
341881.3519000001
 10
70693.56859999988
 20
341881.2864999995
 10
70694.56969999987
 20
341881.2210000009
 10
70695.57079999987
 20
341881.1555000003
 10
70696.57189999986
 20
341881.0899999999
 10
70697.57309999968
 20
341881.0244999994
 10
70698.57419999968
 20
341880.9591000006
 10
70699.57529999967
 20
341880.8936000001
 10
70700.57639999967
 20
341880.8280999996
 10
70701.57760000043
 20
341880.7625999991
 10
70702.57870000042
 20
341880.6971000005
 10
70703.57980000041
 20
341880.6316
 10
70704.58090000041
 20
341880.5661999993
 10
70705.58210000023
 20
341880.5007000007
 10
70706.58320000022
 20
341880.4352000002
 10
70707.58430000022
 20
341880.3696999997
 10
70708.58540000021
 20
341880.3041999992
 10
70709.58660000004
 20
341880.2388000004
 10
70710.58770000004
 20
341880.1733
 10
70711.58880000003
 20
341880.1077999994
 10
70712.58990000002
 20
341880.0423000008
 10
70713.59109999984
 20
341879.9768000003
 10
70714.59219999984
 20
341879.9113999997
 10
70715.59329999983
 20
341879.8458999992
 10
70716.59439999983
 20
341879.7804000006
 10
70717.59559999965
 20
341879.7149
 10
70718.59669999964
 20
341879.6493999996
 10
70719.59779999963
 20
341879.5839000009
 10
70720.59889999963
 20
341879.5185000003
 10
70721.59999999962
 20
341879.4529999998
 10
70722.60120000038
 20
341879.3874999993
 10
70723.42200000025
 20
341879.3337999993
 10
70723.54935815986
 20
341879.336307076
 10
70723.67445505374
 20
341879.360331093
 10
70723.79368193876
 20
341879.4051790154
 10
70723.9035994074
 20
341879.4695570888
 10
70724.00103660624
 20
341879.5516081615
 10
70724.08318270756
 20
341879.6489652583
 10
70724.14766799478
 20
341879.7588198621
 10
70724.19263222319
 20
341879.8780029331
 10
70724.21677828344
 20
341880.0030763276
 10
70724.21940962004
 20
341880.1304319805
 10
70724.20045032528
 20
341880.2563959888
 10
70724.16044732902
 20
341880.3773345953
 10
70724.10055462102
 20
341880.4897590135
 10
70724.02249996122
 20
341880.5904260703
 10
70723.92853503793
 20
341880.6764317646
 10
70723.82137051219
 20
341880.7452950397
 10
70723.70409782158
 20
341880.7950293567
 10
70723.5800999999
 20
341880.8242000006
 10
70672.59329999983
 20
341888.3214999996
 10
70672.24527348408
 20
341888.3419612781
 10
70671.89898120939
 20
341888.3016775336
 10
70671.56494509129
 20
341888.2018727673
 10
70671.25331464817
 20
341888.0455794965
 10
70670.97355861334
 20
341887.837546613
 10
70670.73417723238
 20
341887.584095091
 10
70670.54244398737
 20
341887.2929259265
 10
70670.40418459596
 20
341886.9728861473
 10
70670.32359999977
 20
341886.6337000002
1001
AcMap_E615D161-C9D7-11d3-839F-0060B0FB6B57
1071
        1
1071
        2
  0
LWPOLYLINE
  5
298
330
1F
100
AcDbEntity
  8
Straßenverlauf_FBRD
100
AcDbPolyline
 90
      146
 70
     0
 43
0.0
 10
70508.61909999977
 20
341888.0203000009
 10
70510.79117749552
 20
341887.3831988359
 10
70513.03439161318
 20
341887.0801988948
 10
70515.29765793224
 20
341887.1182003555
 10
70517.52943538604
 20
341887.4963378154
 10
70519.6788999997
 20
341888.2060000003
 10
70520.33609999996
 20
341888.4802000001
 10
70521.28309999965
 20
341888.8716000002
 10
70522.2304999996
 20
341889.2595000006
 10
70522.70720000006
 20
341889.4532999992
 10
70523.18450000043
 20
341889.646400001
 10
70524.13559999969
 20
341890.0282000006
 10
70525.08770000003
 20
341890.4064000007
 10
70525.32299999985
 20
341890.4991999995
 10
70525.32919999957
 20
341890.5017000009
 10
70526.04779999982
 20
341890.7837000006
 10
70527.0055999998
 20
341891.1558999996
 10
70527.96619999967
 20
341891.5250000004
 10
70528.92889999971
 20
341891.8905999996
 10
70529.89360000006
 20
341892.2524999995
 10
70530.86029999982
 20
341892.6107000001
 10
70531.82909999974
 20
341892.9649999999
 10
70532.79999999981
 20
341893.3155000005
 10
70533.77300000004
 20
341893.6619000007
 10
70534.74810000043
 20
341894.0043000001
 10
70535.72530000005
 20
341894.3424999993
 10
70536.70239999983
 20
341894.6755999998
 10
70537.19510000012
 20
341894.8416000008
 10
70537.68840000033
 20
341895.0066
 10
70538.66970000044
 20
341895.3309000004
 10
70539.65550000034
 20
341895.6513000001
 10
70540.6434000004
 20
341895.9671999998
 10
70541.63350000046
 20
341896.2782000006
 10
70542.62569999974
 20
341896.5844000001
 10
70543.62009999994
 20
341896.8857000005
 10
70544.61670000013
 20
341897.1819000002
 10
70545.61539999954
 20
341897.4729999993
 10
70546.61500000023
 20
341897.7584000007
 10
70547.37519999966
 20
341897.9715999999
 10
70547.37920000031
 20
341897.9726999999
 10
70547.62330000009
 20
341898.0404000004
 10
70548.62390000001
 20
341898.3143000007
 10
70549.63009999972
 20
341898.5836999994
 10
70550.63779999968
 20
341898.8475000002
 10
70551.64429999981
 20
341899.1050000005
 10
70552.1520999996
 20
341899.2325999998
 10
70552.66029999963
 20
341899.3588999994
 10
70553.66949999984
 20
341899.6052000002
 10
70554.68290000036
 20
341899.8465
 10
70555.69749999977
 20
341900.0822000001
 10
70556.7134999996
 20
341900.3123000004
 10
70557.73070000019
 20
341900.5366999992
 10
70558.74909999967
 20
341900.7555
 10
70559.7686999999
 20
341900.9685999994
 10
70560.78949999996
 20
341901.1760000009
 10
70561.81149999983
 20
341901.3778000009
 10
70562.83449999988
 20
341901.5738999993
 10
70563.85859999992
 20
341901.7643
 10
70564.88379999995
 20
341901.9489999991
 10
70565.91000000015
 20
341902.1280000005
 10
70566.93439999968
 20
341902.3007999995
 10
70567.45100000035
 20
341902.3857000005
 10
70567.96800000034
 20
341902.4693
 10
70568.99419999961
 20
341902.6306999997
 10
70570.02410000004
 20
341902.7869000006
 10
70571.05489999987
 20
341902.9373000004
 10
70572.08640000038
 20
341903.0820000004
 10
70573.11880000028
 20
341903.2210000009
 10
70574.15189999994
 20
341903.3542
 10
70575.17920000012
 20
341903.4809000008
 10
70575.18570000026
 20
341903.4816999995
 10
70575.19230000023
 20
341903.4824999999
 10
70576.22030000016
 20
341903.6033999995
 10
70577.25540000014
 20
341903.7193999999
 10
70578.29119999986
 20
341903.8297000006
 10
70579.32770000025
 20
341903.9342000001
 10
70580.36459999997
 20
341904.0329
 10
70581.4020999996
 20
341904.1259000004
 10
70582.44020000007
 20
341904.2130999994
 10
70583.47860000003
 20
341904.2945000008
 10
70584.51750000007
 20
341904.3702000007
 10
70585.55690000019
 20
341904.4399999995
 10
70586.59659999982
 20
341904.5042000004
 10
70587.63659999985
 20
341904.5625000001
 10
70588.67690000031
 20
341904.6151000001
 10
70589.71750000026
 20
341904.6618000009
 10
70590.7583999997
 20
341904.7028000001
 10
70591.79949999973
 20
341904.7379999999
 10
70592.84069999959
 20
341904.7675000001
 10
70593.88210000005
 20
341904.7910999991
 10
70594.92360000032
 20
341904.8090000004
 10
70595.96520000044
 20
341904.8210000005
 10
70597.00690000038
 20
341904.8272999991
 10
70598.04739999957
 20
341904.8278000001
 10
70598.87420000043
 20
341904.8241000008
 10
70599.09449999966
 20
341904.8224999998
 10
70600.13109999988
 20
341904.8114999998
 10
70601.17119999975
 20
341904.7948000003
 10
70602.21040000021
 20
341904.7727000006
 10
70603.24859999958
 20
341904.7451000009
 10
70604.28589999955
 20
341904.7123000007
 10
70605.32210000046
 20
341904.6743000001
 10
70606.35730000027
 20
341904.6314000004
 10
70607.3914999999
 20
341904.5834999997
 10
70608.42459999956
 20
341904.5308999997
 10
70609.45660000015
 20
341904.4737
 10
70610.48749999981
 20
341904.4119000007
 10
70611.51730000041
 20
341904.3457999993
 10
70612.54600000009
 20
341904.2752999999
 10
70613.57359999977
 20
341904.2007999998
 10
70614.59999999962
 20
341904.1221999992
 10
70615.62530000042
 20
341904.0396999996
 10
70616.64950000029
 20
341903.953400001
 10
70617.67250000033
 20
341903.8633999992
 10
70618.69429999962
 20
341903.7698999998
 10
70619.71499999985
 20
341903.6730000004
 10
70620.73460000008
 20
341903.5726999994
 10
70621.75299999956
 20
341903.4693
 10
70622.76740000024
 20
341903.3631999996
 10
70622.81010000035
 20
341903.3585999999
 10
70622.81510000024
 20
341903.3581000008
 10
70623.78639999963
 20
341903.2533999998
 10
70624.80130000039
 20
341903.1412000005
 10
70625.81510000024
 20
341903.0262000002
 10
70626.53380000032
 20
341902.9428000003
 10
70631.78599723084
 20
341902.6138485257
 10
70637.04367790915
 20
341902.838745626
 10
70642.24859999958
 20
341903.6150000002
 10
70644.05188755822
 20
341904.1314615036
 10
70645.75265921217
 20
341904.9226342312
 10
70647.30935694366
 20
341905.9691860343
 10
70648.68394315257
 20
341907.2455446272
 10
70649.84283009774
 20
341908.7205224413
 10
70650.75770060668
 20
341910.3580786862
 10
70651.40620000009
 20
341912.1182000004
 10
70653.41115618081
 20
341918.0196994048
 10
70656.02622475029
 20
341923.6773456368
 10
70659.22234520987
 20
341929.028266914
 10
70662.96399999968
 20
341934.0130000003
 10
70666.16169811926
 20
341938.2784200546
 10
70668.88709190437
 20
341942.8600475187
 10
70671.10919999983
 20
341947.7058000006
 10
70671.69048780963
 20
341949.4968349362
 10
70672.04280513963
 20
341951.3465846914
 10
70672.16060000006
 20
341953.2259
 10
70672.15930000041
 20
341953.3499999996
1001
AcMap_E615D161-C9D7-11d3-839F-0060B0FB6B57
1071
        1
1071
        2
  0
LWPOLYLINE
  5
299
330
1F
100
AcDbEntity
  8
Straßenverlauf_FBRD
100
AcDbPolyline
 90
       99
 70
     0
 43
0.0
 10
70800.63269999996
 20
341892.5592
 10
70800.71030000039
 20
341892.5955999997
 10
70800.76989999972
 20
341892.6245000009
 10
70801.18709999974
 20
341892.8275000006
 10
70801.30389999971
 20
341892.8850999996
 10
70801.60300000012
 20
341893.0332999993
 10
70802.01910000015
 20
341893.2404999994
 10
70802.43369999993
 20
341893.4507999998
 10
70802.77130000014
 20
341893.6228999998
 10
70802.8476999998
 20
341893.6622000002
 10
70803.26159999985
 20
341893.8773999997
 10
70803.41569999978
 20
341893.9578000009
 10
70803.53859999962
 20
341894.0219999999
 10
70803.6052000001
 20
341894.0568000004
 10
70803.67499999981
 20
341894.0934999995
 10
70804.08690000046
 20
341894.3125
 10
70804.31549999956
 20
341894.4344999995
 10
70804.47449999955
 20
341894.5199999996
 10
70804.49880000017
 20
341894.5331999995
 10
70804.63480000012
 20
341894.6066999995
 10
70804.79629999958
 20
341894.6942999997
 10
70804.90969999972
 20
341894.7561000008
 10
70804.95889999997
 20
341894.7829999999
 10
70805.12280000001
 20
341894.8727000002
 10
70805.28780000005
 20
341894.9635000006
 10
70805.3200000003
 20
341894.9813000001
 10
70805.45390000008
 20
341895.0551999994
 10
70805.62119999993
 20
341895.148
 10
70805.72950000036
 20
341895.2083999999
 10
70805.78949999996
 20
341895.2418000009
 10
70805.95930000022
 20
341895.3367999997
 10
70806.13159999996
 20
341895.4337000009
 10
70806.13860000018
 20
341895.4375999998
 10
70806.30620000046
 20
341895.5322999992
 10
70806.48319999967
 20
341895.6326000002
 10
70806.54669999983
 20
341895.6688000001
 10
70806.66229999996
 20
341895.7346999999
 10
70806.84339999966
 20
341895.8383000009
 10
70806.9140999997
 20
341895.8789000008
 10
70806.95440000016
 20
341895.9020000007
 10
70807.09630000033
 20
341895.9837999996
 10
70807.27890000027
 20
341896.0892999992
 10
70807.36129999999
 20
341896.1371
 10
70807.46190000046
 20
341896.1955999993
 10
70807.56840000022
 20
341896.2577
 10
70807.64510000031
 20
341896.3025000002
 10
70807.76769999974
 20
341896.3742999994
 10
70807.82870000041
 20
341896.4101
 10
70808.01269999985
 20
341896.5183000006
 10
70808.17329999991
 20
341896.6132999994
 10
70808.19689999986
 20
341896.6272
 10
70808.38129999954
 20
341896.7367000003
 10
70808.44479999971
 20
341896.7744999994
 10
70808.56599999964
 20
341896.8466999996
 10
70808.57849999983
 20
341896.8542
 10
70808.75079999957
 20
341896.9573999998
 10
70808.84229999967
 20
341897.0122999996
 10
70808.93589999992
 20
341897.0686000009
 10
70808.94010000024
 20
341897.0712000002
 10
70808.98280000035
 20
341897.0968999993
 10
70809.01279999967
 20
341897.1150000003
 10
70809.1211000001
 20
341897.1805000007
 10
70809.30659999977
 20
341897.2928999998
 10
70809.38669999969
 20
341897.3416000009
 10
70809.49220000021
 20
341897.4058999997
 10
70809.61299999989
 20
341897.4795999993
 10
70809.78980000038
 20
341897.5878999997
 10
70809.79949999973
 20
341897.5939000007
 10
70809.98670000024
 20
341897.7091000006
 10
70810.17449999973
 20
341897.8250999991
 10
70810.19240000006
 20
341897.8362000007
 10
70810.3629999999
 20
341897.9419999998
 10
70810.55200000014
 20
341898.0596999992
 10
70810.59429999999
 20
341898.0861000009
 10
70810.74149999953
 20
341898.178200001
 10
70810.93159999977
 20
341898.2973999996
 10
70810.99569999985
 20
341898.3377999999
 10
70811.12210000027
 20
341898.4175000005
 10
70811.31300000008
 20
341898.5383000001
 10
70811.39639999997
 20
341898.5911999997
 10
70811.50420000032
 20
341898.6597000007
 10
70811.69570000004
 20
341898.7817000002
 10
70811.79669999983
 20
341898.8463000004
 10
70811.88719999977
 20
341898.9043000006
 10
70812.07899999991
 20
341899.0274999999
 10
70812.19620000012
 20
341899.1030000002
 10
70812.27080000005
 20
341899.1512000002
 10
70812.46279999986
 20
341899.2753999997
 10
70812.53550000023
 20
341899.3225999996
 10
70812.59539999999
 20
341899.3615000006
 10
70812.65500000026
 20
341899.4002
 10
70812.84719999972
 20
341899.5254999995
 10
70812.99380000029
 20
341899.6214000006
 10
70813.03949999996
 20
341899.6513999998
 10
70813.23190000001
 20
341899.7776999996
 10
70813.39180000033
 20
341899.8830999993
 10
70813.4243999999
 20
341899.9046000001
 10
70813.61689999979
 20
341900.0318999998
 10
70813.74639999959
 20
341900.1180000007
1001
AcMap_E615D161-C9D7-11d3-839F-0060B0FB6B57
1071
        1
1071
        2
  0
LWPOLYLINE
  5
29A
330
1F
100
AcDbEntity
  8
Straßenverlauf_FBRD
100
AcDbPolyline
 90
       99
 70
     0
 43
0.0
 10
70800.63269999996
 20
341892.5592
 10
70800.66970000044
 20
341892.6797000003
 10
70800.69820000045
 20
341892.7729000002
 10
70800.89439999964
 20
341893.4244999998
 10
70800.94859999977
 20
341893.6074999999
 10
70801.08540000021
 20
341894.0761999991
 10
70801.27120000031
 20
341894.7279000003
 10
70801.45199999958
 20
341895.3796999995
 10
70801.59539999999
 20
341895.9101999998
 10
70801.62760000024
 20
341896.0306000002
 10
70801.79870000016
 20
341896.6832999997
 10
70801.86120000016
 20
341896.9261000007
 10
70801.91079999972
 20
341897.1195999999
 10
70801.97470000014
 20
341897.1536999997
 10
70802.04179999977
 20
341897.1890999992
 10
70802.43939999957
 20
341897.4001000002
 10
70802.6595999999
 20
341897.5179999993
 10
70802.81309999991
 20
341897.6006000005
 10
70802.83650000021
 20
341897.6131999996
 10
70802.96779999975
 20
341897.6842
 10
70803.12370000035
 20
341897.7687999998
 10
70803.23319999966
 20
341897.8285000008
 10
70803.2807
 20
341897.8543999996
 10
70803.43890000041
 20
341897.9410999995
 10
70803.59829999972
 20
341898.0286999997
 10
70803.62939999997
 20
341898.0458000004
 10
70803.75879999995
 20
341898.1173999999
 10
70803.92040000018
 20
341898.2070000004
 10
70804.0251000002
 20
341898.2653000001
 10
70804.0831000004
 20
341898.2977000009
 10
70804.2472000001
 20
341898.3894999996
 10
70804.41380000021
 20
341898.4831000008
 10
70804.42040000018
 20
341898.4868999999
 10
70804.58270000014
 20
341898.5785000008
 10
70804.75389999989
 20
341898.6755999998
 10
70804.8152999999
 20
341898.7105000001
 10
70804.92709999997
 20
341898.7742999997
 10
70805.10230000037
 20
341898.8745000009
 10
70805.17080000043
 20
341898.9137999993
 10
70805.2098000003
 20
341898.9362000004
 10
70805.34719999972
 20
341899.0153000001
 10
70805.52400000021
 20
341899.1175999995
 10
70805.60369999986
 20
341899.1637999993
 10
70805.70110000018
 20
341899.2204
 10
70805.80429999995
 20
341899.2806000002
 10
70805.8786000004
 20
341899.3239999991
 10
70805.99729999993
 20
341899.3935000003
 10
70806.05649999995
 20
341899.4282000009
 10
70806.23469999991
 20
341899.5330999996
 10
70806.39039999992
 20
341899.6250999999
 10
70806.41330000013
 20
341899.6385999993
 10
70806.59210000001
 20
341899.7447999995
 10
70806.65369999968
 20
341899.7814000007
 10
70806.77109999955
 20
341899.8515000009
 10
70806.78309999965
 20
341899.8586999998
 10
70806.95040000044
 20
341899.9587999992
 10
70807.03909999971
 20
341900.0121
 10
70807.12990000006
 20
341900.0667000003
 10
70807.1342000002
 20
341900.0689000004
 10
70807.19130000006
 20
341900.0678000003
 10
70807.23159999959
 20
341900.0668000002
 10
70807.37729999982
 20
341900.0634000003
 10
70807.62700000033
 20
341900.0581000001
 10
70807.73489999957
 20
341900.0559999999
 10
70807.87750000041
 20
341900.0535000004
 10
70808.04069999977
 20
341900.0507999994
 10
70808.28000000026
 20
341900.0472999998
 10
70808.29320000018
 20
341900.0471999999
 10
70808.54710000008
 20
341900.0441999994
 10
70808.80240000039
 20
341900.0418999996
 10
70808.82660000026
 20
341900.0416999999
 10
70809.05900000035
 20
341900.0402000007
 10
70809.31689999998
 20
341900.0392000004
 10
70809.37469999958
 20
341900.0391000007
 10
70809.57600000035
 20
341900.0387999993
 10
70809.83629999962
 20
341900.0391000007
 10
70809.92410000041
 20
341900.0394000001
 10
70810.0976999998
 20
341900.0401000008
 10
70810.36019999999
 20
341900.0416999999
 10
70810.47499999963
 20
341900.0426000003
 10
70810.62349999975
 20
341900.0438999999
 10
70810.88760000001
 20
341900.0468000006
 10
70811.0270999996
 20
341900.0485999994
 10
70811.15249999985
 20
341900.0504000001
 10
70811.41789999977
 20
341900.0546000004
 10
70811.58059999999
 20
341900.0574999992
 10
70811.68410000018
 20
341900.0594999995
 10
70811.95089999959
 20
341900.0649999996
 10
70812.05200000014
 20
341900.0672999993
 10
70812.13520000036
 20
341900.0691999998
 10
70812.21829999983
 20
341900.0712000001
 10
70812.48629999999
 20
341900.0779999997
 10
70812.6911000004
 20
341900.0835999996
 10
70812.75490000006
 20
341900.0855000001
 10
70813.02410000004
 20
341900.0935999993
 10
70813.24810000043
 20
341900.1008000002
 10
70813.2938000001
 20
341900.1022999995
 10
70813.56400000024
 20
341900.1116000004
 10
70813.74639999959
 20
341900.1180000007
1001
AcMap_E615D161-C9D7-11d3-839F-0060B0FB6B57
1071
        1
1071
        2
  0
LWPOLYLINE
  5
29B
330
1F
100
AcDbEntity
  8
Straßenverlauf_FBRD
100
AcDbPolyline
 90
      142
 70
     0
 43
0.0
 10
70698.24210000038
 20
341892.6369000003
 10
70698.24469999969
 20
341892.6357000005
 10
70698.30900000035
 20
341892.6261999999
 10
70699.29829999991
 20
341892.4806999993
 10
70700.28770000022
 20
341892.3352000006
 10
70701.2770999996
 20
341892.1897999999
 10
70702.26640000008
 20
341892.0442999993
 10
70703.25580000039
 20
341891.8988000006
 10
70704.24519999977
 20
341891.7533
 10
70705.23450000025
 20
341891.6077999995
 10
70706.22389999964
 20
341891.4624000006
 10
70707.21320000012
 20
341891.3169
 10
70708.20260000043
 20
341891.1713999995
 10
70709.1919999998
 20
341891.0259000008
 10
70710.18130000028
 20
341890.8805
 10
70711.17069999966
 20
341890.7349999994
 10
70712.16000000014
 20
341890.5895000007
 10
70713.14940000046
 20
341890.4440000002
 10
70714.13879999984
 20
341890.2984999996
 10
70715.12810000032
 20
341890.1531000007
 10
70716.1174999997
 20
341890.0076000002
 10
70717.10690000001
 20
341889.8620999996
 10
70718.09619999956
 20
341889.7166000009
 10
70719.08559999988
 20
341889.5711000003
 10
70720.07490000036
 20
341889.4256999996
 10
70721.06429999974
 20
341889.2802000009
 10
70722.05370000005
 20
341889.1347000003
 10
70723.04299999959
 20
341888.9891999997
 10
70724.0323999999
 20
341888.8436999992
 10
70725.02170000039
 20
341888.6983000003
 10
70725.48550000042
 20
341888.6301000007
 10
70726.01109999977
 20
341888.5527999997
 10
70727.00050000008
 20
341888.4072999992
 10
70727.98979999963
 20
341888.2618000005
 10
70728.97919999994
 20
341888.1162999999
 10
70729.22620000039
 20
341888.0800000001
 10
70729.96820000001
 20
341887.9718999993
 10
70730.95600000024
 20
341887.8311999999
 10
70731.94259999971
 20
341887.6945999991
 10
70732.92810000014
 20
341887.5623000004
 10
70733.91229999996
 20
341887.4344999995
 10
70734.89539999981
 20
341887.3114999999
 10
70735.87739999965
 20
341887.1933999993
 10
70736.85819999966
 20
341887.0807000008
 10
70737.8378999997
 20
341886.9733000007
 10
70738.21719999984
 20
341886.9332999997
 10
70738.81639999989
 20
341886.8717
 10
70739.79370000027
 20
341886.7760000006
 10
70740.76979999989
 20
341886.6864999998
 10
70741.74469999968
 20
341886.6032999996
 10
70742.71829999983
 20
341886.5266999994
 10
70743.69049999956
 20
341886.4570000005
 10
70744.6612999998
 20
341886.3934000004
 10
70745.63019999954
 20
341886.3336999994
 10
70746.59729999956
 20
341886.2781000007
 10
70747.10429999977
 20
341886.2506000009
 10
70747.5625
 20
341886.2268000003
 10
70748.52579999994
 20
341886.1799999997
 10
70748.79849999956
 20
341886.1675000004
 10
70749.48720000032
 20
341886.1379000005
 10
70750.44660000037
 20
341886.1007000003
 10
70751.40390000027
 20
341886.0686000009
 10
70752.35919999983
 20
341886.0418999996
 10
70753.31230000034
 20
341886.0208000001
 10
70754.26329999976
 20
341886.0054000002
 10
70755.21200000029
 20
341885.9958999995
 10
70755.83930000011
 20
341885.9930000007
 10
70756.1584999999
 20
341885.9925999996
 10
70757.10259999986
 20
341885.9956000001
 10
70758.04420000035
 20
341886.0052000005
 10
70758.98340000025
 20
341886.0214000009
 10
70759.91999999993
 20
341886.0446000007
 10
70760.85390000045
 20
341886.0748999995
 10
70761.78509999998
 20
341886.1124000009
 10
70762.71339999977
 20
341886.1574000009
 10
70763.63879999984
 20
341886.2101000008
 10
70764.37700000033
 20
341886.2577999998
 10
70764.56120000035
 20
341886.2705000006
 10
70765.48039999977
 20
341886.3388999998
 10
70765.83220000006
 20
341886.3673999999
 10
70766.3964999998
 20
341886.4133000002
 10
70767.30960000027
 20
341886.4850999992
 10
70768.22009999957
 20
341886.5537999999
 10
70769.12820000015
 20
341886.6194000003
 10
70769.81549999956
 20
341886.6674000007
 10
70770.03409999981
 20
341886.6822999996
 10
70770.93800000008
 20
341886.7424999997
 10
70771.84020000044
 20
341886.8003000002
 10
70772.59539999999
 20
341886.8469999992
 10
70772.68479999993
 20
341886.8523999993
 10
70772.74100000039
 20
341886.8557999991
 10
70772.81300000008
 20
341886.8602000009
 10
70773.64070000034
 20
341886.9092999995
 10
70773.76059999969
 20
341886.9163000007
 10
70773.81359999999
 20
341886.9193999992
 10
70774.5401999997
 20
341886.9609999993
 10
70775.44120000023
 20
341887.0112999994
 10
70776.34389999975
 20
341887.0601000004
 10
70777.11969999969
 20
341887.1007000003
 10
70777.24880000017
 20
341887.1074999999
 10
70777.70959999971
 20
341887.1311000008
 10
70778.15610000025
 20
341887.1535999999
 10
70779.06589999981
 20
341887.1985999998
 10
70779.97819999978
 20
341887.2445999999
 10
70780.89149999991
 20
341887.3001000006
 10
70780.95999999996
 20
341887.3047000003
 10
70781.69859999977
 20
341887.3578999992
 10
70781.80539999995
 20
341887.3661000002
 10
70782.71989999991
 20
341887.4426000007
 10
70783.63480000011
 20
341887.5294000004
 10
70784.54970000032
 20
341887.6283
 10
70785.46279999986
 20
341887.7448999994
 10
70785.69799999986
 20
341887.7780000009
 10
70786.37349999976
 20
341887.8800000008
 10
70787.28160000033
 20
341888.0333999992
 10
70788.18659999966
 20
341888.2050999999
 10
70789.08820000012
 20
341888.3948999997
 10
70789.27929999959
 20
341888.4375999998
 10
70789.6568
 20
341888.5243999996
 10
70789.98589999974
 20
341888.6029000003
 10
70790.87939999998
 20
341888.8288000003
 10
70791.76840000041
 20
341889.0726999995
 10
70792.65230000019
 20
341889.3344000001
 10
70793.53100000043
 20
341889.6138000004
 10
70793.53780000005
 20
341889.6161000002
 10
70794.40390000026
 20
341889.9108000007
 10
70795.27080000006
 20
341890.2251999993
 10
70796.13119999971
 20
341890.5569000003
 10
70796.98489999957
 20
341890.9058999997
 10
70797.28199999966
 20
341891.0319999997
 10
70797.3097000001
 20
341891.0439
 10
70797.8320000004
 20
341891.2704000007
 10
70797.91959999967
 20
341891.3089000005
 10
70797.9402999999
 20
341891.3179000002
 10
70798.19299999996
 20
341891.4295000006
 10
70798.24289999995
 20
341891.4517000001
 10
70798.67489999998
 20
341891.6450999994
 10
70799.3189000003
 20
341891.9387999997
 10
70799.51499999967
 20
341892.0296
 10
70800.35240000021
 20
341892.4238000009
 10
70800.38480000012
 20
341892.4392000009
 10
70800.63269999996
 20
341892.5592
1001
AcMap_E615D161-C9D7-11d3-839F-0060B0FB6B57
1071
        1
1071
        2
  0
LWPOLYLINE
  5
29C
330
1F
100
AcDbEntity
  8
Straßenverlauf_FBRD
100
AcDbPolyline
 90
       26
 70
     0
 43
0.0
 10
70682.91079999972
 20
341894.8914000001
 10
70683.46860000025
 20
341894.8083999995
 10
70683.66640000045
 20
341894.7793000005
 10
70684.43269999977
 20
341894.6667
 10
70684.4578999998
 20
341894.6629000009
 10
70684.49560000003
 20
341894.6574000009
 10
70685.15050000045
 20
341894.5611000005
 10
70685.44730000011
 20
341894.5174000003
 10
70686.43670000042
 20
341894.3719999995
 10
70686.63449999969
 20
341894.3429000005
 10
70687.42599999998
 20
341894.2265000008
 10
70688.1185999997
 20
341894.1246000007
 10
70688.41540000029
 20
341894.0810000002
 10
70689.40469999984
 20
341893.9354999997
 10
70689.60259999987
 20
341893.9064000007
 10
70689.63439999986
 20
341893.9016999994
 10
70690.39410000015
 20
341893.7899999991
 10
70691.08669999986
 20
341893.6882000007
 10
70691.38350000046
 20
341893.6446000002
 10
70692.37280000001
 20
341893.4990999997
 10
70693.36220000032
 20
341893.3535999991
 10
70694.35149999987
 20
341893.2081000004
 10
70695.34090000018
 20
341893.0625999999
 10
70696.33029999956
 20
341892.9171999991
 10
70697.31960000004
 20
341892.7717000004
 10
70698.24210000038
 20
341892.6369000003
1001
AcMap_E615D161-C9D7-11d3-839F-0060B0FB6B57
1071
        1
1071
        2
  0
LWPOLYLINE
  5
29D
330
1F
100
AcDbEntity
  8
Straßenverlauf_FBRD
100
AcDbPolyline
 90
       48
 70
     0
 43
0.0
 10
70682.91079999972
 20
341894.8914000001
 10
70682.98319999967
 20
341894.9452
 10
70683.55059999972
 20
341895.3672000002
 10
70683.77770000044
 20
341895.5361000002
 10
70683.84680000041
 20
341895.5874000006
 10
70684.11799999978
 20
341895.7891000007
 10
70684.65660000033
 20
341896.1896000002
 10
70684.68549999967
 20
341896.2111000009
 10
70685.25289999973
 20
341896.6329999995
 10
70685.48000000045
 20
341896.8018999994
 10
70685.82029999979
 20
341897.0548999999
 10
70686.38769999984
 20
341897.4769000001
 10
70686.74060000013
 20
341897.7392999996
 10
70686.88159999997
 20
341897.8436999992
 10
70686.94570000004
 20
341897.8346999996
 10
70687.01049999986
 20
341897.8252000008
 10
70687.1436999999
 20
341897.8056000006
 10
70687.44039999973
 20
341897.7620000001
 10
70687.93510000035
 20
341897.6893000007
 10
70688.42980000004
 20
341897.6164999996
 10
70688.62770000007
 20
341897.5874000006
 10
70688.9243999999
 20
341897.5438000001
 10
70689.41909999959
 20
341897.4710000008
 10
70689.91380000021
 20
341897.3982999996
 10
70690.11180000007
 20
341897.3692000006
 10
70690.14360000006
 20
341897.3644999992
 10
70690.4084999999
 20
341897.3256000001
 10
70690.90319999959
 20
341897.2528000008
 10
70691.39780000038
 20
341897.1800999996
 10
70691.59580000024
 20
341897.1510000006
 10
70691.89250000007
 20
341897.1073000003
 10
70692.38719999976
 20
341897.0346000008
 10
70692.8178000003
 20
341896.9710000008
 10
70692.87640000041
 20
341896.9244999998
 10
70692.89020000026
 20
341896.9134
 10
70693.32859999966
 20
341896.5632000007
 10
70693.78089999966
 20
341896.2018999998
 10
70694.23309999984
 20
341895.8406000007
 10
70694.68539999984
 20
341895.4792999998
 10
70695.13760000002
 20
341895.1179000009
 10
70695.58990000002
 20
341894.7566
 10
70696.0421000002
 20
341894.395300001
 10
70696.4944000002
 20
341894.0340000001
 10
70696.84549999982
 20
341893.7535999995
 10
70696.94660000037
 20
341893.672700001
 10
70697.39890000038
 20
341893.3114
 10
70697.85109999962
 20
341892.9500999991
 10
70698.24210000038
 20
341892.6369000003
1001
AcMap_E615D161-C9D7-11d3-839F-0060B0FB6B57
1071
        1
1071
        2
  0
LWPOLYLINE
  5
29E
330
1F
100
AcDbEntity
  8
Straßenverlauf_FBRD
100
AcDbPolyline
 90
        3
 70
     0
 43
0.0
 10
70679.19749999978
 20
341895.4364000001
 10
70682.72840000037
 20
341894.9171999992
 10
70682.91079999972
 20
341894.8914000001
1001
AcMap_E615D161-C9D7-11d3-839F-0060B0FB6B57
1071
        1
1071
        2
  0
LWPOLYLINE
  5
29F
330
1F
100
AcDbEntity
  8
Straßenverlauf_FBRD
100
AcDbPolyline
 90
        7
 70
     0
 43
0.0
 10
70679.19749999978
 20
341895.4364000001
 10
70681.10790000018
 20
341908.3798999992
 10
70681.48949819611
 20
341910.0079240382
 10
70682.13703780933
 20
341911.5496023132
 10
70683.03241315821
 20
341912.9618283714
 10
70684.15058889259
 20
341914.2051153381
 10
70685.46030000038
 20
341915.2446999997
1001
AcMap_E615D161-C9D7-11d3-839F-0060B0FB6B57
1071
        1
1071
        2
  0
LWPOLYLINE
  5
2A0
330
1F
100
AcDbEntity
  8
Straßenverlauf_FBRD
100
AcDbPolyline
 90
       44
 70
     0
 43
0.0
 10
70647.53149999957
 20
341897.9933000002
 10
70649.95595797723
 20
341899.280686025
 10
70652.16959999967
 20
341900.9039999992
 10
70652.23997760167
 20
341900.9540914386
 10
70652.31792687974
 20
341900.9913213891
 10
70652.40112101947
 20
341901.0145785229
 10
70652.48707664541
 20
341901.0231686063
 10
70652.57322795072
 20
341901.016835222
 10
70652.65700328746
 20
341900.9957674239
 10
70652.73590193123
 20
341900.9605940934
 10
70652.80756872867
 20
341900.9123651675
 10
70652.86986439973
 20
341900.8525202969
 10
70652.92092939586
 20
341900.7828458731
 10
70652.95923940825
 20
341900.705421703
 10
70652.98365086906
 20
341900.6225589264
 10
70652.99343508725
 20
341900.5367310275
 10
70652.98830000031
 20
341900.4505000003
 10
70652.45770000014
 20
341896.8414999992
 10
70652.43755073082
 20
341896.7566927995
 10
70652.40298095852
 20
341896.6766728956
 10
70652.35504106825
 20
341896.6038716518
 10
70652.29518768934
 20
341896.5405010971
 10
70652.2252394364
 20
341896.4884867135
 10
70652.1473216517
 20
341896.449408932
 10
70652.06380182769
 20
341896.4244551111
 10
70651.97721767197
 20
341896.41438346
 10
70651.89020000025
 20
341896.4195000008
 10
70649.32930000033
 20
341896.7960999999
 10
70647.66089999955
 20
341897.0412000008
 10
70647.57729963424
 20
341897.0609251869
 10
70647.49830889459
 20
341897.0946678469
 10
70647.42625890834
 20
341897.1414321872
 10
70647.36327597182
 20
341897.1998381266
 10
70647.31121880001
 20
341897.2681620236
 10
70647.2716236732
 20
341897.3443875441
 10
70647.24565909924
 20
341897.4262651659
 10
70647.23409132917
 20
341897.5113785652
 10
70647.23726174417
 20
341897.5972159261
 10
70647.25507678082
 20
341897.6812440673
 10
70647.28701069237
 20
341897.7609832004
 10
70647.33212106419
 20
341897.8340801114
 10
70647.38907662582
 20
341897.8983776078
 10
70647.4561965386
 20
341897.9519781801
 10
70647.53149999957
 20
341897.9933000002
1001
AcMap_E615D161-C9D7-11d3-839F-0060B0FB6B57
1071
        1
1071
        2
  0
LWPOLYLINE
  5
2A1
330
1F
100
AcDbEntity
  8
Straßenverlauf_FBRD
100
AcDbPolyline
 90
        7
 70
     0
 43
0.0
 10
70674.04270000011
 20
341898.1787999999
 10
70674.84792004782
 20
341897.3658260808
 10
70675.76088674928
 20
341896.6760451587
 10
70676.76292257913
 20
341896.1235688116
 10
70677.83352783059
 20
341895.7196996323
 10
70678.95079999976
 20
341895.4726999999
 10
70679.19749999978
 20
341895.4364000001
1001
AcMap_E615D161-C9D7-11d3-839F-0060B0FB6B57
1071
        1
1071
        2
  0
LWPOLYLINE
  5
2A2
330
1F
100
AcDbEntity
  8
Straßenverlauf_FBRD
100
AcDbPolyline
 90
       52
 70
     0
 43
0.0
 10
70674.04270000011
 20
341898.1787999999
 10
70674.05040000006
 20
341898.2306999993
 10
70674.12339999992
 20
341898.7254000008
 10
70674.19639999978
 20
341899.2200000007
 10
70674.26939999964
 20
341899.7147000004
 10
70674.34240000043
 20
341900.2093000003
 10
70674.41540000029
 20
341900.7039000001
 10
70674.48840000015
 20
341901.1985999998
 10
70674.5614
 20
341901.6931999997
 10
70674.63439999986
 20
341902.1878999993
 10
70674.70739999972
 20
341902.6824999992
 10
70674.78039999958
 20
341903.1772000007
 10
70674.80080000032
 20
341903.3150999993
 10
70674.85699999984
 20
341903.6712999997
 10
70674.9467000002
 20
341904.1634
 10
70675.0502000004
 20
341904.6535999998
 10
70675.12330000009
 20
341904.9650999997
 10
70675.16729999986
 20
341905.1416999996
 10
70675.29810000024
 20
341905.6278000009
 10
70675.44269999955
 20
341906.1118999999
 10
70675.60059999954
 20
341906.5932
 10
70675.77290000022
 20
341907.0739999991
 10
70675.95849999971
 20
341907.5519999992
 10
70676.15789999999
 20
341908.0280000009
 10
70676.23199999984
 20
341908.1966999993
 10
70676.37090000045
 20
341908.5020000004
 10
70676.59769999981
 20
341908.9738999997
 10
70676.63090000022
 20
341909.0406999998
 10
70676.8786000004
 20
341909.6276999991
 10
70677.11039999966
 20
341910.1012999993
 10
70677.20839999989
 20
341910.2869000007
 10
70677.56180000025
 20
341910.9220000003
 10
70677.9308000002
 20
341911.5350000002
 10
70678.31419999991
 20
341912.1263999995
 10
70678.34279999975
 20
341912.1688000001
 10
70678.71119999979
 20
341912.6971000005
 10
70679.1211000001
 20
341913.2478
 10
70679.54310000036
 20
341913.7792000007
 10
70679.72900000028
 20
341914.0030000005
 10
70679.97680000029
 20
341914.2920999993
 10
70680.42179999966
 20
341914.7872000002
 10
70680.87789999973
 20
341915.2651000004
 10
70681.24639999959
 20
341915.6313000005
 10
70681.34499999974
 20
341915.7265000008
 10
70681.82309999968
 20
341916.1721000001
 10
70682.31219999957
 20
341916.6021999996
 10
70682.81259999983
 20
341917.0173000004
 10
70682.88850000035
 20
341917.0781999994
 10
70683.32760000043
 20
341917.4137999994
 10
70683.79820000008
 20
341917.7422000002
 10
70683.84690000024
 20
341917.7747000009
 10
70684.05510000046
 20
341917.9132000003
1001
AcMap_E615D161-C9D7-11d3-839F-0060B0FB6B57
1071
        1
1071
        2
  0
LWPOLYLINE
  5
2A3
330
1F
100
AcDbEntity
  8
Straßenverlauf_FBRD
100
AcDbPolyline
 90
      150
 70
     0
 43
0.0
 10
70674.04270000011
 20
341898.1787999999
 10
70673.25401566139
 20
341899.2727339519
 10
70672.66029158522
 20
341900.4836039692
 10
70672.27840000018
 20
341901.7770000007
 10
70671.79899186759
 20
341905.8511180614
 10
70672.02041165327
 20
341909.9473655403
 10
70672.93619042593
 20
341913.9460677509
 10
70674.51957307908
 20
341917.730399859
 10
70676.72429999988
 20
341921.1897999999
 10
70678.82290000003
 20
341923.8006999996
 10
70681.28540000039
 20
341926.5673999991
 10
70683.94450000021
 20
341929.2672000006
 10
70686.66289999987
 20
341931.7786999997
 10
70689.56369999982
 20
341934.2322000004
 10
70692.47950000036
 20
341936.5028000008
 10
70695.57139999978
 20
341938.7316999995
 10
70698.63269999996
 20
341940.7853999995
 10
70699.3618999999
 20
341941.2547999993
 10
70699.47530000005
 20
341941.3272999991
 10
70700.31740000006
 20
341941.8595000003
 10
70701.16349999979
 20
341942.3853999991
 10
70702.01370000001
 20
341942.9050999992
 10
70702.8674999997
 20
341943.4188000001
 10
70703.72499999963
 20
341943.9266999997
 10
70704.58600000012
 20
341944.4288999997
 10
70705.45019999984
 20
341944.9256999996
 10
70706.31759999971
 20
341945.4173000008
 10
70707.18800000008
 20
341945.9036999997
 10
70708.06130000018
 20
341946.3852999993
 10
70708.93719999958
 20
341946.8620999996
 10
70709.81579999998
 20
341947.3344000001
 10
70710.6967000002
 20
341947.8024000004
 10
70711.58000000007
 20
341948.2663000003
 10
70712.46549999993
 20
341948.7262999993
 10
70713.35300000011
 20
341949.1824999993
 10
70714.2424999997
 20
341949.6351999995
 10
70715.13379999995
 20
341950.0845999998
 10
70716.02680000011
 20
341950.5307999999
 10
70716.92129999957
 20
341950.9741999991
 10
70717.81740000005
 20
341951.4147999995
 10
70718.71470000036
 20
341951.8530000001
 10
70719.61340000014
 20
341952.2887999993
 10
70720.51310000009
 20
341952.7226
 10
70721.41390000004
 20
341953.1545000002
 10
70722.31570000015
 20
341953.5847999994
 10
70723.2182
 20
341954.0135999993
 10
70724.12150000036
 20
341954.4410999995
 10
70725.02529999986
 20
341954.8676999994
 10
70725.92970000021
 20
341955.2934000008
 10
70726.83449999987
 20
341955.7185999994
 10
70727.73959999997
 20
341956.1433000006
 10
70728.64499999955
 20
341956.5679000001
 10
70728.65869999956
 20
341956.5744000003
 10
70729.55040000007
 20
341956.9925999996
 10
70730.45579999964
 20
341957.4175000005
 10
70731.36110000032
 20
341957.8429000006
 10
70732.26630000025
 20
341958.2688999996
 10
70733.17109999992
 20
341958.6959000007
 10
70734.0756000001
 20
341959.1239999999
 10
70734.97960000019
 20
341959.5534000006
 10
70735.88289999961
 20
341959.9844000005
 10
70736.78550000023
 20
341960.4170999992
 10
70737.68740000017
 20
341960.8518000003
 10
70738.58829999994
 20
341961.2886999995
 10
70739.48809999972
 20
341961.7279000004
 10
70740.38690000027
 20
341962.1698000003
 10
70741.2843000004
 20
341962.6144999992
 10
70742.18039999995
 20
341963.0622000005
 10
70743.07500000019
 20
341963.5131000001
 10
70743.96800000034
 20
341963.9674999994
 10
70744.85929999966
 20
341964.4255
 10
70745.74870000034
 20
341964.8873999995
 10
70746.63619999959
 20
341965.3532999996
 10
70747.5214999998
 20
341965.8234000002
 10
70748.40460000001
 20
341966.2980000005
 10
70749.28529999964
 20
341966.7772000004
 10
70750.16349999979
 20
341967.2612999995
 10
70751.03899999987
 20
341967.7503999994
 10
70751.91179999988
 20
341968.2447999996
 10
70752.78160000033
 20
341968.7445
 10
70753.6481999997
 20
341969.2499000002
 10
70754.51159999985
 20
341969.7610999998
 10
70755.37160000019
 20
341970.2782000005
 10
70756.22800000012
 20
341970.8015000001
 10
70757.08059999999
 20
341971.3311000001
 10
70757.92929999995
 20
341971.8672000003
 10
70758.77390000037
 20
341972.4100000002
 10
70759.61419999972
 20
341972.9595999997
 10
70760.45000000019
 20
341973.5162000004
 10
70761.28110000025
 20
341974.0800000001
 10
70762.1074000001
 20
341974.6511000004
 10
70762.92860000021
 20
341975.2296999991
 10
70763.74450000002
 20
341975.8158999999
 10
70764.55489999987
 20
341976.4099000003
 10
70765.35969999992
 20
341977.0118000005
 10
70765.57210000046
 20
341977.1728000008
 10
70766.15840000007
 20
341977.6217000001
 10
70766.95110000017
 20
341978.2394999992
 10
70767.73749999981
 20
341978.8652999997
 10
70768.5175999999
 20
341979.4988000002
 10
70769.29140000046
 20
341980.1402000003
 10
70770.05869999993
 20
341980.7892000005
 10
70770.81950000022
 20
341981.4459000007
 10
70771.57359999977
 20
341982.1102000009
 10
70772.32110000029
 20
341982.7818999998
 10
70773.06209999974
 20
341983.4614000004
 10
70773.79580000043
 20
341984.1477000006
 10
70774.52280000038
 20
341984.8416000009
 10
70775.24280000012
 20
341985.5428
 10
70775.95579999965
 20
341986.2510000001
 10
70776.66199999955
 20
341986.9668000006
 10
70777.36029999982
 20
341987.6887999997
 10
70778.05169999972
 20
341988.4181999993
 10
70778.73579999991
 20
341989.1544000004
 10
70779.41249999962
 20
341989.8975000009
 10
70780.0820000004
 20
341990.6475000009
 10
70780.74340000004
 20
341991.4036999997
 10
70781.39749999996
 20
341992.1667
 10
70782.04399999976
 20
341992.9362000003
 10
70782.68269999977
 20
341993.7120999992
 10
70783.31379999966
 20
341994.4946999997
 10
70783.93659999966
 20
341995.2829
 10
70784.55179999955
 20
341996.0777000003
 10
70785.15899999998
 20
341996.8784999997
 10
70785.75810000021
 20
341997.6853999999
 10
70786.34929999989
 20
341998.4985000007
 10
70786.93200000003
 20
341999.3169999998
 10
70787.50659999997
 20
342000.1414000001
 10
70787.86639999971
 20
342000.6667
 10
70788.07299999986
 20
342000.9715999999
 10
70788.63109999988
 20
342001.8074999993
 10
70789.1808000002
 20
342002.6490000002
 10
70789.72200000007
 20
342003.4956000001
 10
70790.2547000004
 20
342004.3477999997
 10
70790.77890000027
 20
342005.2052999996
 10
70791.29449999984
 20
342006.0679000002
 10
70791.80150000006
 20
342006.9357999992
 10
70792.29959999956
 20
342007.8084999994
 10
70792.7890999997
 20
342008.6863000002
 10
70793.26979999989
 20
342009.5689000003
 10
70793.7416000003
 20
342010.4562
 10
70794.20459999982
 20
342011.3484000005
 10
70794.6584999999
 20
342012.2448999994
 10
70795.1035000002
 20
342013.1459999998
 10
70795.53940000012
 20
342014.0515000001
 10
70795.96630000043
 20
342014.9613000006
 10
70796.38410000037
 20
342015.8753999994
 10
70796.79270000011
 20
342016.7936000004
 10
70797.19209999963
 20
342017.7158000003
 10
70797.58220000006
 20
342018.6418999993
1001
AcMap_E615D161-C9D7-11d3-839F-0060B0FB6B57
1071
        1
1071
        2
  0
LWPOLYLINE
  5
2A4
330
1F
100
AcDbEntity
  8
Straßenverlauf_FBRD
100
AcDbPolyline
 90
      367
 70
     0
 43
0.0
 10
70813.74639999959
 20
341900.1180000007
 10
70813.80950000044
 20
341900.1597000007
 10
70814.00210000015
 20
341900.2880000006
 10
70814.11170000024
 20
341900.3611999992
 10
70814.12739999965
 20
341900.3717000001
 10
70814.18609999959
 20
341900.4110000003
 10
70814.30460000038
 20
341900.4902999998
 10
70814.49739999976
 20
341900.6198999994
 10
70814.69010000024
 20
341900.7498000004
 10
70814.88279999978
 20
341900.8801000007
 10
70814.97840000037
 20
341900.9449000005
 10
70815.07540000044
 20
341901.0108000003
 10
70815.26790000032
 20
341901.1418999993
 10
70815.46040000021
 20
341901.2733999994
 10
70815.65280000027
 20
341901.4052000008
 10
70815.76860000007
 20
341901.4847999998
 10
70815.84520000033
 20
341901.5373999998
 10
70816.03749999962
 20
341901.67
 10
70816.22970000003
 20
341901.8029999994
 10
70816.42190000042
 20
341901.9363000002
 10
70816.55700000003
 20
341902.0303000007
 10
70816.61400000005
 20
341902.0700000003
 10
70816.8060999997
 20
341902.204
 10
70816.99810000043
 20
341902.3385000006
 10
70817.19000000041
 20
341902.4732000008
 10
70817.34350000043
 20
341902.5812999997
 10
70817.38190000039
 20
341902.6084000003
 10
70817.57380000036
 20
341902.7437999993
 10
70817.76559999958
 20
341902.8796999995
 10
70817.95729999989
 20
341903.0157999993
 10
70818.12829999998
 20
341903.1375999991
 10
70818.1490000002
 20
341903.1524000001
 10
70818.34059999976
 20
341903.2892000005
 10
70818.45760000032
 20
341903.3728999999
 10
70818.64919999986
 20
341903.5102999993
 10
70818.84069999959
 20
341903.6480000001
 10
70818.91150000039
 20
341903.6991000008
 10
70819.03220000024
 20
341903.7861000002
 10
70819.22360000014
 20
341903.9244999998
 10
70819.41500000003
 20
341904.0632000007
 10
70819.60639999993
 20
341904.2022999991
 10
70819.69319999963
 20
341904.2654999998
 10
70819.7977
 20
341904.3416000009
 10
70819.98900000006
 20
341904.4813000001
 10
70820.18020000029
 20
341904.6213000007
 10
70820.37150000036
 20
341904.7616000008
 10
70820.47350000031
 20
341904.8366000001
 10
70820.56269999966
 20
341904.9022000004
 10
70820.75380000007
 20
341905.0431999993
 10
70820.9450000003
 20
341905.1843999997
 10
70821.13609999977
 20
341905.3259999994
 10
70821.25250000041
 20
341905.4123999998
 10
70821.32720000017
 20
341905.4678000007
 10
70821.44710000045
 20
341905.5570000001
 10
70821.51829999965
 20
341905.6099999995
 10
70821.70940000005
 20
341905.7522
 10
70821.79739999957
 20
341905.8177000005
 10
70821.90079999994
 20
341905.8946000003
 10
70822.03100000042
 20
341905.9914999996
 10
70822.09219999984
 20
341906.0370000005
 10
70822.28380000032
 20
341906.1795000005
 10
70822.47559999954
 20
341906.3220000007
 10
70822.58930000011
 20
341906.4065000006
 10
70822.78139999974
 20
341906.5493000001
 10
70822.81109999958
 20
341906.5713
 10
70822.97360000014
 20
341906.6920999997
 10
70823.1660000002
 20
341906.8348999992
 10
70823.35859999992
 20
341906.9778000005
 10
70823.5513000004
 20
341907.1207999997
 10
70823.59289999958
 20
341907.1516999994
 10
70823.7441999996
 20
341907.2639000006
 10
70823.93730000034
 20
341907.4069999997
 10
70824.13049999997
 20
341907.5502000004
 10
70824.32390000019
 20
341907.6933999993
 10
70824.37669999991
 20
341907.7324000002
 10
70824.51750000007
 20
341907.8366999999
 10
70824.71129999961
 20
341907.9800000004
 10
70824.90529999975
 20
341908.1234000009
 10
70825.09939999972
 20
341908.2667999994
 10
70825.16249999962
 20
341908.3133000005
 10
70825.29370000027
 20
341908.4101999998
 10
70825.48819999956
 20
341908.5537000001
 10
70825.68290000036
 20
341908.6972000003
 10
70825.8777999999
 20
341908.8408000004
 10
70825.95050000026
 20
341908.8943000008
 10
70826.07290000002
 20
341908.9844000004
 10
70826.26819999982
 20
341909.1280000005
 10
70826.4637000002
 20
341909.2716000006
 10
70826.6593000004
 20
341909.4152000007
 10
70826.74089999962
 20
341909.4750999994
 10
70826.8552000001
 20
341909.5589000006
 10
70827.05130000039
 20
341909.7026000005
 10
70827.24760000035
 20
341909.8463000003
 10
70827.33540000021
 20
341909.9104999993
 10
70827.44409999996
 20
341909.9900000003
 10
70827.53390000015
 20
341910.0556000006
 10
70827.64080000017
 20
341910.1337000002
 10
70827.83770000003
 20
341910.2774000001
 10
70828.03479999956
 20
341910.4210999999
 10
70828.23209999967
 20
341910.5647999999
 10
70828.32949999999
 20
341910.6357000005
 10
70828.42970000021
 20
341910.7084999998
 10
70828.62750000041
 20
341910.8521999997
 10
70828.82550000027
 20
341910.9958999995
 10
70829.02369999978
 20
341911.1395999995
 10
70829.12789999973
 20
341911.2149999999
 10
70829.22209999989
 20
341911.2832999994
 10
70829.42080000043
 20
341911.4268999994
 10
70829.61969999969
 20
341911.5704999994
 10
70829.81879999954
 20
341911.7140999996
 10
70829.92920000013
 20
341911.7936000005
 10
70830.01819999982
 20
341911.8576999996
 10
70830.21779999975
 20
341912.0011999999
 10
70830.41760000027
 20
341912.1447000001
 10
70830.61770000029
 20
341912.2881000005
 10
70830.73359999992
 20
341912.3710999992
 10
70830.81799999997
 20
341912.4316000007
 10
70831.01860000007
 20
341912.5748999994
 10
70831.21939999982
 20
341912.7182999999
 10
70831.42050000001
 20
341912.8615000006
 10
70831.54110000003
 20
341912.9474
 10
70831.62179999985
 20
341913.0047999993
 10
70831.82330000028
 20
341913.1479000002
 10
70832.0251000002
 20
341913.2909999993
 10
70832.22719999962
 20
341913.4341000003
 10
70832.35199999996
 20
341913.5222999994
 10
70832.42949999962
 20
341913.5770999994
 10
70832.63210000004
 20
341913.7200000007
 10
70832.83490000013
 20
341913.8628000002
 10
70833.03799999971
 20
341914.0055999998
 10
70833.16640000045
 20
341914.0956999995
 10
70833.2413999997
 20
341914.1482999996
 10
70833.37050000019
 20
341914.2387000006
 10
70833.4450000003
 20
341914.2908999994
 10
70833.64879999962
 20
341914.4335999992
 10
70833.85259999986
 20
341914.5764000006
 10
70833.98350000009
 20
341914.6681999992
 10
70834.05659999978
 20
341914.7193999999
 10
70834.26070000045
 20
341914.8625000008
 10
70834.46480000019
 20
341915.0056999997
 10
70834.66909999959
 20
341915.1490000003
 10
70834.80159999989
 20
341915.2420000006
 10
70834.87349999975
 20
341915.2924000007
 10
70835.07789999991
 20
341915.4359000009
 10
70835.28249999973
 20
341915.5796000008
 10
70835.32459999993
 20
341915.6090999991
 10
70835.52940000035
 20
341915.7529000007
 10
70835.62069999985
 20
341915.8170999997
 10
70835.73419999983
 20
341915.8968000002
 10
70835.93919999991
 20
341916.0406999998
 10
70835.9748999998
 20
341916.0658
 10
70836.14419999998
 20
341916.1846999992
 10
70836.34920000005
 20
341916.3287000004
 10
70836.44079999998
 20
341916.3929999993
 10
70836.55420000013
 20
341916.4726999998
 10
70836.75930000003
 20
341916.6168000009
 10
70836.96430000011
 20
341916.7608000003
 10
70837.16930000018
 20
341916.9047999997
 10
70837.26090000011
 20
341916.9691000004
 10
70837.37440000009
 20
341917.0488000009
 10
70837.57940000016
 20
341917.1928000003
 10
70837.78440000023
 20
341917.3367999997
 10
70837.98950000014
 20
341917.4807999991
 10
70838.08100000024
 20
341917.5450999997
 10
70838.19450000022
 20
341917.6248000004
 10
70838.39950000029
 20
341917.7688999996
 10
70838.60460000019
 20
341917.9129000009
 10
70838.80960000027
 20
341918.0569000003
 10
70838.90110000036
 20
341918.1212000009
 10
70839.01460000034
 20
341918.2008999996
 10
70839.21970000025
 20
341918.3449000009
 10
70839.42470000033
 20
341918.4889000002
 10
70839.51620000042
 20
341918.5532000009
 10
70839.62970000039
 20
341918.6328999997
 10
70839.72130000033
 20
341918.6972000003
 10
70839.8348000003
 20
341918.7769000009
 10
70840.03980000037
 20
341918.9210000001
 10
70840.24480000045
 20
341919.0649999996
 10
70840.44990000036
 20
341919.2090000008
 10
70840.54140000045
 20
341919.2732999996
 10
70840.65490000043
 20
341919.3530000001
 10
70840.85989999957
 20
341919.4969999995
 10
70841.06500000041
 20
341919.6410000008
 10
70841.26999999955
 20
341919.7850000002
 10
70841.36149999965
 20
341919.8493000008
 10
70841.47499999962
 20
341919.9289999995
 10
70841.68010000047
 20
341920.0731000007
 10
70841.8850999996
 20
341920.2171000001
 10
70842.09009999968
 20
341920.3610999994
 10
70842.18169999961
 20
341920.4254000001
 10
70842.29519999959
 20
341920.5051000007
 10
70842.50019999966
 20
341920.6491000001
 10
70842.70519999973
 20
341920.7930999995
 10
70842.91019999981
 20
341920.9371000007
 10
70843.00179999973
 20
341921.0013999995
 10
70843.11529999971
 20
341921.0811000001
 10
70843.32029999979
 20
341921.2251999993
 10
70843.52529999986
 20
341921.3692000005
 10
70843.73039999976
 20
341921.5132
 10
70843.82189999987
 20
341921.5775000007
 10
70843.93539999984
 20
341921.6571999994
 10
70844.14039999992
 20
341921.8012000006
 10
70844.34549999982
 20
341921.9452
 10
70844.5504999999
 20
341922.0891999994
 10
70844.64199999999
 20
341922.1535000001
 10
70844.75549999996
 20
341922.2332000006
 10
70844.96059999987
 20
341922.3772999998
 10
70845.16559999995
 20
341922.5212999992
 10
70845.37060000002
 20
341922.6653000005
 10
70845.46219999995
 20
341922.7295999993
 10
70845.57569999993
 20
341922.8092999999
 10
70845.66720000003
 20
341922.8736000005
 10
70845.7807
 20
341922.9532999992
 10
70845.98570000007
 20
341923.0973000005
 10
70846.19079999998
 20
341923.2412999999
 10
70846.28230000007
 20
341923.3056000006
 10
70846.39580000006
 20
341923.3852999993
 10
70846.60080000013
 20
341923.5294000003
 10
70846.80590000004
 20
341923.6733999998
 10
70847.01090000011
 20
341923.8173999992
 10
70847.10240000021
 20
341923.8816999998
 10
70847.21590000018
 20
341923.9614000004
 10
70847.42100000009
 20
341924.1053999998
 10
70847.62600000016
 20
341924.2493999992
 10
70847.83100000024
 20
341924.3934000004
 10
70847.92260000017
 20
341924.4576999992
 10
70848.03610000014
 20
341924.5373999999
 10
70848.24110000021
 20
341924.6813999992
 10
70848.41249999962
 20
341924.8017999996
 10
70848.6174999997
 20
341924.9458000008
 10
70848.74270000029
 20
341925.0338000003
 10
70848.8236999996
 20
341925.0884000007
 10
70849.03170000017
 20
341925.2287000008
 10
70849.2396999998
 20
341925.3690000009
 10
70849.4478000002
 20
341925.5092999991
 10
70849.57479999959
 20
341925.5950000007
 10
70849.65579999983
 20
341925.6495999992
 10
70849.8638000004
 20
341925.7898999993
 10
70850.07180000003
 20
341925.9301999994
 10
70850.27979999967
 20
341926.0704999995
 10
70850.40689999982
 20
341926.1561999992
 10
70850.48790000007
 20
341926.2108999994
 10
70850.6958999997
 20
341926.3511999995
 10
70850.90390000027
 20
341926.4914999996
 10
70851.1118999999
 20
341926.6317999996
 10
70851.23900000006
 20
341926.7173999995
 10
70851.32000000029
 20
341926.7720999997
 10
70851.52799999993
 20
341926.9123999998
 10
70851.73599999957
 20
341927.0526999999
 10
70851.86299999989
 20
341927.1383999996
 10
70851.94400000013
 20
341927.193
 10
70852.07100000046
 20
341927.2786999997
 10
70852.15199999977
 20
341927.3333000001
 10
70852.36010000016
 20
341927.4736000001
 10
70852.5680999998
 20
341927.6139000003
 10
70852.77610000036
 20
341927.7542000003
 10
70852.90309999976
 20
341927.8399
 10
70852.9841
 20
341927.8945000004
 10
70853.1922000004
 20
341928.0348000005
 10
70853.40020000003
 20
341928.1751000006
 10
70853.60819999967
 20
341928.3154000007
 10
70853.7352
 20
341928.4011000004
 10
70853.81620000023
 20
341928.4558000006
 10
70854.02419999986
 20
341928.5961000007
 10
70854.23230000026
 20
341928.7364000008
 10
70854.4402999999
 20
341928.8767000008
 10
70854.56730000022
 20
341928.9623000008
 10
70854.64829999954
 20
341929.0170000009
 10
70854.8563000001
 20
341929.1572999992
 10
70855.06439999956
 20
341929.2975999993
 10
70855.27240000013
 20
341929.4378999994
 10
70855.39940000046
 20
341929.5236000009
 10
70855.48039999976
 20
341929.5781999994
 10
70855.68840000033
 20
341929.7184999995
 10
70855.8964999998
 20
341929.8587999996
 10
70856.10450000037
 20
341929.9990999997
 10
70856.23149999976
 20
341930.0847999994
 10
70856.3125
 20
341930.1393999998
 10
70856.52049999963
 20
341930.2796999999
 10
70856.7285000002
 20
341930.4199999999
 10
70856.93659999966
 20
341930.5603
 10
70857.06359999999
 20
341930.6459999997
 10
70857.14460000023
 20
341930.7007
 10
70857.35259999987
 20
341930.841
 10
70857.56060000043
 20
341930.9813000001
 10
70857.7686999999
 20
341931.1216000002
 10
70857.89570000023
 20
341931.2072000001
 10
70857.97670000046
 20
341931.2619000003
 10
70858.10369999986
 20
341931.3476
 10
70858.1847000001
 20
341931.4022000004
 10
70858.3925999999
 20
341931.5427000002
 10
70858.60020000022
 20
341931.6833999995
 10
70858.72699999995
 20
341931.7694000006
 10
70858.8077999996
 20
341931.8243000005
 10
70859.01510000042
 20
341931.9655000009
 10
70859.22229999956
 20
341932.1068999991
 10
70859.42929999996
 20
341932.2484000009
 10
70859.55559999962
 20
341932.3350000009
 10
70859.63609999977
 20
341932.3902000003
 10
70859.84269999992
 20
341932.5321999993
 10
70860.04920000024
 20
341932.6744999998
 10
70860.25549999997
 20
341932.8169
 10
70860.3814000003
 20
341932.9039999992
 10
70860.46160000003
 20
341932.9595999997
 10
70860.66760000027
 20
341933.1024999991
 10
70860.87339999992
 20
341933.2455000002
 10
70861.07899999991
 20
341933.3889000006
 10
70861.20440000016
 20
341933.4765000009
 10
70861.26680000033
 20
341933.5200999994
 10
70861.3870000001
 20
341933.6042
 10
70861.59219999983
 20
341933.7480999995
 10
70861.79719999991
 20
341933.8921000008
 10
70862.00200000033
 20
341934.0363999996
 10
70862.02460000012
 20
341934.0524000004
 10
70862.20660000015
 20
341934.1809000001
 10
70862.41110000014
 20
341934.3256000001
 10
70862.61539999954
 20
341934.4705999997
 10
70862.81950000022
 20
341934.6157000009
 10
70862.84210000001
 20
341934.6317999997
 10
70863.02340000029
 20
341934.7610999998
 10
70863.22719999961
 20
341934.9067000002
 10
70863.43080000021
 20
341935.0524000004
 10
70863.6342000002
 20
341935.1985
 10
70863.65670000017
 20
341935.2146000006
 10
70863.83750000037
 20
341935.3446999993
 10
70864.04050000012
 20
341935.4911000002
 10
70864.24340000004
 20
341935.6378000006
 10
70864.2659
 20
341935.6539999992
 10
70864.44620000012
 20
341935.7847000007
 10
70864.46860000025
 20
341935.8008999993
 10
70864.64869999979
 20
341935.9318000004
 10
70864.85109999962
 20
341936.0790999998
 10
70865.0532999998
 20
341936.2266000007
 10
70865.25530000031
 20
341936.3742999993
 10
70865.27759999968
 20
341936.3906999994
 10
70865.45720000006
 20
341936.5222999994
 10
70865.65880000033
 20
341936.6704999991
 10
70865.86029999982
 20
341936.8189000003
 10
70866.06170000043
 20
341936.9674999994
 10
70866.08389999997
 20
341936.9838999994
 10
70866.26279999967
 20
341937.1162999999
 10
70866.46380000003
 20
341937.2653000002
 10
70866.66459999978
 20
341937.4145999998
 10
70866.86519999989
 20
341937.5639999993
 10
70866.88740000036
 20
341937.5806000009
 10
70867.06570000015
 20
341937.7137000002
 10
70867.2659
 20
341937.8636000008
 10
70867.46609999984
 20
341938.0136999991
 10
70867.6660000002
 20
341938.1641000007
 10
70867.68809999991
 20
341938.1807000004
 10
70867.86569999996
 20
341938.3146000002
 10
70868.0652999999
 20
341938.4653999992
 10
70868.26470000017
 20
341938.6163999997
 10
70868.46399999968
 20
341938.7675999999
 10
70868.48599999957
 20
341938.7842999995
 10
70868.66299999971
 20
341938.9189999998
 10
70868.8618999999
 20
341939.0705999993
 10
70869.06060000043
 20
341939.2225000001
 10
70869.2592000002
 20
341939.3745000009
 10
70869.28110000025
 20
341939.3914000001
 10
70869.45749999955
 20
341939.5267999992
 10
70869.6557
 20
341939.6793000009
 10
70869.85369999986
 20
341939.8320000004
 10
70870.02840000018
 20
341939.9670000002
 10
70870.07340000011
 20
341940.0019000006
 10
70870.22609999962
 20
341940.1202000007
 10
70870.27109999954
 20
341940.1550999991
1001
AcMap_E615D161-C9D7-11d3-839F-0060B0FB6B57
1071
        1
1071
        2
  0
LWPOLYLINE
  5
2A5
330
1F
100
AcDbEntity
  8
Straßenverlauf_FBRD
100
AcDbPolyline
 90
      233
 70
     0
 43
0.0
 10
70659.17679999955
 20
341901.3017999996
 10
70659.26549999974
 20
341901.9048999995
 10
70659.33150000032
 20
341902.3537000008
 10
70659.41100000031
 20
341902.8943000008
 10
70659.4645999996
 20
341903.2589999996
 10
70659.54590000026
 20
341903.7914000005
 10
70659.55920000002
 20
341903.8751999997
 10
70659.7248999998
 20
341904.8487
 10
70659.91009999998
 20
341905.8186000008
 10
70660.11459999997
 20
341906.7847000007
 10
70660.33839999978
 20
341907.7465000004
 10
70660.58139999956
 20
341908.7036000006
 10
70660.79140000045
 20
341909.4725000002
 10
70660.84339999966
 20
341909.6556000002
 10
70661.12449999992
 20
341910.6021999996
 10
70661.42449999973
 20
341911.5429999996
 10
70661.74320000038
 20
341912.4777000007
 10
70662.08050000016
 20
341913.4057
 10
70662.43630000017
 20
341914.3268999998
 10
70662.81049999967
 20
341915.2407000009
 10
70663.20280000009
 20
341916.1468000002
 10
70663.61319999955
 20
341917.0449999999
 10
70664.04150000028
 20
341917.9346999992
 10
70664.48749999981
 20
341918.8157000002
 10
70664.95100000035
 20
341919.6875999999
 10
70665.4319000002
 20
341920.5501000006
 10
70665.92989999987
 20
341921.4027999994
 10
70666.44489999953
 20
341922.2453000005
 10
70666.9765999997
 20
341923.0774000008
 10
70667.52489999961
 20
341923.8987000007
 10
70668.08949999977
 20
341924.7087999992
 10
70668.67009999976
 20
341925.5075000003
 10
70668.91050000023
 20
341925.8286000006
 10
70669.26669999957
 20
341926.2945000008
 10
70669.6649000002
 20
341926.8021000009
 10
70669.87880000006
 20
341927.0692999996
 10
70670.4430999998
 20
341927.7563000005
 10
70670.50629999954
 20
341927.8317000009
 10
70671.14890000038
 20
341928.5814999994
 10
70671.80640000011
 20
341929.3181999996
 10
70672.31819999963
 20
341929.8717
 10
70672.4785000002
 20
341930.0417
 10
70672.49210000038
 20
341930.0559999999
 10
70673.16500000003
 20
341930.7514999994
 10
70673.86550000031
 20
341931.4474999998
 10
70674.57969999965
 20
341932.1293000002
 10
70675.30750000011
 20
341932.7968000006
 10
70676.04849999956
 20
341933.4495000001
 10
70676.80229999963
 20
341934.0873000007
 10
70677.56879999954
 20
341934.7097999994
 10
70678.34759999998
 20
341935.3169999998
 10
70678.7603000002
 20
341935.6286999993
 10
70678.87959999963
 20
341935.7175999992
 10
70679.14969999995
 20
341935.922700001
 10
70679.95050000027
 20
341936.5887000002
 10
70680.70509999991
 20
341937.3066000007
 10
70681.2229000004
 20
341937.8593000006
 10
70681.41019999981
 20
341938.0731000006
 10
70682.06269999966
 20
341938.8849
 10
70682.65969999973
 20
341939.7383999992
 10
70683.19849999994
 20
341940.6297999993
 10
70683.67669999972
 20
341941.5549999997
 10
70684.09219999984
 20
341942.5100999996
 10
70684.26350000035
 20
341942.9628999997
 10
70684.44319999963
 20
341943.490700001
 10
70684.72809999994
 20
341944.4925999996
 10
70684.94560000021
 20
341945.5110999998
 10
70685.09470000025
 20
341946.5419999994
 10
70685.17489999998
 20
341947.5803999994
 10
70685.18570000026
 20
341948.6218999997
 10
70685.18329999968
 20
341948.7125000004
 10
70685.17069999967
 20
341949.0353999995
 10
70685.16729999985
 20
341949.1019000002
 10
70685.12710000016
 20
341949.6618000009
 10
70685.10149999987
 20
341949.9215999991
 10
70685.0195000004
 20
341950.5634000004
 10
70684.99930000026
 20
341950.6954999995
 10
70684.80300000031
 20
341951.7182999999
 10
70684.64699999988
 20
341952.3455999997
 10
70684.53890000004
 20
341952.7258000002
 10
70684.50490000006
 20
341952.8384000007
 10
70684.20839999989
 20
341953.7135000005
 10
70683.81269999965
 20
341954.6769999993
 10
70683.65070000012
 20
341955.0254999995
 10
70683.35379999969
 20
341955.6119999997
 10
70682.83359999955
 20
341956.5142999999
 10
70682.63580000028
 20
341956.8242000006
 10
70682.35850000009
 20
341957.2334000003
 10
70682.25939999987
 20
341957.3747000006
 10
70681.68539999984
 20
341958.1934999992
 10
70681.11129999999
 20
341959.0122999996
 10
70681.06500000041
 20
341959.0782999993
 10
70680.62289999984
 20
341959.7089000009
 10
70680.53720000014
 20
341959.8311000001
 10
70680.11039999966
 20
341960.4398999997
 10
70679.96310000029
 20
341960.6499000006
 10
70679.77440000046
 20
341960.9191999994
 10
70679.38910000026
 20
341961.4686999992
 10
70679.37770000007
 20
341961.4849999994
 10
70679.29951918591
 20
341961.559425731
 10
70679.20978164515
 20
341961.6194140882
 10
70679.11112137688
 20
341961.6632042777
 10
70679.00643428233
 20
341961.6895109585
 10
70678.89879316365
 20
341961.6975619705
 10
70678.79135753028
 20
341961.687120998
 10
70678.68728086017
 20
341961.6584945075
 10
70678.58961803819
 20
341961.6125227506
 10
70678.50123568822
 20
341961.5505551024
 10
70678.42472803146
 20
341961.4744104527
 10
70678.36234074004
 20
341961.3863238185
 10
70678.31590502159
 20
341961.2888807415
 10
70678.2867838691
 20
341961.1849413952
 10
70678.27583205401
 20
341961.0775566339
 10
70678.28337103678
 20
341960.9698784422
 10
70678.30917953129
 20
341960.8650674178
 10
70678.35250000004
 20
341960.7662000004
 10
70678.36390000023
 20
341960.75
 10
70678.74920000043
 20
341960.2004000005
 10
70678.93800000008
 20
341959.9311999995
 10
70679.08519999962
 20
341959.7212000005
 10
70679.51209999994
 20
341959.1124000009
 10
70679.59769999981
 20
341958.9901999999
 10
70680.0399000002
 20
341958.3595000002
 10
70680.08609999996
 20
341958.2936000005
 10
70680.66019999981
 20
341957.4748
 10
70681.23429999966
 20
341956.6558999997
 10
70681.33330000006
 20
341956.5146999993
 10
70681.58839999977
 20
341956.1382999998
 10
70681.7703999998
 20
341955.8531999998
 10
70682.2489
 20
341955.0231999997
 10
70682.52199999988
 20
341954.4836
 10
70682.67109999991
 20
341954.1631000005
 10
70683.03500000014
 20
341953.2767999992
 10
70683.3077999996
 20
341952.4717999995
 10
70683.33910000045
 20
341952.3683000002
 10
70683.43850000016
 20
341952.0185000003
 10
70683.5820000004
 20
341951.4415000007
 10
70683.76260000001
 20
341950.5006000008
 10
70683.78120000009
 20
341950.3791000006
 10
70683.85659999959
 20
341949.7886999995
 10
70683.88009999972
 20
341949.5496999994
 10
70683.91700000036
 20
341949.0351
 10
70683.92019999959
 20
341948.9735000003
 10
70683.93180000037
 20
341948.6765000001
 10
70683.93400000036
 20
341948.5931000002
 10
70683.92410000041
 20
341947.6350999997
 10
70683.85030000005
 20
341946.6798000001
 10
70683.71310000029
 20
341945.7315999996
 10
70683.5131000001
 20
341944.7947000005
 10
70683.25100000016
 20
341943.8730999996
 10
70683.0856999997
 20
341943.3874999993
 10
70682.92819999997
 20
341942.9710000009
 10
70682.54600000009
 20
341942.0924999994
 10
70682.10610000044
 20
341941.2413999997
 10
70681.61039999965
 20
341940.4213999995
 10
70681.06130000018
 20
341939.6362999994
 10
70680.46109999995
 20
341938.8895999995
 10
70680.28880000021
 20
341938.6929000002
 10
70679.81240000017
 20
341938.1844999995
 10
70679.11830000021
 20
341937.5241000001
 10
70678.38159999996
 20
341936.9114999995
 10
70678.13279999978
 20
341936.7225000002
 10
70678.01090000011
 20
341936.6316
 10
70677.58770000003
 20
341936.3120000009
 10
70676.78920000046
 20
341935.6895000003
 10
70676.00329999998
 20
341935.0511000008
 10
70675.23029999994
 20
341934.3971999996
 10
70674.47049999982
 20
341933.7279000004
 10
70673.72429999989
 20
341933.0436000005
 10
70672.99189999979
 20
341932.3443999998
 10
70672.27369999979
 20
341931.6307999995
 10
70671.58380000014
 20
341930.9177000001
 10
70671.5697999997
 20
341930.9028999992
 10
70671.40550000035
 20
341930.7287000008
 10
70670.88069999963
 20
341930.1612
 10
70670.20650000032
 20
341929.4057
 10
70669.54760000016
 20
341928.6370000001
 10
70669.48280000034
 20
341928.5596999992
 10
70668.90419999976
 20
341927.8552000001
 10
70668.68489999976
 20
341927.5812999997
 10
70668.27649999969
 20
341927.0606999994
 10
70667.9112999998
 20
341926.5830000006
 10
70667.66490000021
 20
341926.2537999992
 10
70667.06950000021
 20
341925.4349000007
 10
70666.49060000013
 20
341924.6042
 10
70665.92850000039
 20
341923.7620999999
 10
70665.38320000004
 20
341922.9089000002
 10
70664.85520000011
 20
341922.045
 10
70664.34460000042
 20
341921.1707000006
 10
70663.85149999987
 20
341920.2863999997
 10
70663.37619999982
 20
341919.3924000003
 10
70662.91889999993
 20
341918.4890000001
 10
70662.47979999985
 20
341917.5767000001
 10
70662.0588999996
 20
341916.6557999999
 10
70661.65660000033
 20
341915.7267000005
 10
70661.27300000005
 20
341914.7895999998
 10
70660.90809999965
 20
341913.8452000004
 10
70660.56219999958
 20
341912.8936000001
 10
70660.23550000042
 20
341911.9352000002
 10
70659.92789999954
 20
341910.9705999997
 10
70659.63970000018
 20
341910.0
 10
70659.58640000038
 20
341909.8122000006
 10
70659.37100000027
 20
341909.0238000006
 10
70659.12189999967
 20
341908.0424000006
 10
70658.89240000024
 20
341907.0561999995
 10
70658.68269999977
 20
341906.0657000001
 10
70658.49280000012
 20
341905.0711000004
 10
70658.32290000003
 20
341904.0730000008
 10
70658.30920000002
 20
341903.9870999996
 10
70658.22589999996
 20
341903.4410999995
 10
70658.17229999974
 20
341903.0764000007
 10
70658.09279999975
 20
341902.5358000007
 10
70658.02680000011
 20
341902.0870999992
 10
70657.93809999991
 20
341901.4838999994
 10
70657.93156078906
 20
341901.3807165366
 10
70657.94209420435
 20
341901.2778640429
 10
70657.96941292163
 20
341901.1781480664
 10
70658.01277175755
 20
341901.0842885989
 10
70658.07098799606
 20
341900.998845882
 10
70658.14247364993
 20
341900.9241505705
 10
70658.22527877689
 20
341900.8622401574
 10
70658.31714466891
 20
341900.8148033977
 10
70658.41556546393
 20
341900.7831342425
 10
70658.51785649924
 20
341900.7680965437
 10
70658.62122754201
 20
341900.7701004905
 10
70658.72285889968
 20
341900.7890914206
 10
70658.81997833375
 20
341900.8245513108
 10
70658.90993667919
 20
341900.8755129079
 10
70658.99028010687
 20
341900.9405861122
 10
70659.0588170575
 20
341901.0179958963
 10
70659.11367802175
 20
341901.1056307232
 10
70659.15336653549
 20
341901.2011001433
 10
70659.17679999955
 20
341901.3017999996
1001
AcMap_E615D161-C9D7-11d3-839F-0060B0FB6B57
1071
        1
1071
        2
  0
LWPOLYLINE
  5
2A6
330
1F
100
AcDbEntity
  8
Straßenverlauf_FBRD
100
AcDbPolyline
 90
       10
 70
     0
 43
0.0
 10
70672.15930000041
 20
341953.3499999996
 10
70672.07856869008
 20
341954.0338268633
 10
70671.88176318823
 20
341954.693678603
 10
70671.57471457346
 20
341955.3100047116
 10
70671.1665202775
 20
341955.864544287
 10
70670.66927454065
 20
341956.3408670779
 10
70670.09771007592
 20
341956.7248602895
 10
70669.46876155894
 20
341957.0051467269
 10
70668.80106387648
 20
341957.1734218849
 10
70668.11440000031
 20
341957.2247000001
1001
AcMap_E615D161-C9D7-11d3-839F-0060B0FB6B57
1071
        1
1071
        2
  0
LWPOLYLINE
  5
2A7
330
1F
100
AcDbEntity
  8
Straßenverlauf_FBRD
100
AcDbPolyline
 90
        6
 70
     0
 43
0.0
 10
70672.15930000041
 20
341953.3499999996
 10
70671.99230000004
 20
341955.4630999993
 10
70670.83955317511
 20
341960.9725656379
 10
70669.07486620891
 20
341966.317555514
 10
70666.7206031958
 20
341971.4303319153
 10
70663.80659999977
 20
341976.2460999992
1001
AcMap_E615D161-C9D7-11d3-839F-0060B0FB6B57
1071
        1
1071
        2
  0
LWPOLYLINE
  5
2A8
330
1F
100
AcDbEntity
  8
Straßenverlauf_FBRD
100
AcDbPolyline
 90
        3
 70
     0
 43
0.0
 10
70674.83719999995
 20
341974.4467999991
 10
70672.12239999975
 20
341978.3572000004
 10
70671.42219999992
 20
341979.3567999993
1001
AcMap_E615D161-C9D7-11d3-839F-0060B0FB6B57
1071
        1
1071
        2
  0
LWPOLYLINE
  5
2A9
330
1F
100
AcDbEntity
  8
Straßenverlauf_FBRD
100
AcDbPolyline
 90
        4
 70
     0
 43
0.0
 10
70674.83719999995
 20
341974.4467999991
 10
70673.97269999981
 20
341977.4782999996
 10
70672.2544999998
 20
341979.9375
 10
70671.42219999992
 20
341979.3567999993
1001
AcMap_E615D161-C9D7-11d3-839F-0060B0FB6B57
1071
        1
1071
        2
  0
LWPOLYLINE
  5
2AA
330
1F
100
AcDbEntity
  8
Straßenverlauf_FBRD
100
AcDbPolyline
 90
      149
 70
     0
 43
0.0
 10
70674.83719999995
 20
341974.4467999991
 10
70675.22860000003
 20
341973.8597999998
 10
70675.63549999985
 20
341973.2171999998
 10
70677.23149999976
 20
341970.9475999996
 10
70678.82880000025
 20
341968.6010999996
 10
70681.85900000017
 20
341964.4217000008
 10
70684.37110000011
 20
341961.3961999994
 10
70688.69830000028
 20
341957.1163999997
 10
70689.80480000004
 20
341955.8297000006
 10
70694.21989999991
 20
341949.6903000009
 10
70694.43644278987
 20
341949.4357790341
 10
70694.69234116487
 20
341949.2208657398
 10
70694.98045100172
 20
341949.0515600273
 10
70695.29272890369
 20
341948.9325885419
 10
70695.62045675442
 20
341948.8672727074
 10
70695.95448510884
 20
341948.8574359992
 10
70696.28548862555
 20
341948.9033530364
 10
70696.60422641001
 20
341949.003741916
 10
70696.9018000001
 20
341949.1557999999
 10
70696.96609999985
 20
341949.1958000008
 10
70697.8655000003
 20
341949.7456000001
 10
70698.76730000041
 20
341950.2881000005
 10
70699.67119999975
 20
341950.8234999999
 10
70700.57720000018
 20
341951.3520999998
 10
70701.48500000033
 20
341951.8739
 10
70702.39439999964
 20
341952.3892000001
 10
70703.30530000012
 20
341952.8982999996
 10
70704.21750000026
 20
341953.4013999999
 10
70705.13090000022
 20
341953.8986000009
 10
70706.04530000035
 20
341954.3902000003
 10
70706.96059999987
 20
341954.8763999995
 10
70707.87660000007
 20
341955.3575
 10
70708.79320000019
 20
341955.8335999996
 10
70709.71019999962
 20
341956.3049999997
 10
70710.62760000024
 20
341956.7719000001
 10
70711.54509999975
 20
341957.2345000002
 10
70712.46270000004
 20
341957.693
 10
70713.38019999955
 20
341958.1477000006
 10
70714.29739999957
 20
341958.5988999997
 10
70715.21439999994
 20
341959.0465999991
 10
70716.13100000005
 20
341959.4911000003
 10
70717.04700000025
 20
341959.9327000007
 10
70717.96229999978
 20
341960.3716000002
 10
70718.87689999956
 20
341960.8080000002
 10
70719.79059999994
 20
341961.2421000004
 10
70720.70330000017
 20
341961.6741000004
 10
70721.6149000004
 20
341962.1042999998
 10
70722.52529999986
 20
341962.5329
 10
70723.43439999968
 20
341962.9601000008
 10
70724.3421
 20
341963.386
 10
70725.24830000009
 20
341963.8110000007
 10
70725.26209999994
 20
341963.8175000009
 10
70726.1529000001
 20
341964.2353000007
 10
70727.0558000002
 20
341964.659
 10
70727.95689999963
 20
341965.0823999997
 10
70728.85599999968
 20
341965.5055999998
 10
70729.75320000015
 20
341965.9289999996
 10
70730.64829999953
 20
341966.3526000008
 10
70731.54110000003
 20
341966.7767999992
 10
70732.43169999961
 20
341967.2016000003
 10
70733.3197999997
 20
341967.6273999997
 10
70734.20550000015
 20
341968.0543000009
 10
70735.0884999996
 20
341968.4825
 10
70735.96889999975
 20
341968.9123
 10
70736.84640000015
 20
341969.3436999992
 10
70737.7209999999
 20
341969.7770000007
 10
70738.59250000026
 20
341970.2125000004
 10
70739.46090000029
 20
341970.6502
 10
70740.32610000018
 20
341971.0903999992
 10
70741.18800000008
 20
341971.5332999994
 10
70742.04629999957
 20
341971.9790000003
 10
70742.90110000037
 20
341972.4277999998
 10
70743.75219999999
 20
341972.8796999995
 10
70744.59939999972
 20
341973.3351000007
 10
70745.44269999955
 20
341973.7939999998
 10
70746.28199999966
 20
341974.2566
 10
70747.11710000038
 20
341974.7230999992
 10
70747.94780000019
 20
341975.1937000007
 10
70748.77410000004
 20
341975.6684000008
 10
70749.59580000024
 20
341976.1476000007
 10
70750.41280000005
 20
341976.6313000005
 10
70751.2248999998
 20
341977.1195999999
 10
70752.03210000042
 20
341977.6128000002
 10
70752.83409999963
 20
341978.1108999997
 10
70753.63080000039
 20
341978.6141999998
 10
70754.42200000026
 20
341979.1227000002
 10
70755.20760000031
 20
341979.6366000008
 10
70755.98749999981
 20
341980.1559999995
 10
70756.76150000002
 20
341980.6809999999
 10
70757.52940000035
 20
341981.2116999999
 10
70758.2910000002
 20
341981.7484000009
 10
70759.04619999975
 20
341982.2908999995
 10
70759.79480000026
 20
341982.8396000005
 10
70760.53660000022
 20
341983.3944000006
 10
70760.73220000044
 20
341983.5426000003
 10
70761.27190000005
 20
341983.9558000006
 10
70762.00140000041
 20
341984.5244999994
 10
70762.72520000022
 20
341985.1004000008
 10
70763.44330000039
 20
341985.6834999994
 10
70764.15539999958
 20
341986.2738000006
 10
70764.86170000024
 20
341986.8712000009
 10
70765.56190000009
 20
341987.4756000005
 10
70766.25600000005
 20
341988.0869999994
 10
70766.94400000013
 20
341988.7052999996
 10
70767.625
 20
341989.3297000006
 10
70768.30310000014
 20
341989.9605000001
 10
70768.97780000046
 20
341990.5933999997
 10
70769.64989999961
 20
341991.2292999998
 10
70770.31950000021
 20
341991.8682000004
 10
70770.98699999973
 20
341992.5103999992
 10
70771.65139999985
 20
341993.1552000008
 10
70772.31369999982
 20
341993.8035000004
 10
70772.97360000014
 20
341994.4550000001
 10
70773.63129999954
 20
341995.1097999998
 10
70774.28689999972
 20
341995.7683000006
 10
70774.93969999999
 20
341996.4295000005
 10
70775.59059999976
 20
341997.0945999995
 10
70776.23929999955
 20
341997.7631000001
 10
70776.88590000011
 20
341998.4353
 10
70777.53050000034
 20
341999.1114000008
 10
70778.17050000001
 20
341999.7923000008
 10
70778.80429999996
 20
342000.4804999996
 10
70779.43180000037
 20
342001.1756999996
 10
70780.05269999988
 20
342001.8776999992
 10
70780.66720000002
 20
342002.5867999997
 10
70781.27469999995
 20
342003.3022000008
 10
70781.87559999991
 20
342004.0244999994
 10
70782.2527999999
 20
342004.4855000004
 10
70782.46980000008
 20
342004.7533999998
 10
70783.05709999986
 20
342005.4889000002
 10
70783.63750000018
 20
342006.2311000005
 10
70784.20839999989
 20
342006.9807999991
 10
70784.76779999956
 20
342007.7398000006
 10
70785.31539999973
 20
342008.5077999998
 10
70785.85109999962
 20
342009.2843999994
 10
70786.37469999958
 20
342010.0697000008
 10
70786.88590000011
 20
342010.8630999997
 10
70787.38480000011
 20
342011.6646999996
 10
70787.87119999994
 20
342012.4740999993
 10
70788.34489999991
 20
342013.2912000009
 10
70788.80590000004
 20
342014.1158000008
 10
70789.25389999989
 20
342014.9474999998
 10
70789.68890000042
 20
342015.7862
 10
70790.11079999991
 20
342016.6317999996
 10
70790.51939999964
 20
342017.4837999996
 10
70790.91459999978
 20
342018.3421999999
 10
70791.29879999999
 20
342019.2054999993
 10
70791.6743999999
 20
342020.0726999995
 10
70792.04129999969
 20
342020.9436000008
1001
AcMap_E615D161-C9D7-11d3-839F-0060B0FB6B57
1071
        1
1071
        2
  0
LINE
  5
2AB
330
1F
100
AcDbEntity
  8
Straßenverlauf_FBRD
100
AcDbLine
 10
70669.88879999984
 20
341981.5738999993
 30
0.0
 11
70671.42219999992
 21
341979.3567999993
 31
0.0
1001
AcMap_E615D161-C9D7-11d3-839F-0060B0FB6B57
1071
        1
1071
        2
  0
LWPOLYLINE
  5
2AC
330
1F
100
AcDbEntity
  8
Straßenverlauf_FBRD
100
AcDbPolyline
 90
       17
 70
     0
 43
0.0
 10
70648.97769999969
 20
341988.7103000004
 10
70650.52368863999
 20
341988.5237084805
 10
70652.07990090939
 20
341988.5793919056
 10
70653.60859999992
 20
341988.8760000002
 10
70653.68720241424
 20
341988.9049985882
 10
70653.75985961971
 20
341988.9467141503
 10
70653.82453175193
 20
341988.9999755148
 10
70653.87940312896
 20
341989.063287359
 10
70653.92293322681
 20
341989.1348721913
 10
70653.95389993001
 20
341989.2127202544
 10
70653.97143384268
 20
341989.2946459497
 10
70653.97504269703
 20
341989.3783491982
 10
70653.96462517378
 20
341989.4614800158
 10
70653.94047374683
 20
341989.5417044897
 10
70653.90326647191
 20
341989.6167703031
 10
70653.85404795008
 20
341989.6845699693
 10
70653.79420000035
 20
341989.7432000004
1001
AcMap_E615D161-C9D7-11d3-839F-0060B0FB6B57
1071
        1
1071
        2
  0
LWPOLYLINE
  5
2AD
330
1F
100
AcDbEntity
  8
Straßenverlauf_FBRD
100
AcDbPolyline
 90
       18
 70
     0
 43
0.0
 10
70651.90869999956
 20
342007.6141999997
 10
70654.29665430082
 20
342004.5497153303
 10
70657.06060518193
 20
342001.8195198133
 10
70660.15419999976
 20
341999.4693999998
 10
70661.59570000041
 20
341998.3745000009
 10
70661.66089259999
 20
341998.3266479643
 10
70661.73294674642
 20
341998.289931586
 10
70661.80997750182
 20
341998.2653113673
 10
70661.88996974016
 20
341998.2534313735
 10
70661.97083086296
 20
341998.2546023855
 10
70662.05044554166
 20
341998.2687937696
 10
70662.12673105477
 20
341998.2956342789
 10
70662.19769177177
 20
341998.3344217651
 10
70662.26147135895
 20
341998.384141547
 10
70662.3164013411
 20
341998.4434929539
 10
70662.3610447488
 20
341998.5109233521
 10
70662.39423370968
 20
341998.5846687609
 10
70662.41509999986
 20
341998.6627999992
1001
AcMap_E615D161-C9D7-11d3-839F-0060B0FB6B57
1071
        1
1071
        2
  0
LWPOLYLINE
  5
2AE
330
1F
100
AcDbEntity
  8
Straßenverlauf_FBRD
100
AcDbPolyline
 90
       20
 70
     0
 43
0.0
 10
70750.1297000004
 20
342178.0527999997
 10
70752.17367046789
 20
342177.7917021312
 10
70754.23421293008
 20
342177.804036252
 10
70756.2749112506
 20
342178.0895843804
 10
70758.25970000028
 20
342178.6433000006
 10
70758.37857490722
 20
342178.6972080717
 10
70758.48630272378
 20
342178.7709104542
 10
70758.57962029951
 20
342178.8621746514
 10
70758.65570098011
 20
342178.9682362075
 10
70758.71224022888
 20
342179.0858824441
 10
70758.74752543263
 20
342179.2115497749
 10
70758.76048777801
 20
342179.341431649
 10
70758.75073462656
 20
342179.4715938542
 10
70758.71856140803
 20
342179.5980936869
 10
70758.66494267159
 20
342179.7170993789
 10
70758.59150256603
 20
342179.8250061652
 10
70758.50046564324
 20
342179.9185454742
 10
70758.39458947493
 20
342179.9948839351
 10
70758.27708112385
 20
342180.0517092029
 10
70758.15149999969
 20
342180.0873000008
1001
AcMap_E615D161-C9D7-11d3-839F-0060B0FB6B57
1071
        1
1071
        2
  0
LWPOLYLINE
  5
2AF
330
1F
100
AcDbEntity
  8
Straßenverlauf_FBRD
100
AcDbPolyline
 90
       19
 70
     0
 43
0.0
 10
70719.33469999954
 20
342182.5217000004
 10
70758.53500000015
 20
342209.2613999993
 10
70762.08660289629
 20
342211.3473830048
 10
70765.8868791205
 20
342212.9358126855
 10
70769.8665223112
 20
342213.9977205468
 10
70773.95295495722
 20
342214.5137403725
 10
70778.07165200777
 20
342214.4744614109
 10
70782.14749999996
 20
342213.8805999998
 10
70782.77350000012
 20
342213.7456999999
 10
70785.56630214558
 20
342213.3139981297
 10
70788.39048768829
 20
342213.2135673139
 10
70791.20689999964
 20
342213.4458000008
 10
70792.54639124372
 20
342213.7554880114
 10
70793.81307834528
 20
342214.2899477793
 10
70794.96955144376
 20
342215.0333947709
 10
70795.98165569755
 20
342215.9638723022
 10
70796.81950000021
 20
342217.0538999998
 10
70797.87408854279
 20
342218.9816943635
 10
70798.65460000001
 20
342221.0358000007
1001
AcMap_E615D161-C9D7-11d3-839F-0060B0FB6B57
1071
        1
1071
        2
  0
LWPOLYLINE
  5
2B0
330
1F
100
AcDbEntity
  8
Straßenverlauf_FBRD
100
AcDbPolyline
 90
       30
 70
     0
 43
0.0
 10
70769.34269999992
 20
342186.7862
 10
70768.29679999966
 20
342193.8054000009
 10
70768.1090815753
 20
342195.6457139204
 10
70768.09219999984
 20
342197.4955000003
 10
70768.30750844747
 20
342199.2205265377
 10
70768.81830862765
 20
342200.8821996278
 10
70769.60916383126
 20
342202.4303024439
 10
70770.65617390677
 20
342203.818050326
 10
70771.92769753809
 20
342205.0035046429
 10
70773.38530846551
 20
342205.9508402047
 10
70774.98495675183
 20
342206.6314279232
 10
70776.67829999979
 20
342207.0247000009
 10
70780.1985963664
 20
342207.3149651251
 10
70783.7286086545
 20
342207.1894517909
 10
70787.21939999983
 20
342206.6499000005
 10
70787.47310000006
 20
342206.5952000004
 10
70787.96190000046
 20
342206.4899000004
 10
70788.45069999992
 20
342206.3845000007
 10
70788.93939999956
 20
342206.2792000007
 10
70789.42819999997
 20
342206.1739000008
 10
70789.91700000036
 20
342206.0684999991
 10
70790.40579999984
 20
342205.9631999992
 10
70790.8945000004
 20
342205.8578999993
 10
70791.38329999987
 20
342205.7524999995
 10
70791.87210000027
 20
342205.6471999996
 10
70792.36089999974
 20
342205.5418999996
 10
70792.84970000013
 20
342205.4364999998
 10
70793.33839999978
 20
342205.3311999999
 10
70794.02029999998
 20
342205.1842999998
 10
70794.11799999978
 20
342205.1632000003
1001
AcMap_E615D161-C9D7-11d3-839F-0060B0FB6B57
1071
        1
1071
        2
  0
LWPOLYLINE
  5
2B1
330
1F
100
AcDbEntity
  8
Straßenverlauf_FBRD
100
AcDbPolyline
 90
        3
 70
     0
 43
0.0
 10
70740.51669999957
 20
342189.7075999994
 10
70755.71839999966
 20
342200.0770999994
 10
70755.72119999956
 20
342200.0787000005
1001
AcMap_E615D161-C9D7-11d3-839F-0060B0FB6B57
1071
        1
1071
        2
  0
LWPOLYLINE
  5
2B2
330
1F
100
AcDbEntity
  8
Straßenverlauf_FBRD
100
AcDbPolyline
 90
       19
 70
     0
 43
0.0
 10
70755.72119999956
 20
342200.0787000005
 10
70755.72436319575
 20
342200.0792089729
 10
70755.72751064148
 20
342200.0786102673
 10
70755.73026604907
 20
342200.0769754608
 10
70755.73230000026
 20
342200.0745000001
 10
70759.16870000027
 20
342195.0344999991
 10
70759.43969999999
 20
342194.6291000005
 10
70759.6958999997
 20
342194.2184999995
 10
70759.93859999999
 20
342193.8000000008
 10
70760.16770000011
 20
342193.3738000002
 10
70760.38300000038
 20
342192.9405000005
 10
70760.58409999963
 20
342192.5004999991
 10
70760.77099999971
 20
342192.0540999994
 10
70760.94340000022
 20
342191.602
 10
70761.10109999962
 20
342191.1446000002
 10
70761.30759999994
 20
342190.4573999998
 10
70761.33299999963
 20
342190.3640000001
 10
70761.75040990825
 20
342188.1513259528
 10
70761.83189999964
 20
342185.9011000004
1001
AcMap_E615D161-C9D7-11d3-839F-0060B0FB6B57
1071
        1
1071
        2
  0
LINE
  5
2B3
330
1F
100
AcDbEntity
  8
Straßenverlauf_FBRD
100
AcDbLine
 10
70755.72119999956
 20
342200.0787000005
 30
0.0
 11
70755.7265999997
 21
342200.0826999993
 31
0.0
1001
AcMap_E615D161-C9D7-11d3-839F-0060B0FB6B57
1071
        1
1071
        2
  0
ENDSEC
  0
SECTION
  2
OBJECTS
  0
DICTIONARY
  5
C
330
0
100
AcDbDictionary
281
     1
  3
ACAD_CIP_PREVIOUS_PRODUCT_INFO
350
1A5
  3
ACAD_COLOR
350
73
  3
ACAD_DETAILVIEWSTYLE
350
1AB
  3
ACAD_GROUP
350
D
  3
ACAD_LAYOUT
350
1A
  3
ACAD_MATERIAL
350
72
  3
ACAD_MLEADERSTYLE
350
D7
  3
ACAD_MLINESTYLE
350
17
  3
ACAD_PLOTSETTINGS
350
19
  3
ACAD_PLOTSTYLENAME
350
E
  3
ACAD_SCALELIST
350
B6
  3
ACAD_SECTIONVIEWSTYLE
350
1A8
  3
ACAD_TABLESTYLE
350
86
  3
ACAD_VISUALSTYLE
350
99
  3
ACDB_RECOMPOSE_DATA
350
2F4
  3
AcDbVariableDictionary
350
66
  3
AcDsDecomposeData
350
2FB
  3
AcMap_E615D15E-C9D7-11d3-839F-0060B0FB6B57
350
266
  3
ADE_QUERY_LIBRARY
350
21B
  3
ASE_INDEX_DICTIONARY
350
2B5
  3
Autodesk_MAP
350
204
1001
ADE
1000
ADE02C004
1000
[Query]
1000
CaseSensitiveMatch=0
1000
SaveCurrQueryInSession=1
1000
MkSelSetWithQryObj=0
1000
ShowBlockAsInsPt=0
1000
CreateAssociativeHatchObjects=0
1000
ReferenceBoundaryForAreaLocation=1
1000
ShowImageAsBoundary=1
1000
DefaultJoinOperator=2
1000
ColorForAdd=red
1000
ColorForRemove=red
1000
BlockLocnForQuery=1
1000
TextLocnForQuery=1
1000
IncludeAllObjectsInGroups=0
1000
AlwaysUseLibraryDefinitions=0
1000
PreviewDefinitionsFrom=2
1000
[Save Back]
1000
RedefineBlockDefinitions=1
1000
RedefineLayerDefinitions=1
1000
RedefineTextStyleDefinitions=1
1000
RemoveUnusedGroups=1
1000
EraseSavedBackObjects=1
1000
RemoveLockAfterSave=1
1000
CreateHistoryFileOfChanges=0
1000
CreateBackupFileOfSourceDwg=1
1000
DontAddObjectsToSaveSet=0
1000
MarkObjectsForEditingWithoutPrompting=0
1000
FdoDontAddObjsToSvSet=0
1000
FdoEditWithoutPrompt=1
1000
FdoRemUnusedGrps=1
1000
FdoEraseSvdBkObjs=1
1000
FdoRemoveLockOnSave=1
1000
FdoTesselationMaxPointsDistance=0
1000
FdoTesselationMaxCurvesDistance=0
1000
[Coordinate Transformation]
1000
RestoreLastActiveDwgsOnStartup=1
1000
ActivateDwgsOnAttach=1
1000
AdjustSizesAndScalesForChangesInUnits=1
1000
AdjustRotationsForMapDistortions=1
1000
AdjustSizesAndScalesForMapDistortions=1
1000
AdjustElevations=1
1000
AdjustZeroRotationObjects=1
1000
ReconnectDbOnWSOpen=1
1000
NoOfSQLConditionsInHistory=10
  0
SUN
  5
217
330
94
100
AcDbSun
 90
        1
290
     1
 63
     7
421
 16777215
 40
1.0
291
     1
 91
  2458230
 92
 36000000
292
     0
 70
     0
 71
   256
280
     1
1001
ACAD
1000
AcDbSavedByObjectVersion
1070
     0
  0
DICTIONARY
  5
18E
330
2
100
AcDbDictionary
280
     1
281
     1
  3
ACAD_LAYERSTATES
360
18F
  0
DICTIONARY
  5
E6
330
10
100
AcDbDictionary
280
     1
281
     1
  0
DICTIONARY
  5
15D
330
1F
100
AcDbDictionary
280
     1
281
     1
  3
ACAD_SORTENTS
360
214
  0
XRECORD
  5
1A5
102
{ACAD_REACTORS
330
C
102
}
330
C
100
AcDbXrecord
280
     1
300
MAP
300
2019
300

  0
DICTIONARY
  5
73
102
{ACAD_REACTORS
330
C
102
}
330
C
100
AcDbDictionary
281
     1
  0
DICTIONARY
  5
1AB
102
{ACAD_REACTORS
330
C
102
}
330
C
100
AcDbDictionary
281
     1
  3
Imperial24
350
1AC
  3
Metric50
350
239
  0
DICTIONARY
  5
D
102
{ACAD_REACTORS
330
C
102
}
330
C
100
AcDbDictionary
281
     1
  0
DICTIONARY
  5
1A
102
{ACAD_REACTORS
330
C
102
}
330
C
100
AcDbDictionary
281
     1
  3
Layout1
350
59
  3
Layout2
350
5E
  3
Model
350
22
  0
DICTIONARY
  5
72
102
{ACAD_REACTORS
330
C
102
}
330
C
100
AcDbDictionary
281
     1
  3
ByBlock
350
97
  3
ByLayer
350
96
  3
Global
350
98
  0
DICTIONARY
  5
D7
102
{ACAD_REACTORS
330
C
102
}
330
C
100
AcDbDictionary
281
     1
  3
Beschriftung
350
E5
  3
Standard
350
D8
  0
DICTIONARY
  5
17
102
{ACAD_REACTORS
330
C
102
}
330
C
100
AcDbDictionary
281
     1
  3
Standard
350
18
  0
DICTIONARY
  5
19
102
{ACAD_REACTORS
330
C
102
}
330
C
100
AcDbDictionary
281
     1
  0
ACDBDICTIONARYWDFLT
  5
E
102
{ACAD_REACTORS
330
C
102
}
330
C
100
AcDbDictionary
281
     1
  3
Normal
350
F
100
AcDbDictionaryWithDefault
340
F
  0
DICTIONARY
  5
B6
102
{ACAD_REACTORS
330
C
102
}
330
C
100
AcDbDictionary
281
     1
  3
A0
350
B7
  3
A1
350
124
  3
A2
350
125
  3
A3
350
126
  3
A4
350
127
  3
A5
350
128
  3
A6
350
129
  3
A7
350
12A
  3
A8
350
12B
  3
A9
350
12C
  3
B0
350
12D
  3
B1
350
12E
  3
B2
350
12F
  3
B3
350
130
  3
B4
350
131
  3
B5
350
132
  3
B6
350
133
  3
B7
350
134
  3
B8
350
135
  3
B9
350
136
  3
C0
350
137
  3
C1
350
138
  3
C2
350
139
  3
C3
350
13A
  3
C4
350
13B
  3
C5
350
13C
  3
C6
350
13D
  3
C7
350
13E
  3
C8
350
13F
  3
C9
350
140
  3
D0
350
141
  3
D1
350
142
  3
D2
350
143
  0
DICTIONARY
  5
1A8
102
{ACAD_REACTORS
330
C
102
}
330
C
100
AcDbDictionary
281
     1
  3
Imperial24
350
1AA
  3
Metric50
350
238
  0
DICTIONARY
  5
86
102
{ACAD_REACTORS
330
C
102
}
330
C
100
AcDbDictionary
281
     1
  3
Legend
350
20D
  3
Standard
350
87
  0
DICTIONARY
  5
99
102
{ACAD_REACTORS
330
C
102
}
330
C
100
AcDbDictionary
281
     1
  3
2dWireframe
350
9F
  3
Basic
350
9E
  3
Brighten
350
A5
  3
ColorChange
350
A9
  3
Conceptual
350
A2
  3
Dim
350
A4
  3
EdgeColorOff
350
175
  3
Facepattern
350
A8
  3
Flat
350
9A
  3
FlatWithEdges
350
9B
  3
Gouraud
350
9C
  3
GouraudWithEdges
350
9D
  3
Hidden
350
A1
  3
JitterOff
350
173
  3
Linepattern
350
A7
  3
OverhangOff
350
174
  3
Realistic
350
A3
  3
Shaded
350
182
  3
Shaded with edges
350
181
  3
Shades of Gray
350
17E
  3
Sketchy
350
17F
  3
Thicken
350
A6
  3
Wireframe
350
A0
  3
X-Ray
350
180
  0
XRECORD
  5
2F4
102
{ACAD_REACTORS
330
C
102
}
330
C
100
AcDbXrecord
280
     1
 90
        1
330
87
330
20D
  0
DICTIONARY
  5
66
102
{ACAD_REACTORS
330
C
102
}
330
C
100
AcDbDictionary
281
     1
  3
CANNOSCALE
350
F0
  3
CMLEADERSTYLE
350
EF
  3
CTABLESTYLE
350
89
  3
CVIEWDETAILSTYLE
350
1B7
  3
CVIEWSECTIONSTYLE
350
1B8
  3
DIMASSOC
350
67
  3
HIDETEXT
350
6B
  3
LAYEREVAL
350
14D
  3
LAYERNOTIFY
350
14E
  0
DICTIONARY
  5
2FB
102
{ACAD_REACTORS
330
C
102
}
330
C
100
AcDbDictionary
281
     1
  3
AcDsRecords
350
2FD
  3
AcDsSchemas
350
2FC
1001
ACAD
1070
     2
  0
XRECORD
  5
266
102
{ACAD_REACTORS
330
C
102
}
330
C
100
AcDbXrecord
280
     1
 90
        2
  0
DICTIONARY
  5
21B
102
{ACAD_REACTORS
330
C
102
}
330
C
100
AcDbDictionary
281
     1
  3
_CurrQry
350
2E9
  0
DICTIONARY
  5
2B5
102
{ACAD_REACTORS
330
C
102
}
330
C
100
AcDbDictionary
281
     1
  3
ASEBlockHierarchyIndexRecord
350
2B6
1001
DCO15
1040
2058589782.0
  0
DICTIONARY
  5
204
102
{ACAD_REACTORS
330
C
102
}
330
C
100
AcDbDictionary
281
     1
  3
AcMapDMStylizedEntities
350
215
  3
AcMapResourceManager
350
209
  3
MAP_DISPLAY_CUSTOMOBJ_REG_TABLE
350
208
  3
MAP_DISPLAY_MANAGEMENT_DICTIONARY
350
205
  3
MAP_DISPLAY_STYLELIBRARY_DICTIONARY
350
206
  3
MAP_RESOURCE_VERSION_MANAGEMENT_DICTIONARY
350
216
1001
MapGWS
1000
C:\ProgramData\Autodesk\Autodesk AutoCAD Map 3D 2019\R23.0\MapCache\L1394_Kreuzungsumbau_Ansfelden_StraßenverlaufGWS.xml
  0
DICTIONARY
  5
18F
102
{ACAD_REACTORS
330
18E
102
}
330
18E
100
AcDbDictionary
281
     1
  0
SORTENTSTABLE
  5
214
102
{ACAD_REACTORS
330
15D
102
}
330
15D
100
AcDbSortentsTable
330
1F
  0
ACDBDETAILVIEWSTYLE
  5
1AC
102
{ACAD_XDICTIONARY
360
300
102
}
102
{ACAD_REACTORS
330
1AB
102
}
330
1AB
100
AcDbModelDocViewStyle
 70
     0
  3
Imperial24
290
     0
100
AcDbDetailViewStyle
 70
     0
 71
     0
 90
        3
 71
     1
340
11
 62
   256
 40
0.24
340
0
 62
   256
 40
0.24
300

 40
0.36
280
     3
 71
     2
340
16
 90
       25
 62
   256
 71
     3
340
11
 62
   256
 40
0.24
 90
        1
 40
0.75
 90
        1
300
%<\AcVar ViewType \f "%tc1">% %<\AcVar ViewDetailId>%\PSCALE %<\AcVar ViewScale \f "%sn">%
 71
     4
340
16
 90
       25
 62
   256
340
16
 90
       25
 62
   256
280
     0
  0
ACDBDETAILVIEWSTYLE
  5
239
102
{ACAD_XDICTIONARY
360
304
102
}
102
{ACAD_REACTORS
330
1AB
102
}
330
1AB
100
AcDbModelDocViewStyle
 70
     0
  3
Metric50
290
     0
100
AcDbDetailViewStyle
 70
     0
 71
     0
 90
        3
 71
     1
340
11
 62
   256
 40
5.0
340
0
 62
   256
 40
5.0
300

 40
0.0
280
     1
 71
     2
340
16
 90
       25
 62
   256
 71
     3
340
11
 62
   256
 40
5.0
 90
        0
 40
15.0
 90
        1
300
%<\AcVar ViewDetailId>% (%<\AcVar ViewScale \f "%sn">%)
 71
     4
340
16
 90
       25
 62
   256
340
16
 90
       25
 62
   256
280
     0
  0
LAYOUT
  5
59
102
{ACAD_REACTORS
330
1A
102
}
330
1A
100
AcDbPlotSettings
  1

  2
None
  4

  6

 40
0.0
 41
0.0
 42
0.0
 43
0.0
 44
0.0
 45
0.0
 46
0.0
 47
0.0
 48
0.0
 49
0.0
140
0.0
141
0.0
142
1.0
143
1.0
 70
   688
 72
     0
 73
     0
 74
     5
  7

 75
    16
147
1.0
 76
     0
 77
     2
 78
   300
148
0.0
149
0.0
100
AcDbLayout
  1
Layout1
 70
     1
 71
     1
 10
0.0
 20
0.0
 11
12.0
 21
9.0
 12
0.0
 22
0.0
 32
0.0
 14
0.0
 24
0.0
 34
0.0
 15
0.0
 25
0.0
 35
0.0
146
0.0
 13
0.0
 23
0.0
 33
0.0
 16
1.0
 26
0.0
 36
0.0
 17
0.0
 27
1.0
 37
0.0
 76
     0
330
58
  0
LAYOUT
  5
5E
102
{ACAD_REACTORS
330
1A
102
}
330
1A
100
AcDbPlotSettings
  1

  2
None
  4

  6

 40
0.0
 41
0.0
 42
0.0
 43
0.0
 44
0.0
 45
0.0
 46
0.0
 47
0.0
 48
0.0
 49
0.0
140
0.0
141
0.0
142
1.0
143
1.0
 70
   688
 72
     0
 73
     0
 74
     5
  7

 75
    16
147
1.0
 76
     0
 77
     2
 78
   300
148
0.0
149
0.0
100
AcDbLayout
  1
Layout2
 70
     1
 71
     2
 10
0.0
 20
0.0
 11
12.0
 21
9.0
 12
0.0
 22
0.0
 32
0.0
 14
0.0
 24
0.0
 34
0.0
 15
0.0
 25
0.0
 35
0.0
146
0.0
 13
0.0
 23
0.0
 33
0.0
 16
1.0
 26
0.0
 36
0.0
 17
0.0
 27
1.0
 37
0.0
 76
     0
330
5D
  0
LAYOUT
  5
22
102
{ACAD_XDICTIONARY
360
194
102
}
102
{ACAD_REACTORS
330
1A
102
}
330
1A
100
AcDbPlotSettings
  1

  2
none_device
  4
ANSI_A_(8.50_x_11.00_Inches)
  6

 40
6.349999904632568
 41
19.04999923706055
 42
6.350006103515625
 43
19.04998779296875
 44
215.8999938964844
 45
279.3999938964844
 46
0.0
 47
0.0
 48
0.0
 49
0.0
140
0.0
141
0.0
142
1.0
143
2.584895464708373
 70
 11952
 72
     0
 73
     1
 74
     0
  7

 75
     0
147
0.3868628397755418
 76
     0
 77
     2
 78
   300
148
0.0
149
0.0
100
AcDbLayout
  1
Model
 70
     1
 71
     0
 10
0.0
 20
0.0
 11
12.0
 21
9.0
 12
0.0
 22
0.0
 32
0.0
 14
0.0
 24
0.0
 34
0.0
 15
0.0
 25
0.0
 35
0.0
146
0.0
 13
0.0
 23
0.0
 33
0.0
 16
1.0
 26
0.0
 36
0.0
 17
0.0
 27
1.0
 37
0.0
 76
     0
330
1F
331
94
  0
MATERIAL
  5
97
102
{ACAD_XDICTIONARY
360
188
102
}
102
{ACAD_REACTORS
330
72
102
}
330
72
100
AcDbMaterial
  1
ByBlock
 94
       63
  0
MATERIAL
  5
96
102
{ACAD_XDICTIONARY
360
186
102
}
102
{ACAD_REACTORS
330
72
102
}
330
72
100
AcDbMaterial
  1
ByLayer
 94
       63
  0
MATERIAL
  5
98
102
{ACAD_XDICTIONARY
360
110
102
}
102
{ACAD_REACTORS
330
72
102
}
330
72
100
AcDbMaterial
  1
Global
 43
0.0208000000566244
 43
0.0
 43
0.0
 43
0.0
 43
0.0
 43
0.0208000000566244
 43
0.0
 43
0.0
 43
0.0
 43
0.0
 43
1.0
 43
0.0
 43
0.0
 43
0.0
 43
0.0
 43
1.0
 49
0.0208000000566244
 49
0.0
 49
0.0
 49
0.0
 49
0.0
 49
0.0208000000566244
 49
0.0
 49
0.0
 49
0.0
 49
0.0
 49
1.0
 49
0.0
 49
0.0
 49
0.0
 49
0.0
 49
1.0
142
0.0208000000566244
142
0.0
142
0.0
142
0.0
142
0.0
142
0.0208000000566244
142
0.0
142
0.0
142
0.0
142
0.0
142
1.0
142
0.0
142
0.0
142
0.0
142
0.0
142
1.0
144
0.0208000000566244
144
0.0
144
0.0
144
0.0
144
0.0
144
0.0208000000566244
144
0.0
144
0.0
144
0.0
144
0.0
144
1.0
144
0.0
144
0.0
144
0.0
144
0.0
144
1.0
 94
       63
1001
ACAD
1070
    -1
1070
     3
1070
     0
1000

1071
        0
1070
     0
  0
MLEADERSTYLE
  5
E5
102
{ACAD_REACTORS
330
D7
102
}
330
D7
100
AcDbMLeaderStyle
179
     2
170
     2
171
     1
172
     0
 90
        2
 40
0.0
 41
0.0
173
     1
 91
-1056964608
340
14
 92
       -2
290
     1
 42
0.09
291
     1
 43
0.36
  3
Standard
 44
0.18
300

342
11
174
     1
178
     1
175
     1
176
     0
 93
-1056964608
 45
0.18
292
     0
297
     0
 46
0.18
 94
-1056964608
 47
1.0
 49
1.0
140
1.0
293
     1
141
0.0
294
     1
177
     0
142
1.0
295
     0
296
     1
143
0.125
271
     0
272
     9
273
     9
298
     0
  0
MLEADERSTYLE
  5
D8
102
{ACAD_REACTORS
330
D7
102
}
330
D7
100
AcDbMLeaderStyle
179
     2
170
     2
171
     1
172
     0
 90
        2
 40
0.0
 41
0.0
173
     1
 91
-1056964608
340
14
 92
       -2
290
     1
 42
0.09
291
     1
 43
0.36
  3
Standard
 44
0.18
300

342
11
174
     1
178
     1
175
     1
176
     0
 93
-1056964608
 45
0.18
292
     0
297
     0
 46
0.18
 94
-1056964608
 47
1.0
 49
1.0
140
1.0
293
     1
141
0.0
294
     1
177
     0
142
1.0
295
     0
296
     0
143
0.125
271
     0
272
     9
273
     9
298
     0
  0
MLINESTYLE
  5
18
102
{ACAD_REACTORS
330
17
102
}
330
17
100
AcDbMlineStyle
  2
STANDARD
 70
     0
  3

 62
   256
 51
90.0
 52
90.0
 71
     2
 49
0.5
 62
   256
  6
BYLAYER
 49
-0.5
 62
   256
  6
BYLAYER
  0
ACDBPLACEHOLDER
  5
F
102
{ACAD_REACTORS
330
E
102
}
330
E
  0
SCALE
  5
B7
102
{ACAD_REACTORS
330
B6
102
}
330
B6
100
AcDbScale
 70
     0
300
1:1
140
1.0
141
1.0
290
     1
  0
SCALE
  5
124
102
{ACAD_REACTORS
330
B6
102
}
330
B6
100
AcDbScale
 70
     0
300
1:2
140
1.0
141
2.0
290
     0
  0
SCALE
  5
125
102
{ACAD_REACTORS
330
B6
102
}
330
B6
100
AcDbScale
 70
     0
300
1:4
140
1.0
141
4.0
290
     0
  0
SCALE
  5
126
102
{ACAD_REACTORS
330
B6
102
}
330
B6
100
AcDbScale
 70
     0
300
1:5
140
1.0
141
5.0
290
     0
  0
SCALE
  5
127
102
{ACAD_REACTORS
330
B6
102
}
330
B6
100
AcDbScale
 70
     0
300
1:8
140
1.0
141
8.0
290
     0
  0
SCALE
  5
128
102
{ACAD_REACTORS
330
B6
102
}
330
B6
100
AcDbScale
 70
     0
300
1:10
140
1.0
141
10.0
290
     0
  0
SCALE
  5
129
102
{ACAD_REACTORS
330
B6
102
}
330
B6
100
AcDbScale
 70
     0
300
1:16
140
1.0
141
16.0
290
     0
  0
SCALE
  5
12A
102
{ACAD_REACTORS
330
B6
102
}
330
B6
100
AcDbScale
 70
     0
300
1:20
140
1.0
141
20.0
290
     0
  0
SCALE
  5
12B
102
{ACAD_REACTORS
330
B6
102
}
330
B6
100
AcDbScale
 70
     0
300
1:30
140
1.0
141
30.0
290
     0
  0
SCALE
  5
12C
102
{ACAD_REACTORS
330
B6
102
}
330
B6
100
AcDbScale
 70
     0
300
1:40
140
1.0
141
40.0
290
     0
  0
SCALE
  5
12D
102
{ACAD_REACTORS
330
B6
102
}
330
B6
100
AcDbScale
 70
     0
300
1:50
140
1.0
141
50.0
290
     0
  0
SCALE
  5
12E
102
{ACAD_REACTORS
330
B6
102
}
330
B6
100
AcDbScale
 70
     0
300
1:100
140
1.0
141
100.0
290
     0
  0
SCALE
  5
12F
102
{ACAD_REACTORS
330
B6
102
}
330
B6
100
AcDbScale
 70
     0
300
2:1
140
2.0
141
1.0
290
     0
  0
SCALE
  5
130
102
{ACAD_REACTORS
330
B6
102
}
330
B6
100
AcDbScale
 70
     0
300
4:1
140
4.0
141
1.0
290
     0
  0
SCALE
  5
131
102
{ACAD_REACTORS
330
B6
102
}
330
B6
100
AcDbScale
 70
     0
300
8:1
140
8.0
141
1.0
290
     0
  0
SCALE
  5
132
102
{ACAD_REACTORS
330
B6
102
}
330
B6
100
AcDbScale
 70
     0
300
10:1
140
10.0
141
1.0
290
     0
  0
SCALE
  5
133
102
{ACAD_REACTORS
330
B6
102
}
330
B6
100
AcDbScale
 70
     0
300
100:1
140
100.0
141
1.0
290
     0
  0
SCALE
  5
134
102
{ACAD_REACTORS
330
B6
102
}
330
B6
100
AcDbScale
 70
     0
300
1/128" = 1'-0"
140
0.0078125
141
12.0
290
     0
  0
SCALE
  5
135
102
{ACAD_REACTORS
330
B6
102
}
330
B6
100
AcDbScale
 70
     0
300
1/64" = 1'-0"
140
0.015625
141
12.0
290
     0
  0
SCALE
  5
136
102
{ACAD_REACTORS
330
B6
102
}
330
B6
100
AcDbScale
 70
     0
300
1/32" = 1'-0"
140
0.03125
141
12.0
290
     0
  0
SCALE
  5
137
102
{ACAD_REACTORS
330
B6
102
}
330
B6
100
AcDbScale
 70
     0
300
1/16" = 1'-0"
140
0.0625
141
12.0
290
     0
  0
SCALE
  5
138
102
{ACAD_REACTORS
330
B6
102
}
330
B6
100
AcDbScale
 70
     0
300
3/32" = 1'-0"
140
0.09375
141
12.0
290
     0
  0
SCALE
  5
139
102
{ACAD_REACTORS
330
B6
102
}
330
B6
100
AcDbScale
 70
     0
300
1/8" = 1'-0"
140
0.125
141
12.0
290
     0
  0
SCALE
  5
13A
102
{ACAD_REACTORS
330
B6
102
}
330
B6
100
AcDbScale
 70
     0
300
3/16" = 1'-0"
140
0.1875
141
12.0
290
     0
  0
SCALE
  5
13B
102
{ACAD_REACTORS
330
B6
102
}
330
B6
100
AcDbScale
 70
     0
300
1/4" = 1'-0"
140
0.25
141
12.0
290
     0
  0
SCALE
  5
13C
102
{ACAD_REACTORS
330
B6
102
}
330
B6
100
AcDbScale
 70
     0
300
3/8" = 1'-0"
140
0.375
141
12.0
290
     0
  0
SCALE
  5
13D
102
{ACAD_REACTORS
330
B6
102
}
330
B6
100
AcDbScale
 70
     0
300
1/2" = 1'-0"
140
0.5
141
12.0
290
     0
  0
SCALE
  5
13E
102
{ACAD_REACTORS
330
B6
102
}
330
B6
100
AcDbScale
 70
     0
300
3/4" = 1'-0"
140
0.75
141
12.0
290
     0
  0
SCALE
  5
13F
102
{ACAD_REACTORS
330
B6
102
}
330
B6
100
AcDbScale
 70
     0
300
1" = 1'-0"
140
1.0
141
12.0
290
     0
  0
SCALE
  5
140
102
{ACAD_REACTORS
330
B6
102
}
330
B6
100
AcDbScale
 70
     0
300
1-1/2" = 1'-0"
140
1.5
141
12.0
290
     0
  0
SCALE
  5
141
102
{ACAD_REACTORS
330
B6
102
}
330
B6
100
AcDbScale
 70
     0
300
3" = 1'-0"
140
3.0
141
12.0
290
     0
  0
SCALE
  5
142
102
{ACAD_REACTORS
330
B6
102
}
330
B6
100
AcDbScale
 70
     0
300
6" = 1'-0"
140
6.0
141
12.0
290
     0
  0
SCALE
  5
143
102
{ACAD_REACTORS
330
B6
102
}
330
B6
100
AcDbScale
 70
     0
300
1'-0" = 1'-0"
140
12.0
141
12.0
290
     0
  0
ACDBSECTIONVIEWSTYLE
  5
1AA
102
{ACAD_XDICTIONARY
360
2FE
102
}
102
{ACAD_REACTORS
330
1A8
102
}
330
1A8
100
AcDbModelDocViewStyle
 70
     0
  3
Imperial24
290
     0
100
AcDbSectionViewStyle
 70
     0
 71
     0
 90
       78
 71
     1
340
11
 62
   256
 40
0.24
340
0
340
0
 62
   256
 40
0.24
300
I, O, Q, S, X, Z
 40
0.48
 90
        3
 40
0.18
 90
        1
 71
     2
340
16
 90
       25
 62
   256
340
16
 90
       50
 62
   256
 40
0.24
 40
0.0
 40
0.24
 71
     3
340
11
 62
   256
 40
0.24
 90
        1
 40
0.75
 90
        1
300
%<\AcVar ViewType \f "%tc1">% %<\AcVar ViewSectionStartId>%-%<\AcVar ViewSectionEndId>%\PSCALE %<\AcVar ViewScale \f "%sn">%
 71
     4
 62
   256
 62
   257
300
ANSI31
 40
1.0
 90
        0
290
     0
290
     0
 90
        6
 40
0.0
 40
1.570796326794896
 40
0.2617993877991494
 40
1.308996938995747
 40
-0.2617993877991494
 40
1.832595714594046
  0
ACDBSECTIONVIEWSTYLE
  5
238
102
{ACAD_XDICTIONARY
360
302
102
}
102
{ACAD_REACTORS
330
1A8
102
}
330
1A8
100
AcDbModelDocViewStyle
 70
     0
  3
Metric50
290
     0
100
AcDbSectionViewStyle
 70
     0
 71
     0
 90
      102
 71
     1
340
11
 62
   256
 40
5.0
340
0
340
0
 62
   256
 40
5.0
300
I, O, Q, S, X, Z
 40
10.0
 90
        0
 40
2.5
 90
        0
 71
     2
340
16
 90
       25
 62
   256
340
16
 90
       50
 62
   256
 40
5.0
 40
2.5
 40
5.0
 71
     3
340
11
 62
   256
 40
5.0
 90
        0
 40
15.0
 90
        1
300
%<\AcVar ViewSectionStartId>%-%<\AcVar ViewSectionEndId>% (%<\AcVar ViewScale \f "%sn">%)
 71
     4
 62
   256
 62
   257
300
ANSI31
 40
1.0
 90
        0
290
     0
290
     0
 90
        6
 40
0.0
 40
1.570796326794896
 40
0.2617993877991494
 40
1.308996938995747
 40
-0.2617993877991494
 40
1.832595714594046
  0
TABLESTYLE
  5
20D
102
{ACAD_XDICTIONARY
360
2F2
102
}
102
{ACAD_REACTORS
330
86
102
}
330
86
100
AcDbTableStyle
280
     0
  3

 70
     0
 71
     3
 40
0.06
 41
0.06
280
     0
281
     0
  7
Legend
140
0.18
170
     4
 62
     0
 63
     7
283
     0
 90
      512
 91
        0
  1

274
    -2
284
     0
 64
     0
275
    -2
285
     0
 65
     0
276
    -2
286
     0
 66
     0
277
    -2
287
     0
 67
     0
278
    -2
288
     0
 68
     0
279
    -2
289
     0
 69
     0
  7
Legend
140
0.25
170
     5
 62
     0
 63
     7
283
     0
 90
      512
 91
        0
  1

274
    -2
284
     0
 64
     0
275
    -2
285
     0
 65
     0
276
    -2
286
     0
 66
     0
277
    -2
287
     0
 67
     0
278
    -2
288
     0
 68
     0
279
    -2
289
     0
 69
     0
  7
Legend
140
0.18
170
     4
 62
     0
 63
     7
283
     0
 90
      512
 91
        0
  1

274
    -2
284
     0
 64
     0
275
    -2
285
     0
 65
     0
276
    -2
286
     0
 66
     0
277
    -2
287
     0
 67
     0
278
    -2
288
     0
 68
     0
279
    -2
289
     0
 69
     0
  0
TABLESTYLE
  5
87
102
{ACAD_XDICTIONARY
360
104
102
}
102
{ACAD_REACTORS
330
86
102
}
330
86
100
AcDbTableStyle
280
     0
  3
Standard
 70
     0
 71
     0
 40
0.06
 41
0.06
280
     0
281
     0
  7
Standard
140
0.18
170
     2
 62
     0
 63
     7
283
     0
 90
      512
 91
        0
  1

274
    -2
284
     1
 64
     0
275
    -2
285
     1
 65
     0
276
    -2
286
     1
 66
     0
277
    -2
287
     1
 67
     0
278
    -2
288
     1
 68
     0
279
    -2
289
     1
 69
     0
  7
Standard
140
0.25
170
     5
 62
     0
 63
     7
283
     0
 90
      512
 91
        0
  1

274
    -2
284
     1
 64
     0
275
    -2
285
     1
 65
     0
276
    -2
286
     1
 66
     0
277
    -2
287
     1
 67
     0
278
    -2
288
     1
 68
     0
279
    -2
289
     1
 69
     0
  7
Standard
140
0.18
170
     5
 62
     0
 63
     7
283
     0
 90
      512
 91
        0
  1

274
    -2
284
     1
 64
     0
275
    -2
285
     1
 65
     0
276
    -2
286
     1
 66
     0
277
    -2
287
     1
 67
     0
278
    -2
288
     1
 68
     0
279
    -2
289
     1
 69
     0
  0
VISUALSTYLE
  5
9F
102
{ACAD_REACTORS
330
99
102
}
330
99
100
AcDbVisualStyle
  2
2dWireframe
 70
     4
177
     3
291
     0
 70
    58
 90
        0
176
     1
 90
        2
176
     1
 90
        1
176
     1
 90
        0
176
     1
 40
0.6
176
     1
 40
30.0
176
     1
 62
     7
420
 16777215
176
     1
 90
        1
176
     1
 90
        4
176
     1
 62
     7
176
     1
 62
   257
176
     1
 90
        1
176
     1
 90
        1
176
     1
 40
1.0
176
     1
 90
        0
176
     1
 62
   257
176
     1
 40
1.0
176
     1
 90
        1
176
     1
 90
        6
176
     1
 90
        2
176
     1
 62
     7
176
     1
 90
        5
176
     1
 90
        0
176
     1
 90
        0
176
     1
290
     0
176
     1
 90
        1
176
     1
 40
0.0
176
     1
 90
        0
176
     1
290
     1
176
     1
290
     1
176
     1
290
     0
176
     1
290
     0
176
     1
290
     0
176
     1
290
     0
176
     1
290
     0
176
     1
290
     0
176
     1
290
     0
176
     1
 90
       50
176
     1
 40
0.0
176
     1
 40
1.0
176
     1
 90
        0
176
     1
 62
    18
420
        0
176
     1
 90
       50
176
     1
 90
        3
176
     1
 62
     5
420
      255
176
     1
290
     0
176
     1
 90
       50
176
     1
 90
       50
176
     1
 90
       50
176
     1
290
     0
176
     1
 90
       50
176
     1
 62
   256
176
     0
 40
1.0
176
     0
 90
        2
176
     1
  1
strokes_ogs.tif
176
     1
290
     0
176
     1
 40
1.0
176
     1
 40
1.0
176
     1
1001
ACAD
1000
AcDbSavedByObjectVersion
1070
     0
  0
VISUALSTYLE
  5
9E
102
{ACAD_REACTORS
330
99
102
}
330
99
100
AcDbVisualStyle
  2
Basic
 70
     7
177
     3
291
     1
 70
    58
 90
        1
176
     1
 90
        0
176
     1
 90
        1
176
     1
 90
        0
176
     1
 40
0.6
176
     1
 40
30.0
176
     1
 62
     7
420
 16777215
176
     1
 90
        0
176
     1
 90
        4
176
     1
 62
     7
176
     1
 62
   257
176
     1
 90
        1
176
     1
 90
        1
176
     1
 40
1.0
176
     1
 90
        8
176
     1
 62
     7
176
     1
 40
1.0
176
     1
 90
        1
176
     1
 90
        6
176
     1
 90
        2
176
     1
 62
     7
176
     1
 90
        5
176
     1
 90
        0
176
     1
 90
        0
176
     1
290
     0
176
     1
 90
        1
176
     1
 40
0.0
176
     1
 90
        0
176
     1
290
     0
176
     1
290
     1
176
     1
290
     1
176
     1
290
     0
176
     1
290
     0
176
     1
290
     0
176
     1
290
     0
176
     1
290
     0
176
     1
290
     0
176
     1
 90
       50
176
     1
 40
0.0
176
     1
 40
1.0
176
     1
 90
        0
176
     1
 62
    18
420
        0
176
     1
 90
       50
176
     1
 90
        3
176
     1
 62
     5
420
      255
176
     1
290
     0
176
     1
 90
       50
176
     1
 90
       50
176
     1
 90
       50
176
     1
290
     0
176
     1
 90
       50
176
     1
 62
   256
176
     0
 40
1.0
176
     0
 90
        2
176
     1
  1
strokes_ogs.tif
176
     1
290
     0
176
     1
 40
1.0
176
     1
 40
1.0
176
     1
1001
ACAD
1000
AcDbSavedByObjectVersion
1070
     0
  0
VISUALSTYLE
  5
A5
102
{ACAD_REACTORS
330
99
102
}
330
99
100
AcDbVisualStyle
  2
Brighten
 70
    12
177
     3
291
     1
 70
    58
 90
        2
176
     1
 90
        2
176
     1
 90
        1
176
     1
 90
        0
176
     1
 40
0.6
176
     1
 40
30.0
176
     1
 62
     7
420
 16777215
176
     1
 90
        1
176
     1
 90
        4
176
     1
 62
     7
176
     1
 62
   257
176
     1
 90
        1
176
     1
 90
        1
176
     1
 40
1.0
176
     1
 90
        8
176
     1
 62
     7
176
     1
 40
1.0
176
     1
 90
        1
176
     1
 90
        6
176
     1
 90
        2
176
     1
 62
     7
176
     1
 90
        5
176
     1
 90
        0
176
     1
 90
        0
176
     1
290
     0
176
     1
 90
        1
176
     1
 40
50.0
176
     1
 90
        0
176
     1
290
     0
176
     1
290
     1
176
     1
290
     1
176
     1
290
     0
176
     1
290
     0
176
     1
290
     0
176
     1
290
     0
176
     1
290
     0
176
     1
290
     0
176
     1
 90
       50
176
     1
 40
0.0
176
     1
 40
1.0
176
     1
 90
        0
176
     1
 62
    18
420
        0
176
     1
 90
       50
176
     1
 90
        3
176
     1
 62
     5
420
      255
176
     1
290
     0
176
     1
 90
       50
176
     1
 90
       50
176
     1
 90
       50
176
     1
290
     0
176
     1
 90
       50
176
     1
 62
   256
176
     0
 40
1.0
176
     0
 90
        2
176
     1
  1
strokes_ogs.tif
176
     1
290
     0
176
     1
 40
1.0
176
     1
 40
1.0
176
     1
1001
ACAD
1000
AcDbSavedByObjectVersion
1070
     0
  0
VISUALSTYLE
  5
A9
102
{ACAD_REACTORS
330
99
102
}
330
99
100
AcDbVisualStyle
  2
ColorChange
 70
    16
177
     3
291
     1
 70
    58
 90
        2
176
     1
 90
        2
176
     1
 90
        3
176
     1
 90
        0
176
     1
 40
0.6
176
     1
 40
30.0
176
     1
 62
     8
420
  8421504
176
     1
 90
        1
176
     1
 90
        4
176
     1
 62
     7
176
     1
 62
   257
176
     1
 90
        1
176
     1
 90
        1
176
     1
 40
1.0
176
     1
 90
        8
176
     1
 62
     8
420
  8421504
176
     1
 40
1.0
176
     1
 90
        1
176
     1
 90
        6
176
     1
 90
        2
176
     1
 62
     7
176
     1
 90
        5
176
     1
 90
        0
176
     1
 90
        0
176
     1
290
     0
176
     1
 90
        1
176
     1
 40
0.0
176
     1
 90
        0
176
     1
290
     0
176
     1
290
     1
176
     1
290
     1
176
     1
290
     0
176
     1
290
     0
176
     1
290
     0
176
     1
290
     0
176
     1
290
     0
176
     1
290
     0
176
     1
 90
       50
176
     1
 40
0.0
176
     1
 40
1.0
176
     1
 90
        0
176
     1
 62
    18
420
        0
176
     1
 90
       50
176
     1
 90
        3
176
     1
 62
     5
420
      255
176
     1
290
     0
176
     1
 90
       50
176
     1
 90
       50
176
     1
 90
       50
176
     1
290
     0
176
     1
 90
       50
176
     1
 62
   256
176
     0
 40
1.0
176
     0
 90
        2
176
     1
  1
strokes_ogs.tif
176
     1
290
     0
176
     1
 40
1.0
176
     1
 40
1.0
176
     1
1001
ACAD
1000
AcDbSavedByObjectVersion
1070
     0
  0
VISUALSTYLE
  5
A2
102
{ACAD_REACTORS
330
99
102
}
330
99
100
AcDbVisualStyle
  2
Conceptual
 70
     9
177
     3
291
     0
 70
    58
 90
        3
176
     1
 90
        2
176
     1
 90
        1
176
     1
 90
        0
176
     1
 40
0.6
176
     1
 40
30.0
176
     1
 62
     7
420
 16777215
176
     1
 90
        2
176
     1
 90
        2
176
     1
 62
     7
176
     1
 62
   257
176
     1
 90
        1
176
     1
 90
        1
176
     1
 40
40.0
176
     1
 90
        8
176
     1
 62
     7
176
     1
 40
1.0
176
     1
 90
        1
176
     1
 90
        6
176
     1
 90
        2
176
     1
 62
     7
176
     1
 90
        3
176
     1
 90
        0
176
     1
 90
        0
176
     1
290
     0
176
     1
 90
        1
176
     1
 40
0.0
176
     1
 90
        0
176
     1
290
     0
176
     1
290
     1
176
     1
290
     1
176
     1
290
     0
176
     1
290
     0
176
     1
290
     0
176
     1
290
     0
176
     1
290
     0
176
     1
290
     0
176
     1
 90
       50
176
     1
 40
0.0
176
     1
 40
1.0
176
     1
 90
        0
176
     1
 62
    18
420
        0
176
     1
 90
       50
176
     1
 90
        3
176
     1
 62
     5
420
      255
176
     1
290
     0
176
     1
 90
       50
176
     1
 90
       50
176
     1
 90
       50
176
     1
290
     0
176
     1
 90
       50
176
     1
 62
   256
176
     0
 40
1.0
176
     0
 90
        2
176
     1
  1
strokes_ogs.tif
176
     1
290
     0
176
     1
 40
1.0
176
     1
 40
1.0
176
     1
1001
ACAD
1000
AcDbSavedByObjectVersion
1070
     0
  0
VISUALSTYLE
  5
A4
102
{ACAD_REACTORS
330
99
102
}
330
99
100
AcDbVisualStyle
  2
Dim
 70
    11
177
     3
291
     1
 70
    58
 90
        2
176
     1
 90
        2
176
     1
 90
        1
176
     1
 90
        0
176
     1
 40
0.6
176
     1
 40
30.0
176
     1
 62
     7
420
 16777215
176
     1
 90
        1
176
     1
 90
        4
176
     1
 62
     7
176
     1
 62
   257
176
     1
 90
        1
176
     1
 90
        1
176
     1
 40
1.0
176
     1
 90
        8
176
     1
 62
     7
176
     1
 40
1.0
176
     1
 90
        1
176
     1
 90
        6
176
     1
 90
        2
176
     1
 62
     7
176
     1
 90
        5
176
     1
 90
        0
176
     1
 90
        0
176
     1
290
     0
176
     1
 90
        1
176
     1
 40
-50.0
176
     1
 90
        0
176
     1
290
     0
176
     1
290
     1
176
     1
290
     1
176
     1
290
     0
176
     1
290
     0
176
     1
290
     0
176
     1
290
     0
176
     1
290
     0
176
     1
290
     0
176
     1
 90
       50
176
     1
 40
0.0
176
     1
 40
1.0
176
     1
 90
        0
176
     1
 62
    18
420
        0
176
     1
 90
       50
176
     1
 90
        3
176
     1
 62
     5
420
      255
176
     1
290
     0
176
     1
 90
       50
176
     1
 90
       50
176
     1
 90
       50
176
     1
290
     0
176
     1
 90
       50
176
     1
 62
   256
176
     0
 40
1.0
176
     0
 90
        2
176
     1
  1
strokes_ogs.tif
176
     1
290
     0
176
     1
 40
1.0
176
     1
 40
1.0
176
     1
1001
ACAD
1000
AcDbSavedByObjectVersion
1070
     0
  0
VISUALSTYLE
  5
175
102
{ACAD_REACTORS
330
99
102
}
330
99
100
AcDbVisualStyle
  2
EdgeColorOff
 70
    22
177
     3
291
     1
 70
    58
 90
        2
176
     0
 90
        2
176
     0
 90
        0
176
     0
 90
        0
176
     0
 40
0.6
176
     0
 40
30.0
176
     0
 62
     7
420
 16777215
176
     0
 90
        1
176
     0
 90
        4
176
     0
 62
     7
176
     0
 62
   257
176
     0
 90
        1
176
     0
 90
        1
176
     0
 40
1.0
176
     0
 90
        8
176
     2
 62
     7
176
     0
 40
1.0
176
     0
 90
        1
176
     0
 90
        6
176
     0
 90
        2
176
     0
 62
     7
176
     0
 90
        5
176
     0
 90
        0
176
     0
 90
        0
176
     0
290
     0
176
     0
 90
        1
176
     0
 40
0.0
176
     0
 90
        0
176
     0
290
     0
176
     1
290
     1
176
     1
290
     1
176
     1
290
     0
176
     1
290
     0
176
     1
290
     0
176
     1
290
     0
176
     1
290
     0
176
     1
290
     0
176
     1
 90
       50
176
     1
 40
0.0
176
     1
 40
1.0
176
     1
 90
        0
176
     1
 62
    18
420
        0
176
     1
 90
       50
176
     1
 90
        3
176
     1
 62
     5
420
      255
176
     1
290
     0
176
     1
 90
       50
176
     1
 90
       50
176
     1
 90
       50
176
     1
290
     0
176
     1
 90
       50
176
     1
 62
   256
176
     0
 40
1.0
176
     0
 90
        2
176
     1
  1
strokes_ogs.tif
176
     1
290
     0
176
     1
 40
1.0
176
     1
 40
1.0
176
     1
1001
ACAD
1000
AcDbSavedByObjectVersion
1070
     0
  0
VISUALSTYLE
  5
A8
102
{ACAD_REACTORS
330
99
102
}
330
99
100
AcDbVisualStyle
  2
Facepattern
 70
    15
177
     3
291
     1
 70
    58
 90
        2
176
     1
 90
        2
176
     1
 90
        1
176
     1
 90
        0
176
     1
 40
0.6
176
     1
 40
30.0
176
     1
 62
     7
420
 16777215
176
     1
 90
        1
176
     1
 90
        4
176
     1
 62
     7
176
     1
 62
   257
176
     1
 90
        1
176
     1
 90
        1
176
     1
 40
1.0
176
     1
 90
        8
176
     1
 62
     7
176
     1
 40
1.0
176
     1
 90
        1
176
     1
 90
        6
176
     1
 90
        2
176
     1
 62
     7
176
     1
 90
        5
176
     1
 90
        0
176
     1
 90
        0
176
     1
290
     0
176
     1
 90
        1
176
     1
 40
0.0
176
     1
 90
        0
176
     1
290
     0
176
     1
290
     1
176
     1
290
     1
176
     1
290
     0
176
     1
290
     0
176
     1
290
     0
176
     1
290
     0
176
     1
290
     0
176
     1
290
     0
176
     1
 90
       50
176
     1
 40
0.0
176
     1
 40
1.0
176
     1
 90
        0
176
     1
 62
    18
420
        0
176
     1
 90
       50
176
     1
 90
        3
176
     1
 62
     5
420
      255
176
     1
290
     0
176
     1
 90
       50
176
     1
 90
       50
176
     1
 90
       50
176
     1
290
     0
176
     1
 90
       50
176
     1
 62
   256
176
     0
 40
1.0
176
     0
 90
        2
176
     1
  1
strokes_ogs.tif
176
     1
290
     0
176
     1
 40
1.0
176
     1
 40
1.0
176
     1
1001
ACAD
1000
AcDbSavedByObjectVersion
1070
     0
  0
VISUALSTYLE
  5
9A
102
{ACAD_REACTORS
330
99
102
}
330
99
100
AcDbVisualStyle
  2
Flat
 70
     0
177
     3
291
     1
 70
    58
 90
        2
176
     1
 90
        1
176
     1
 90
        1
176
     1
 90
        2
176
     1
 40
0.6
176
     1
 40
30.0
176
     1
 62
     7
420
 16777215
176
     1
 90
        0
176
     1
 90
        0
176
     1
 62
     7
176
     1
 62
   257
176
     1
 90
        1
176
     1
 90
        1
176
     1
 40
1.0
176
     1
 90
        8
176
     1
 62
     7
176
     1
 40
1.0
176
     1
 90
        1
176
     1
 90
        6
176
     1
 90
        2
176
     1
 62
     7
176
     1
 90
        5
176
     1
 90
        0
176
     1
 90
        0
176
     1
290
     0
176
     1
 90
       13
176
     1
 40
0.0
176
     1
 90
        0
176
     1
290
     0
176
     1
290
     1
176
     1
290
     1
176
     1
290
     0
176
     1
290
     0
176
     1
290
     0
176
     1
290
     0
176
     1
290
     0
176
     1
290
     0
176
     1
 90
       50
176
     1
 40
0.0
176
     1
 40
1.0
176
     1
 90
        0
176
     1
 62
    18
420
        0
176
     1
 90
       50
176
     1
 90
        3
176
     1
 62
     5
420
      255
176
     1
290
     0
176
     1
 90
       50
176
     1
 90
       50
176
     1
 90
       50
176
     1
290
     0
176
     1
 90
       50
176
     1
 62
   256
176
     0
 40
1.0
176
     0
 90
        2
176
     1
  1
strokes_ogs.tif
176
     1
290
     0
176
     1
 40
1.0
176
     1
 40
1.0
176
     1
1001
ACAD
1000
AcDbSavedByObjectVersion
1070
     0
  0
VISUALSTYLE
  5
9B
102
{ACAD_REACTORS
330
99
102
}
330
99
100
AcDbVisualStyle
  2
FlatWithEdges
 70
     1
177
     3
291
     1
 70
    58
 90
        2
176
     1
 90
        1
176
     1
 90
        1
176
     1
 90
        2
176
     1
 40
0.6
176
     1
 40
30.0
176
     1
 62
     7
420
 16777215
176
     1
 90
        1
176
     1
 90
        0
176
     1
 62
     7
176
     1
 62
   257
176
     1
 90
        1
176
     1
 90
        1
176
     1
 40
1.0
176
     1
 90
        0
176
     1
 62
   257
176
     1
 40
1.0
176
     1
 90
        1
176
     1
 90
        6
176
     1
 90
        2
176
     1
 62
     7
176
     1
 90
        5
176
     1
 90
        0
176
     1
 90
        0
176
     1
290
     0
176
     1
 90
       13
176
     1
 40
0.0
176
     1
 90
        0
176
     1
290
     0
176
     1
290
     1
176
     1
290
     1
176
     1
290
     0
176
     1
290
     0
176
     1
290
     0
176
     1
290
     0
176
     1
290
     0
176
     1
290
     0
176
     1
 90
       50
176
     1
 40
0.0
176
     1
 40
1.0
176
     1
 90
        0
176
     1
 62
    18
420
        0
176
     1
 90
       50
176
     1
 90
        3
176
     1
 62
     5
420
      255
176
     1
290
     0
176
     1
 90
       50
176
     1
 90
       50
176
     1
 90
       50
176
     1
290
     0
176
     1
 90
       50
176
     1
 62
   256
176
     0
 40
1.0
176
     0
 90
        2
176
     1
  1
strokes_ogs.tif
176
     1
290
     0
176
     1
 40
1.0
176
     1
 40
1.0
176
     1
1001
ACAD
1000
AcDbSavedByObjectVersion
1070
     0
  0
VISUALSTYLE
  5
9C
102
{ACAD_REACTORS
330
99
102
}
330
99
100
AcDbVisualStyle
  2
Gouraud
 70
     2
177
     3
291
     1
 70
    58
 90
        2
176
     1
 90
        2
176
     1
 90
        1
176
     1
 90
        2
176
     1
 40
0.6
176
     1
 40
30.0
176
     1
 62
     7
420
 16777215
176
     1
 90
        0
176
     1
 90
        0
176
     1
 62
     7
176
     1
 62
   257
176
     1
 90
        1
176
     1
 90
        1
176
     1
 40
1.0
176
     1
 90
        0
176
     1
 62
     7
176
     1
 40
1.0
176
     1
 90
        1
176
     1
 90
        6
176
     1
 90
        2
176
     1
 62
     7
176
     1
 90
        5
176
     1
 90
        0
176
     1
 90
        0
176
     1
290
     0
176
     1
 90
       13
176
     1
 40
0.0
176
     1
 90
        0
176
     1
290
     0
176
     1
290
     1
176
     1
290
     1
176
     1
290
     0
176
     1
290
     0
176
     1
290
     0
176
     1
290
     0
176
     1
290
     0
176
     1
290
     0
176
     1
 90
       50
176
     1
 40
0.0
176
     1
 40
1.0
176
     1
 90
        0
176
     1
 62
    18
420
        0
176
     1
 90
       50
176
     1
 90
        3
176
     1
 62
     5
420
      255
176
     1
290
     0
176
     1
 90
       50
176
     1
 90
       50
176
     1
 90
       50
176
     1
290
     0
176
     1
 90
       50
176
     1
 62
   256
176
     0
 40
1.0
176
     0
 90
        2
176
     1
  1
strokes_ogs.tif
176
     1
290
     0
176
     1
 40
1.0
176
     1
 40
1.0
176
     1
1001
ACAD
1000
AcDbSavedByObjectVersion
1070
     0
  0
VISUALSTYLE
  5
9D
102
{ACAD_REACTORS
330
99
102
}
330
99
100
AcDbVisualStyle
  2
GouraudWithEdges
 70
     3
177
     3
291
     1
 70
    58
 90
        2
176
     1
 90
        2
176
     1
 90
        1
176
     1
 90
        2
176
     1
 40
0.6
176
     1
 40
30.0
176
     1
 62
     7
420
 16777215
176
     1
 90
        1
176
     1
 90
        0
176
     1
 62
     7
176
     1
 62
   257
176
     1
 90
        1
176
     1
 90
        1
176
     1
 40
1.0
176
     1
 90
        0
176
     1
 62
   257
176
     1
 40
1.0
176
     1
 90
        1
176
     1
 90
        6
176
     1
 90
        2
176
     1
 62
     7
176
     1
 90
        5
176
     1
 90
        0
176
     1
 90
        0
176
     1
290
     0
176
     1
 90
       13
176
     1
 40
0.0
176
     1
 90
        0
176
     1
290
     0
176
     1
290
     1
176
     1
290
     1
176
     1
290
     0
176
     1
290
     0
176
     1
290
     0
176
     1
290
     0
176
     1
290
     0
176
     1
290
     0
176
     1
 90
       50
176
     1
 40
0.0
176
     1
 40
1.0
176
     1
 90
        0
176
     1
 62
    18
420
        0
176
     1
 90
       50
176
     1
 90
        3
176
     1
 62
     5
420
      255
176
     1
290
     0
176
     1
 90
       50
176
     1
 90
       50
176
     1
 90
       50
176
     1
290
     0
176
     1
 90
       50
176
     1
 62
   256
176
     0
 40
1.0
176
     0
 90
        2
176
     1
  1
strokes_ogs.tif
176
     1
290
     0
176
     1
 40
1.0
176
     1
 40
1.0
176
     1
1001
ACAD
1000
AcDbSavedByObjectVersion
1070
     0
  0
VISUALSTYLE
  5
A1
102
{ACAD_REACTORS
330
99
102
}
330
99
100
AcDbVisualStyle
  2
Hidden
 70
     6
177
     3
291
     0
 70
    58
 90
        1
176
     1
 90
        2
176
     1
 90
        2
176
     1
 90
        0
176
     1
 40
0.6
176
     1
 40
30.0
176
     1
 62
     7
420
 16777215
176
     1
 90
        2
176
     1
 90
        2
176
     1
 62
     7
176
     1
 62
   257
176
     1
 90
        2
176
     1
 90
        1
176
     1
 40
40.0
176
     1
 90
        0
176
     1
 62
   257
176
     1
 40
1.0
176
     1
 90
        1
176
     1
 90
        6
176
     1
 90
        2
176
     1
 62
     7
176
     1
 90
        3
176
     1
 90
        0
176
     1
 90
        0
176
     1
290
     0
176
     1
 90
        1
176
     1
 40
0.0
176
     1
 90
        0
176
     1
290
     0
176
     1
290
     1
176
     1
290
     1
176
     1
290
     0
176
     1
290
     0
176
     1
290
     0
176
     1
290
     0
176
     1
290
     0
176
     1
290
     0
176
     1
 90
       50
176
     1
 40
0.0
176
     1
 40
1.0
176
     1
 90
        0
176
     1
 62
    18
420
        0
176
     1
 90
       50
176
     1
 90
        3
176
     1
 62
     5
420
      255
176
     1
290
     0
176
     1
 90
       50
176
     1
 90
       50
176
     1
 90
       50
176
     1
290
     0
176
     1
 90
       50
176
     1
 62
   256
176
     0
 40
1.0
176
     0
 90
        2
176
     1
  1
strokes_ogs.tif
176
     1
290
     0
176
     1
 40
1.0
176
     1
 40
1.0
176
     1
1001
ACAD
1000
AcDbSavedByObjectVersion
1070
     0
  0
VISUALSTYLE
  5
173
102
{ACAD_REACTORS
330
99
102
}
330
99
100
AcDbVisualStyle
  2
JitterOff
 70
    20
177
     3
291
     1
 70
    58
 90
        2
176
     0
 90
        2
176
     0
 90
        0
176
     0
 90
        0
176
     0
 40
0.6
176
     0
 40
30.0
176
     0
 62
     7
420
 16777215
176
     0
 90
        1
176
     0
 90
        4
176
     0
 62
     7
176
     0
 62
   257
176
     0
 90
        1
176
     0
 90
        1
176
     0
 40
1.0
176
     0
 90
       10
176
     2
 62
     7
176
     0
 40
1.0
176
     0
 90
        1
176
     0
 90
        6
176
     0
 90
        2
176
     0
 62
     7
176
     0
 90
        5
176
     0
 90
        0
176
     0
 90
        0
176
     0
290
     0
176
     0
 90
        1
176
     0
 40
0.0
176
     0
 90
        0
176
     0
290
     0
176
     1
290
     1
176
     1
290
     1
176
     1
290
     0
176
     1
290
     0
176
     1
290
     0
176
     1
290
     0
176
     1
290
     0
176
     1
290
     0
176
     1
 90
       50
176
     1
 40
0.0
176
     1
 40
1.0
176
     1
 90
        0
176
     1
 62
    18
420
        0
176
     1
 90
       50
176
     1
 90
        3
176
     1
 62
     5
420
      255
176
     1
290
     0
176
     1
 90
       50
176
     1
 90
       50
176
     1
 90
       50
176
     1
290
     0
176
     1
 90
       50
176
     1
 62
   256
176
     0
 40
1.0
176
     0
 90
        2
176
     1
  1
strokes_ogs.tif
176
     1
290
     0
176
     1
 40
1.0
176
     1
 40
1.0
176
     1
1001
ACAD
1000
AcDbSavedByObjectVersion
1070
     0
  0
VISUALSTYLE
  5
A7
102
{ACAD_REACTORS
330
99
102
}
330
99
100
AcDbVisualStyle
  2
Linepattern
 70
    14
177
     3
291
     1
 70
    58
 90
        2
176
     1
 90
        2
176
     1
 90
        1
176
     1
 90
        0
176
     1
 40
0.6
176
     1
 40
30.0
176
     1
 62
     7
420
 16777215
176
     1
 90
        1
176
     1
 90
        4
176
     1
 62
     7
176
     1
 62
   257
176
     1
 90
        7
176
     1
 90
        7
176
     1
 40
1.0
176
     1
 90
        8
176
     1
 62
     7
176
     1
 40
1.0
176
     1
 90
        1
176
     1
 90
        6
176
     1
 90
        2
176
     1
 62
     7
176
     1
 90
        5
176
     1
 90
        0
176
     1
 90
        0
176
     1
290
     0
176
     1
 90
        1
176
     1
 40
0.0
176
     1
 90
        0
176
     1
290
     0
176
     1
290
     1
176
     1
290
     1
176
     1
290
     0
176
     1
290
     0
176
     1
290
     0
176
     1
290
     0
176
     1
290
     0
176
     1
290
     0
176
     1
 90
       50
176
     1
 40
0.0
176
     1
 40
1.0
176
     1
 90
        0
176
     1
 62
    18
420
        0
176
     1
 90
       50
176
     1
 90
        3
176
     1
 62
     5
420
      255
176
     1
290
     0
176
     1
 90
       50
176
     1
 90
       50
176
     1
 90
       50
176
     1
290
     0
176
     1
 90
       50
176
     1
 62
   256
176
     0
 40
1.0
176
     0
 90
        2
176
     1
  1
strokes_ogs.tif
176
     1
290
     0
176
     1
 40
1.0
176
     1
 40
1.0
176
     1
1001
ACAD
1000
AcDbSavedByObjectVersion
1070
     0
  0
VISUALSTYLE
  5
174
102
{ACAD_REACTORS
330
99
102
}
330
99
100
AcDbVisualStyle
  2
OverhangOff
 70
    21
177
     3
291
     1
 70
    58
 90
        2
176
     0
 90
        2
176
     0
 90
        0
176
     0
 90
        0
176
     0
 40
0.6
176
     0
 40
30.0
176
     0
 62
     7
420
 16777215
176
     0
 90
        1
176
     0
 90
        4
176
     0
 62
     7
176
     0
 62
   257
176
     0
 90
        1
176
     0
 90
        1
176
     0
 40
1.0
176
     0
 90
        9
176
     2
 62
     7
176
     0
 40
1.0
176
     0
 90
        1
176
     0
 90
        6
176
     0
 90
        2
176
     0
 62
     7
176
     0
 90
        5
176
     0
 90
        0
176
     0
 90
        0
176
     0
290
     0
176
     0
 90
        1
176
     0
 40
0.0
176
     0
 90
        0
176
     0
290
     0
176
     1
290
     1
176
     1
290
     1
176
     1
290
     0
176
     1
290
     0
176
     1
290
     0
176
     1
290
     0
176
     1
290
     0
176
     1
290
     0
176
     1
 90
       50
176
     1
 40
0.0
176
     1
 40
1.0
176
     1
 90
        0
176
     1
 62
    18
420
        0
176
     1
 90
       50
176
     1
 90
        3
176
     1
 62
     5
420
      255
176
     1
290
     0
176
     1
 90
       50
176
     1
 90
       50
176
     1
 90
       50
176
     1
290
     0
176
     1
 90
       50
176
     1
 62
   256
176
     0
 40
1.0
176
     0
 90
        2
176
     1
  1
strokes_ogs.tif
176
     1
290
     0
176
     1
 40
1.0
176
     1
 40
1.0
176
     1
1001
ACAD
1000
AcDbSavedByObjectVersion
1070
     0
  0
VISUALSTYLE
  5
A3
102
{ACAD_REACTORS
330
99
102
}
330
99
100
AcDbVisualStyle
  2
Realistic
 70
     8
177
     3
291
     0
 70
    58
 90
        2
176
     1
 90
        3
176
     1
 90
        0
176
     1
 90
        2
176
     1
 40
0.6
176
     1
 40
30.0
176
     1
 62
     7
420
 16777215
176
     1
 90
        0
176
     1
 90
        0
176
     1
 62
     7
176
     1
 62
   257
176
     1
 90
        1
176
     1
 90
        1
176
     1
 40
1.0
176
     1
 90
        8
176
     1
 62
   257
176
     1
 40
1.0
176
     1
 90
        1
176
     1
 90
        6
176
     1
 90
        2
176
     1
 62
     7
176
     1
 90
        3
176
     1
 90
        0
176
     1
 90
        0
176
     1
290
     0
176
     1
 90
       13
176
     1
 40
0.0
176
     1
 90
        0
176
     1
290
     0
176
     1
290
     1
176
     1
290
     1
176
     1
290
     0
176
     1
290
     0
176
     1
290
     0
176
     1
290
     0
176
     1
290
     0
176
     1
290
     0
176
     1
 90
       50
176
     1
 40
0.0
176
     1
 40
1.0
176
     1
 90
        0
176
     1
 62
    18
420
        0
176
     1
 90
       50
176
     1
 90
        3
176
     1
 62
     5
420
      255
176
     1
290
     0
176
     1
 90
       50
176
     1
 90
       50
176
     1
 90
       50
176
     1
290
     0
176
     1
 90
       50
176
     1
 62
   256
176
     0
 40
1.0
176
     0
 90
        2
176
     1
  1
strokes_ogs.tif
176
     1
290
     0
176
     1
 40
1.0
176
     1
 40
1.0
176
     1
1001
ACAD
1000
AcDbSavedByObjectVersion
1070
     0
  0
VISUALSTYLE
  5
182
102
{ACAD_REACTORS
330
99
102
}
330
99
100
AcDbVisualStyle
  2
Shaded
 70
    27
177
     3
291
     0
 70
    58
 90
        2
176
     1
 90
        2
176
     1
 90
        1
176
     1
 90
        2
176
     1
 40
0.6
176
     1
 40
30.0
176
     1
 62
     7
420
 16777215
176
     1
 90
        0
176
     1
 90
        4
176
     1
 62
     7
176
     1
 62
   257
176
     1
 90
        1
176
     1
 90
        1
176
     1
 40
1.0
176
     1
 90
        8
176
     1
 62
   257
176
     1
 40
1.0
176
     1
 90
        1
176
     1
 90
        6
176
     1
 90
        2
176
     1
 62
     8
420
  7895160
176
     1
 90
        3
176
     1
 90
        0
176
     1
 90
        0
176
     1
290
     0
176
     1
 90
        5
176
     1
 40
0.0
176
     1
 90
        0
176
     1
290
     0
176
     1
290
     1
176
     1
290
     1
176
     1
290
     0
176
     1
290
     0
176
     1
290
     0
176
     1
290
     0
176
     1
290
     0
176
     1
290
     0
176
     1
 90
       50
176
     1
 40
0.0
176
     1
 40
1.0
176
     1
 90
        0
176
     1
 62
    18
420
        0
176
     1
 90
       50
176
     1
 90
        3
176
     1
 62
     5
420
      255
176
     1
290
     0
176
     1
 90
       50
176
     1
 90
       50
176
     1
 90
       50
176
     1
290
     0
176
     1
 90
       50
176
     1
 62
   256
176
     0
 40
1.0
176
     0
 90
        2
176
     1
  1
strokes_ogs.tif
176
     1
290
     0
176
     1
 40
1.0
176
     1
 40
1.0
176
     1
1001
ACAD
1000
AcDbSavedByObjectVersion
1070
     0
  0
VISUALSTYLE
  5
181
102
{ACAD_REACTORS
330
99
102
}
330
99
100
AcDbVisualStyle
  2
Shaded with edges
 70
    26
177
     3
291
     0
 70
    58
 90
        2
176
     1
 90
        2
176
     1
 90
        1
176
     1
 90
        2
176
     1
 40
0.6
176
     1
 40
30.0
176
     1
 62
     7
420
 16777215
176
     1
 90
        1
176
     1
 90
        2
176
     1
 62
     7
176
     1
 62
   257
176
     1
 90
        2
176
     1
 90
        1
176
     1
 40
1.0
176
     1
 90
        8
176
     1
 62
   257
176
     1
 40
1.0
176
     1
 90
        1
176
     1
 90
        6
176
     1
 90
        2
176
     1
 62
     7
176
     1
 90
        3
176
     1
 90
        0
176
     1
 90
        0
176
     1
290
     0
176
     1
 90
        5
176
     1
 40
0.0
176
     1
 90
        0
176
     1
290
     0
176
     1
290
     1
176
     1
290
     1
176
     1
290
     0
176
     1
290
     0
176
     1
290
     0
176
     1
290
     0
176
     1
290
     0
176
     1
290
     0
176
     1
 90
       50
176
     1
 40
0.0
176
     1
 40
1.0
176
     1
 90
        0
176
     1
 62
    18
420
        0
176
     1
 90
       50
176
     1
 90
        3
176
     1
 62
     5
420
      255
176
     1
290
     0
176
     1
 90
       50
176
     1
 90
       50
176
     1
 90
       50
176
     1
290
     0
176
     1
 90
       50
176
     1
 62
   256
176
     0
 40
1.0
176
     0
 90
        2
176
     1
  1
strokes_ogs.tif
176
     1
290
     0
176
     1
 40
1.0
176
     1
 40
1.0
176
     1
1001
ACAD
1000
AcDbSavedByObjectVersion
1070
     0
  0
VISUALSTYLE
  5
17E
102
{ACAD_REACTORS
330
99
102
}
330
99
100
AcDbVisualStyle
  2
Shades of Gray
 70
    23
177
     3
291
     0
 70
    58
 90
        2
176
     1
 90
        2
176
     1
 90
        3
176
     1
 90
        0
176
     1
 40
0.6
176
     1
 40
30.0
176
     1
 62
     7
420
 16777215
176
     1
 90
        2
176
     1
 90
        2
176
     1
 62
     7
176
     1
 62
     7
176
     1
 90
        1
176
     1
 90
        1
176
     1
 40
40.0
176
     1
 90
        8
176
     1
 62
     7
176
     1
 40
1.0
176
     1
 90
        1
176
     1
 90
        6
176
     1
 90
        2
176
     1
 62
     7
176
     1
 90
        3
176
     1
 90
        0
176
     1
 90
        0
176
     1
290
     0
176
     1
 90
        1
176
     1
 40
0.0
176
     1
 90
        0
176
     1
290
     0
176
     1
290
     1
176
     1
290
     1
176
     1
290
     0
176
     1
290
     0
176
     1
290
     0
176
     1
290
     0
176
     1
290
     0
176
     1
290
     0
176
     1
 90
       50
176
     1
 40
0.0
176
     1
 40
1.0
176
     1
 90
        0
176
     1
 62
    18
420
        0
176
     1
 90
       50
176
     1
 90
        3
176
     1
 62
     5
420
      255
176
     1
290
     0
176
     1
 90
       50
176
     1
 90
       50
176
     1
 90
       50
176
     1
290
     0
176
     1
 90
       50
176
     1
 62
   256
176
     0
 40
1.0
176
     0
 90
        2
176
     1
  1
strokes_ogs.tif
176
     1
290
     0
176
     1
 40
1.0
176
     1
 40
1.0
176
     1
1001
ACAD
1000
AcDbSavedByObjectVersion
1070
     0
  0
VISUALSTYLE
  5
17F
102
{ACAD_REACTORS
330
99
102
}
330
99
100
AcDbVisualStyle
  2
Sketchy
 70
    24
177
     3
291
     0
 70
    58
 90
        1
176
     1
 90
        2
176
     1
 90
        2
176
     1
 90
        0
176
     1
 40
0.6
176
     1
 40
30.0
176
     1
 62
     7
420
 16777215
176
     1
 90
        2
176
     1
 90
        2
176
     1
 62
     7
176
     1
 62
     7
176
     1
 90
        1
176
     1
 90
        1
176
     1
 40
40.0
176
     1
 90
       11
176
     1
 62
     7
176
     1
 40
1.0
176
     1
 90
        1
176
     1
 90
        6
176
     1
 90
        2
176
     1
 62
     7
176
     1
 90
        6
176
     1
 90
        0
176
     1
 90
        0
176
     1
290
     0
176
     1
 90
        1
176
     1
 40
0.0
176
     1
 90
        0
176
     1
290
     0
176
     1
290
     1
176
     1
290
     1
176
     1
290
     0
176
     1
290
     0
176
     1
290
     0
176
     1
290
     0
176
     1
290
     0
176
     1
290
     0
176
     1
 90
       50
176
     1
 40
0.0
176
     1
 40
1.0
176
     1
 90
        0
176
     1
 62
    18
420
        0
176
     1
 90
       50
176
     1
 90
        3
176
     1
 62
     5
420
      255
176
     1
290
     0
176
     1
 90
       50
176
     1
 90
       50
176
     1
 90
       50
176
     1
290
     0
176
     1
 90
       50
176
     1
 62
   256
176
     0
 40
1.0
176
     0
 90
        2
176
     1
  1
strokes_ogs.tif
176
     1
290
     0
176
     1
 40
1.0
176
     1
 40
1.0
176
     1
1001
ACAD
1000
AcDbSavedByObjectVersion
1070
     0
  0
VISUALSTYLE
  5
A6
102
{ACAD_REACTORS
330
99
102
}
330
99
100
AcDbVisualStyle
  2
Thicken
 70
    13
177
     3
291
     1
 70
    58
 90
        2
176
     1
 90
        2
176
     1
 90
        1
176
     1
 90
        0
176
     1
 40
0.6
176
     1
 40
30.0
176
     1
 62
     7
420
 16777215
176
     1
 90
        1
176
     1
 90
        4
176
     1
 62
     7
176
     1
 62
   257
176
     1
 90
        1
176
     1
 90
        1
176
     1
 40
1.0
176
     1
 90
       12
176
     1
 62
     7
176
     1
 40
1.0
176
     1
 90
        1
176
     1
 90
        6
176
     1
 90
        2
176
     1
 62
     7
176
     1
 90
        5
176
     1
 90
        0
176
     1
 90
        0
176
     1
290
     0
176
     1
 90
        1
176
     1
 40
0.0
176
     1
 90
        0
176
     1
290
     0
176
     1
290
     1
176
     1
290
     1
176
     1
290
     0
176
     1
290
     0
176
     1
290
     0
176
     1
290
     0
176
     1
290
     0
176
     1
290
     0
176
     1
 90
       50
176
     1
 40
0.0
176
     1
 40
1.0
176
     1
 90
        0
176
     1
 62
    18
420
        0
176
     1
 90
       50
176
     1
 90
        3
176
     1
 62
     5
420
      255
176
     1
290
     0
176
     1
 90
       50
176
     1
 90
       50
176
     1
 90
       50
176
     1
290
     0
176
     1
 90
       50
176
     1
 62
   256
176
     0
 40
1.0
176
     0
 90
        2
176
     1
  1
strokes_ogs.tif
176
     1
290
     0
176
     1
 40
1.0
176
     1
 40
1.0
176
     1
1001
ACAD
1000
AcDbSavedByObjectVersion
1070
     0
  0
VISUALSTYLE
  5
A0
102
{ACAD_REACTORS
330
99
102
}
330
99
100
AcDbVisualStyle
  2
Wireframe
 70
     5
177
     3
291
     0
 70
    58
 90
        0
176
     1
 90
        2
176
     1
 90
        0
176
     1
 90
        0
176
     1
 40
0.6
176
     1
 40
30.0
176
     1
 62
     7
420
 16777215
176
     1
 90
        1
176
     1
 90
        4
176
     1
 62
     7
176
     1
 62
   257
176
     1
 90
        1
176
     1
 90
        1
176
     1
 40
1.0
176
     1
 90
        0
176
     1
 62
   257
176
     1
 40
1.0
176
     1
 90
        1
176
     1
 90
        6
176
     1
 90
        2
176
     1
 62
     7
176
     1
 90
        3
176
     1
 90
        0
176
     1
 90
        0
176
     1
290
     0
176
     1
 90
        1
176
     1
 40
0.0
176
     1
 90
        0
176
     1
290
     0
176
     1
290
     1
176
     1
290
     1
176
     1
290
     0
176
     1
290
     0
176
     1
290
     0
176
     1
290
     0
176
     1
290
     0
176
     1
290
     0
176
     1
 90
       50
176
     1
 40
0.0
176
     1
 40
1.0
176
     1
 90
        0
176
     1
 62
    18
420
        0
176
     1
 90
       50
176
     1
 90
        3
176
     1
 62
     5
420
      255
176
     1
290
     0
176
     1
 90
       50
176
     1
 90
       50
176
     1
 90
       50
176
     1
290
     0
176
     1
 90
       50
176
     1
 62
   256
176
     0
 40
1.0
176
     0
 90
        2
176
     1
  1
strokes_ogs.tif
176
     1
290
     0
176
     1
 40
1.0
176
     1
 40
1.0
176
     1
1001
ACAD
1000
AcDbSavedByObjectVersion
1070
     0
  0
VISUALSTYLE
  5
180
102
{ACAD_REACTORS
330
99
102
}
330
99
100
AcDbVisualStyle
  2
X-Ray
 70
    25
177
     3
291
     0
 70
    58
 90
        2
176
     1
 90
        2
176
     1
 90
        1
176
     1
 90
        1
176
     1
 40
0.5
176
     1
 40
30.0
176
     1
 62
     7
420
 16777215
176
     1
 90
        1
176
     1
 90
        0
176
     1
 62
     7
176
     1
 62
   257
176
     1
 90
        1
176
     1
 90
        1
176
     1
 40
1.0
176
     1
 90
        8
176
     1
 62
     7
176
     1
 40
1.0
176
     1
 90
        1
176
     1
 90
        6
176
     1
 90
        2
176
     1
 62
     7
176
     1
 90
        3
176
     1
 90
        0
176
     1
 90
        0
176
     1
290
     0
176
     1
 90
       13
176
     1
 40
0.0
176
     1
 90
        0
176
     1
290
     0
176
     1
290
     1
176
     1
290
     1
176
     1
290
     0
176
     1
290
     0
176
     1
290
     0
176
     1
290
     0
176
     1
290
     0
176
     1
290
     0
176
     1
 90
       50
176
     1
 40
0.0
176
     1
 40
1.0
176
     1
 90
        0
176
     1
 62
    18
420
        0
176
     1
 90
       50
176
     1
 90
        3
176
     1
 62
     5
420
      255
176
     1
290
     0
176
     1
 90
       50
176
     1
 90
       50
176
     1
 90
       50
176
     1
290
     0
176
     1
 90
       50
176
     1
 62
   256
176
     0
 40
1.0
176
     0
 90
        2
176
     1
  1
strokes_ogs.tif
176
     1
290
     0
176
     1
 40
1.0
176
     1
 40
1.0
176
     1
1001
ACAD
1000
AcDbSavedByObjectVersion
1070
     0
  0
DICTIONARYVAR
  5
F0
102
{ACAD_REACTORS
330
66
102
}
330
66
100
DictionaryVariables
280
     0
  1
1:1
  0
DICTIONARYVAR
  5
EF
102
{ACAD_REACTORS
330
66
102
}
330
66
100
DictionaryVariables
280
     0
  1
STANDARD
  0
DICTIONARYVAR
  5
89
102
{ACAD_REACTORS
330
66
102
}
330
66
100
DictionaryVariables
280
     0
  1
STANDARD
  0
DICTIONARYVAR
  5
1B7
102
{ACAD_REACTORS
330
66
102
}
330
66
100
DictionaryVariables
280
     0
  1
Imperial24
  0
DICTIONARYVAR
  5
1B8
102
{ACAD_REACTORS
330
66
102
}
330
66
100
DictionaryVariables
280
     0
  1
Imperial24
  0
DICTIONARYVAR
  5
67
102
{ACAD_REACTORS
330
66
102
}
330
66
100
DictionaryVariables
280
     0
  1
2
  0
DICTIONARYVAR
  5
6B
102
{ACAD_REACTORS
330
66
102
}
330
66
100
DictionaryVariables
280
     0
  1
1
  0
DICTIONARYVAR
  5
14D
102
{ACAD_REACTORS
330
66
102
}
330
66
100
DictionaryVariables
280
     0
  1
0
  0
DICTIONARYVAR
  5
14E
102
{ACAD_REACTORS
330
66
102
}
330
66
100
DictionaryVariables
280
     0
  1
0
  0
DICTIONARY
  5
2FD
102
{ACAD_REACTORS
330
2FB
102
}
330
2FB
100
AcDbDictionary
281
     1
  0
DICTIONARY
  5
2FC
102
{ACAD_REACTORS
330
2FB
102
}
330
2FB
100
AcDbDictionary
281
     1
  3
2672911924320
350
2F6
  3
2672911924336
350
2F7
  3
2672911924352
350
2F8
  3
2672911924368
350
2F9
  3
2672911924384
350
2FA
  0
XRECORD
  5
2E9
102
{ACAD_REACTORS
330
21B
102
}
330
21B
100
AcDbXrecord
280
     1
1000
ADE02C001
1070
     1
1070
     0
1002
{
1002
}
1002
{
1002
}
1002
{
1002
}
1000

  0
XRECORD
  5
2B6
102
{ACAD_REACTORS
330
2B5
102
}
330
2B5
100
AcDbXrecord
280
     1
  0
DMSTYLIZEDENTITIESTABLE
  5
215
102
{ACAD_REACTORS
330
204
102
}
330
204
100
AcMapDMStylizedEntitiesTable
 70
     1
  0
MAPRESOURCEMANAGEROBJECT
  5
209
102
{ACAD_REACTORS
330
204
102
}
330
204
100
AcMapResourceManager
 70
     1
 90
        0
  0
DATATABLE
  5
208
102
{ACAD_REACTORS
330
204
102
}
330
204
100
AcDbDataTable
 70
     2
 90
        4
 91
       15
  1

 92
        3
  2
OriginalClassName
  3
AcMapDMDefaultStyle
  3
AcMapDMEntityStyle
  3
AcMapDMRasterStyle
  3
AcMapDMSEAnnotationStyle
  3
AcMapDMSEHatchStyle
  3
AcMapDMSETextStyle
  3
AcMapDMThematicStyle
  3
AcMapDMBaseElement
  3
AcMapDMAttachedDwgsQueryElement
  3
AcMapDMFeatureElement
  3
AcMapDMLayerElement
  3
AcMapDMCurrentDwgQueryElement
  3
AcMapDMRasterElement
  3
AcMapDMTopoElement
  3
AcMapDMTopoQueryElement
 92
        3
  2
ProxyDisplayName
  3
Default
  3
Entity
  3
Raster
  3
Annotation
  3
Hatch
  3
Text
  3
Thematic
  3
Map Base
  3
Ade Query
  3
Feature Class
  3
Layer
  3
Ade Project Query
  3
Raster
  3
Topology
  3
Topology Query
 92
        1
  2
CustomObjectType
 93
        2
 93
        2
 93
        2
 93
        2
 93
        2
 93
        2
 93
        2
 93
        1
 93
        1
 93
        1
 93
        1
 93
        1
 93
        1
 93
        1
 93
        1
 92
        1
  2
StyleCoExistanceType
 93
        1
 93
        1
 93
        1
 93
        1
 93
        1
 93
        1
 93
        2
 93
        0
 93
        0
 93
        0
 93
        0
 93
        0
 93
        0
 93
        0
 93
        0
  0
DMMAPMANAGER
  5
205
102
{ACAD_REACTORS
330
204
102
}
330
204
100
AcDbDictionary
281
     1
  3
DisplayMap1
350
20B
100
AcDbDictionaryWithDefault
340
20B
100
AcMapDMMapManager
 70
     1
340
20B
  0
DMSTYLELIBRARY
  5
206
102
{ACAD_REACTORS
330
204
102
}
330
204
100
AcMapDMStyleLibrary
 70
     1
 70
     1
360
207
  0
DICTIONARY
  5
216
102
{ACAD_REACTORS
330
204
102
}
330
204
100
AcDbDictionary
281
     1
  0
DICTIONARY
  5
300
330
1AC
100
AcDbDictionary
280
     1
281
     1
  3
ACAD_XREC_ROUNDTRIP
360
301
  0
DICTIONARY
  5
304
330
239
100
AcDbDictionary
280
     1
281
     1
  3
ACAD_XREC_ROUNDTRIP
360
305
  0
DICTIONARY
  5
194
330
22
100
AcDbDictionary
280
     1
281
     1
  0
DICTIONARY
  5
188
330
97
100
AcDbDictionary
280
     1
281
     1
  3
FBXASSET
360
189
  0
DICTIONARY
  5
186
330
96
100
AcDbDictionary
280
     1
281
     1
  3
FBXASSET
360
187
  0
DICTIONARY
  5
110
330
98
100
AcDbDictionary
280
     1
281
     1
  3
BUMPTILE
360
112
  3
DIFFUSETILE
360
111
  3
FBXASSET
360
18A
  3
OPACITYTILE
360
113
  3
REFLECTIONTILE
360
114
  0
DICTIONARY
  5
2FE
330
1AA
100
AcDbDictionary
280
     1
281
     1
  3
ACAD_XREC_ROUNDTRIP
360
2FF
  0
DICTIONARY
  5
302
330
238
100
AcDbDictionary
280
     1
281
     1
  3
ACAD_XREC_ROUNDTRIP
360
303
  0
DICTIONARY
  5
2F2
330
20D
100
AcDbDictionary
280
     1
281
     1
  3
ACAD_ROUNDTRIP_2008_TABLESTYLE_CELLSTYLEMAP
360
2F3
  0
DICTIONARY
  5
104
330
87
100
AcDbDictionary
280
     1
281
     1
  3
ACAD_ROUNDTRIP_2008_TABLESTYLE_CELLSTYLEMAP
360
2F1
  0
XRECORD
  5
2F6
102
{ACAD_REACTORS
330
2FC
102
}
330
2FC
100
AcDbXrecord
280
     1
  1
AcDb_Thumbnail_Schema
102
{ATTRRECORD
341
2F7
  2
AcDbDs::TreatedAsObjectData
280
     1
291
     1
102
ATTRRECORD}
102
{ATTRRECORD
341
2F8
  2
AcDbDs::Legacy
280
     1
291
     1
102
ATTRRECORD}
  2
AcDbDs::ID
280
    10
 91
        8
102
{ATTRRECORD
341
2F9
  2
AcDs:Indexable
280
     1
291
     1
102
ATTRRECORD}
102
{ATTRRECORD
341
2FA
  2
AcDbDs::HandleAttribute
280
     7
282
     1
102
ATTRRECORD}
  2
Thumbnail_Data
280
    15
 91
        0
  0
XRECORD
  5
2F7
102
{ACAD_REACTORS
330
2FC
102
}
330
2FC
100
AcDbXrecord
280
     1
  1
AcDbDs::TreatedAsObjectDataSchema
  2
AcDbDs::TreatedAsObjectData
280
     1
 91
        0
  0
XRECORD
  5
2F8
102
{ACAD_REACTORS
330
2FC
102
}
330
2FC
100
AcDbXrecord
280
     1
  1
AcDbDs::LegacySchema
  2
AcDbDs::Legacy
280
     1
 91
        0
  0
XRECORD
  5
2F9
102
{ACAD_REACTORS
330
2FC
102
}
330
2FC
100
AcDbXrecord
280
     1
  1
AcDbDs::IndexedPropertySchema
  2
AcDs:Indexable
280
     1
 91
        0
  0
XRECORD
  5
2FA
102
{ACAD_REACTORS
330
2FC
102
}
330
2FC
100
AcDbXrecord
280
     1
  1
AcDbDs::HandleAttributeSchema
  2
AcDbDs::HandleAttribute
280
     7
 91
        1
284
     1
  0
DMMAP
  5
20B
102
{ACAD_REACTORS
330
205
330
20E
102
}
330
205
100
AcMapDMMap
 70
     1
  1
Vorgabe
 70
     1
330
0
100
AcMapDMMap
 70
     1
 90
        1
360
20E
 90
        1
 40
1.797693134862314E+99
 70
     1
100
AcMapDMMap
 70
     6
 70
     0
 40
1.797693134862314E+99
290
     1
290
     1
 40
1.0
 40
3.0
  1
Legend
 90
        1
 40
1.797693134862314E+99
  1

 70
     0
 40
1.0
 70
     1
 90
        0
 90
        1
360
20F
 40
16.91029903901155
290
     0
290
     1
 40
1.0
 90
       40
290
     0
290
     1
 40
70570.90295831284
 40
341824.7463825657
 40
70789.2886787477
 40
341947.5221995469
  1

290
     1
 40
123.5167496935449
 40
51.4866775483815
  0
DMSTYLECATEGORY
  5
207
102
{ACAD_REACTORS
330
206
102
}
330
206
100
AcMapDMStyleCategory
 70
     1
  1
Anzeigestile
 70
     0
  0
XRECORD
  5
301
102
{ACAD_REACTORS
330
300
102
}
330
300
100
AcDbXrecord
280
     1
102
DISPLAYNAME
  1
Imperial24
102
FLAGS
 90
        0
  0
XRECORD
  5
305
102
{ACAD_REACTORS
330
304
102
}
330
304
100
AcDbXrecord
280
     1
102
DISPLAYNAME
  1
Metric50
102
FLAGS
 90
        0
  0
XRECORD
  5
189
102
{ACAD_REACTORS
330
188
102
}
330
188
100
AcDbXrecord
280
     1
 70
     1
 90
429727718
  1
508B35C9-AEE7-456F-BE74-D52651303AC6
310
504B03040A0000080000B670623B3DEE336E79000000790000001B0000006175746F6465736B2D64657369676E2D7061636B6167652E786D6C3C3F786D6C2076657273696F6E3D22312E302220656E636F64696E673D227574662D3822203F3E3C666F726D6174733E3C666F726D61743E687474703A2F2F736368656D612E
310
6175746F6465736B2E636F6D2F64657369676E2D7061636B6167652F323030393C2F666F726D61743E3C2F666F726D6174733E504B0304140006080800B670623BD486FD9CA0000000F4000000130000005B436F6E74656E745F54797065735D2E786D6C7D8EC10E82300C865F65E91D8A1E8C310C0EEA1BF002731658846E
310
D98AC1B77784ABF1D8FE5FBFBF75BBCE937A534CCEB38643598122B6FEE978D0B0485F9C41B54DDD7D022595594E1A469170414C76A4D9A4D207E29CF43ECE46F218070CC6BECC4078ACAA135ACF422C856C0E68EA1BF5669944DDD7BCDE7B1F8E415D77AECB980613C2E4AC91FC167A2B244592486606FC29C8FD7F045B9A
310
EF7053A7E60B504B0304140006080800B670623B28ED286BEB0000007C01000008000000636F72652E786D6C8D90416EC3201045AF82665B6183218D6D61A254764FD00B204C5C94182C03558F5F9C3852BBEB6A467FFE9B197D71FA9E6FE8CBACC17AD7012D0820E3B41FAD9B3A48F1826B40272956EFE32F1B20A766D3C1
310
268314D3EAD3B24BDABB685CCCAAF3A3D94515828980F42D371D04FD696655A814B3235C8B45E9AB9A4C419F5D8653B2237A1CB163DE672FD6AC209BF3C08E0D1B30EB19C3FC9D72FCC6EB231EFA33EDE96BDD341517E5064B11EDFCBCAF57A3A2194156843498524CAA0FCA5B7268F9E185D42D21A2DCEC7FA0B48CFF8492
310
759155FBBB0F2C80A4F991FB408A72CB22977B50B96EB9C91F504B0304140006080800B670623B55019EA25F0000007C00000007000000636E782E786D6C4DCB3B0E80201045D1AD90E915ED2CF8AC45050C11660C8261F98AB1B07AC9C97D42D718D865D3E909258CFD00CCE24AC6E326A164D74DC0B4128928FF32603847
310
2BA13128B1252AC747C6BAB984FC68F0B87FE8960A5C09FE86CFB69FBA01504B0304140006080800B670623B7BC41AC871010000D40300000C0000006662782F636F72652E786D6CC553ED6E8320147D15C2DF4501B56B6D90A64BBB27D80B50A5CE54C120983EFEAE1F4DD7A56BBA5FF3879273EEE59E7310BE393735EA95
310
ED2AA333CC428A91D2B9292A5D66D8BB63B0C26823B835C67D2BC348CB46657880B1E0A535BE9DA1DC68A7B403549B42CDA0EC3AE530CA6B5864B8CB3F552343E91D5474A7B095F949962A6421D0502778E72C0840D390E18DC5F170E664C205F7BE2A66B62A605A75AC94C522DDEEE3651AEF837817C741F2CE92E02D592D
310
83FD6ECB76EC7595A651C2C9D02CB8AB9A8BBADC2AE954814544691A3016D0E883256BBA58278B17BA5A53CAC9507ED3E4DBE2C9265F691747B3DCA9ADC382819091F8E1162272A8933DE82182932144F88C09DF060D8140C84E1EEA8B8F1340BDCA9DB1093085F157AA97B557309586747CD0EF0B4EA64E983A6E0EAEEFCE
310
889E9EF17847386AA94B30211D2C0FDE0D3AF9A4610EAD5536E8DD1969631B593F67E381C33F5157F17725E5A636F6BF1491F980C8FC7B90E13E8A2F504B0304140006080800B670623B70102A487D0000009D0000000B0000006662782F636E782E786D6C4DCCD10A83201886E15B91FFDC95A5C30335ACCDFB886521330D
310
A76397BF1A1DECE883878F57749FD5A3B74D2F17830472A901D9F088930B8B849267CC01754AA418F3DF0D5018572BE160506249B16C274D761E8BCFBB7A179E27F65CB39A0F14D396184C9921B81F34C3ACA1B4B99ABB6E6F062A25AA5F69DF23ACBE504B0304140006080800B670623B3610CA3329010000120200003100
310
00006662782F42384135303843342D343331462D343546312D424341352D3532343432364645413344462F636F72652E786D6C8D515B6EC32010BC0AE22B55850D0E446E848992B43E412FE000495162B07854397EA176A4F62F3F2C9A9D991D58BEBB8F37F0AD7D30CE76905418026DA553C65E3A98E219B510EC04F7CEC5
310
3F3408EC30EA0E16180A7EF12E4D0B249D8DDAC68C5AA7F4020E21E80881BCE54B0783FCD2E3500D296646B856D320AFC34557A4CAEDCC133C449F0380794839A138B47B86DB2345744D7A44594FD0E1B867883594369BFE63BF7EEF793D0B054FC9A8456E548E63CE46FB674D8A58F068C6477CE9F510B582A2C1F80D1182
310
70F349E816B32D65AFB8DD62CCEB42FF274A937A52948C8DEB66893BCB021484D7734370E5D2E9F608A3EF93F3119479ABA0E50B14B8C298119A43CCC4FCFCECB8A18B6388CEE7EF5D5D4F994BD86CBBA182D76543B9FCAE2FD7B24DF103504B0304140006080800B670623B1B8617914E0100003303000030000000666278
310
2F42384135303843342D343331462D343546312D424341352D3532343432364645413344462F636E782E786D6CD593C16EC32010447F0571AD6CE3D489D20813A9877E410FBD62D82434182CC055F3F75D1292E692438FBD206B7698593D61BEFD1E2DF982108D773D6D6B460938E5B571FB9ECE6957AD29D90A1EBC4F7736
310
4A9C1CA1A759A682EF839FA72269D8C9D92654AD71C72206887E0E0A22CAF926B15E498B01E0AA19451807D01A34B919F16B070157417138917400F2F6FA41FCF0092A45DEE414C19BDC21783E4BD39D891265658C3D8DEA00A3ACE59CBC8678ACB54CB26EEB6BD7839D7E9348BE70AD9C8321B9BCA7F9A4A26C542347DEE0
310
50F09802D22BA6749A800A394DD62899107273365E3C82CFC6A55557BC06C10774B7ABE7AEC3B0F34CF06446280E154026D0542C187BA9DAB6628BF7B6DBB0E5A65B3EB1F58631DE64BBE083F7B65CC218087E22CABB042E51D1F2268F1FE12B3EA24D40D63E9CFE00120194D60B9D5BC67FE6D39CDF37E20AF817881F504B
310
0304140006080800B670623BBFEF2E3B690500003C100000340000006662782F42384135303843342D343331462D343546312D424341352D3532343432364645413344462F6F626A656374732E786D6CAD575D739B3814FD2B0CFB0C98D84E931D4227B6938EA793B6534F3BFB90198F0099B001899144EAECAFDF231018B0
310
D37A3FFC609090EEE7B94757C1FB7D915B2F54C88CB31BDB7727B64559CC938CA53776A576CE956DBD0F03C1B9EA2DB32D460A7A63EB693B0C52C1ABD24C257447AA5C8D66EF177F5832A68CDA569C13296F6C193FD182B8A4523CA1F2D94D88226EBADBBBBEDB2C1C8A4D05299F46424B222853B014F30C52ACC6287F389C
310
D85E1878FA7B18E87FB36AFAF62AAFF667A83F635211161F291B8999FAB3D5DDC5FCDA99CF6653677679E13B8BFBC5CAF1DF4D27CBCBE5F2FAF6EE1A8AA51290642C117467871F101B91C581D77CEA2C36869F3229E68CD1B8F61F1ED6361B89092D294B90C78C4A68EB793D190E7D1D9BDEE7A91E1B95FDE9F3BCEAEFE809
310
6A6D6F9F7D4B79F4275C90E7A04248AA51D5C4C738DAE06F72885AC4796EBE65D22A88A22223B995679120E2D50EB1542F098381188D4EA111AE3DB043FF20AF6F2B4AE3D7D83D65E5AECA730D4D3BAC91BD05FEA992B565D95F549CD6069B90AB2A63EACA38A45E4B6A87D781574F86817E4C2FCCC72690D62E2729520E37
310
9BAF234797BAF6D62B3BFC781FED37BA1E4F2B2F052FA9501A3E80569BB8F6A9A364D4FA67654E6F803383981F82F21591FF84F23D9882BC896C3FDBCF8C162508933B2E0AE4C69DD43F6BD2BE38DDDBF10BF86CB4FA784D37F3AF16075E67EC9030DECA1FC0A55373F5DFF3378C591FA9BDF485C10B0A8C8BA909E5262639
310
A8E72163488806A595734C81CB77D1DE0ED7604A303B76913CEC0272F412782FF88EFF4636D8AA56DF7B322474C4B767303F625997056C7B032C473C592B36CEBD15F3F9FF5233B7ABCDC74D257624A60F8658567497B14CE1EC3C80B76FD02011038F9EE9EB0F2E12387A9C844D3F09855125116D1D731DF8B43D2CF4E0A0
310
79A020C6BE946BCE0B7EA1E1219331CD73C228AF5A2DDD31A4B1DA918CE91350854D40A71723140BFA92E94E62B0626016CEFA5864A50E5977E8753CEDBEE1CBB7F52780D20E17AF0BA0F5F9B02A3AD07DCC732EB6D1EBB661421BE0C39E21BABF0FE16D22EA6929407C8DE596724C88B749B6DB5512BC7B228ADFD7CB7EA6
310
3A22397E690BA8D5D8D4E40CEC8CDA23C2C0B7D5898640101CEC9C6D331CE328CB93CAFBBAC70A642DF70DF95155945B52F08AA973C23469FD69ADEF84F7BB18F983A8F8C90E37F5D35980B2139A1C523540813E824EF83448CF7C72B598CE97D7CEEDDDDD3B6736BFBC771677EF66CE6A7E7139F7A793E9EDF2B2B3A8B624
310
0CDA13AA5F8388264EC4A0129909F3B7F5A16CEDF08128E97D680ACA4B9BE7B7B58BB638F0B00700EF36AE8B32A705658A68F83EE897FC2B41573190D1CCAF0B92D233A47CFEB019D9809933F67DD1A5467F8CF69AD9A5AE859342D45355448C64F968A371DC2D596ADC6E43D93D1B466F877A64E2893E54F23C4B40388995
310
525E5005DA3983ED45412510D3EFCA13737B3863F74BD30F2A12E5B4B5E489A025CE25500DB855B11ACE5BBFA185D35DD48D8DC3CE7DC69F2944DB42AA6F6CF09BCA622ADD08C7A36E7C6AE18000BAB08E040135C2D21C9D75B3A91B77BB746C403F38018DFE6EC939DD92F16B40BC05294B9CDA035AAD6D330AE27FE4786B
310
8E45145EA34A75BE1C263A676A35A8ACC6297337400BF16C54EF515F3F77CB77EB3583889C754FFA29081AA98E2222ADEF05DA3E63D2EDEA8B8756C05A7FB6CABC4A91CBF325398202CC952E70A008A830324BA200D5E5EF8F5F04C75DB4B0EE3340E071C98B823333B83577596BF3849B69F2085AA0FAFA212F26BEFF5877
310
FDE622B28D88A42E49E43326DA82D31E8CB006401E1DA726059ECEC168F97A6599036306A135688F9AD2E61A6EA178F4CD51974A9F2CCB9F36FE5EBD14601068D9C3BF01504B0304140006080000B670623B000000000000000000000000350000006662782F42384135303843342D343331462D343546312D424341352D35
310
32343432364645413344462F76657274696365732E62696E504B0304140006080800B670623BF270F1330600000004000000360000006662782F42384135303843342D343331462D343546312D424341352D3532343432364645413344462F747269616E676C65732E62696E636660600000504B0304140006080000B67062
310
3B000000000000000000000000370000006662782F42384135303843342D343331462D343546312D424341352D3532343432364645413344462F617474726962757465732E62696E504B0304140006080800B670623B08DA0BD19000000041010000360000006662782F42384135303843342D343331462D343546312D4243
310
41352D3532343432364645413344462F6469726563746F72792E786D6C858F410AC3201045AF22B36F53E9A60B35CBEEBAE80D244E44489C6234F4F835464A48035D0DF398FF9F8AF63D0E6CC63039F212F8F9020C7D47C6792B21C5FE7403D62A1188E2E60C98D7234A5830286103A55745067B9D86B8A3CF9C7F90C11DE6
310
07FB144396D7B6A82D282E9A152AD114D5EF2CB866EEE831B8EEA07A7BB5A8D7D61A2BAAEB7FD5F70921FF497D00504B0304140006080800B670623B3B4606F3FE000000A00100003B0000006662782F42384135303843342D343331462D343546312D424341352D3532343432364645413344462F7265736F75726365732F
310
636F72652E786D6C8D504B6E833010BD0A9A6D65B08134808CA354A427E8052C332156828DFCA97AFC9A40A576D7CDCCE87D344F8F9FBEE647F689CE6B6B7A6039850C8DB2A336530F315C4903D94970676DF82583CCC8197B5861107C72362E3BA4AC096842428D1D7107A5F71820538F74F4E0D50D6799CB1892C2DFF345
310
AABB9C306779A2934E701F5C0A906D4FD609C2A1B7D129F4BCD858C163D4E3AED163FAA9AF1A1D88F67CA98E6D35906AA82A52BFB39ABCD5CD915C86331BD86BD3B665CD8BD52C78D0F34F46E550061C419494B6843142CB0F5677F4D0D58717DA7494F26295FF31C565FCA7296A13AA728FBBD93C0896823C09C18BB5AFB4
310
9E65A6BD762BBE01504B010214000A0000080000B670623B3DEE336E79000000790000001B00000000000000000000000000000000006175746F6465736B2D64657369676E2D7061636B6167652E786D6C504B01021400140006080800B670623BD486FD9CA0000000F40000001300000000000000000000000000B2000000
310
5B436F6E74656E745F54797065735D2E786D6C504B01021400140006080800B670623B28ED286BEB0000007C010000080000000000000000000000000083010000636F72652E786D6C504B01021400140006080800B670623B55019EA25F0000007C000000070000000000000000000000000094020000636E782E786D6C50
310
4B01021400140006080800B670623B7BC41AC871010000D40300000C00000000000000000000000000180300006662782F636F72652E786D6C504B01021400140006080800B670623B70102A487D0000009D0000000B00000000000000000000000000B30400006662782F636E782E786D6C504B01021400140006080800B6
310
70623B3610CA3329010000120200003100000000000000000000000000590500006662782F42384135303843342D343331462D343546312D424341352D3532343432364645413344462F636F72652E786D6C504B01021400140006080800B670623B1B8617914E010000330300003000000000000000000000000000D10600
310
006662782F42384135303843342D343331462D343546312D424341352D3532343432364645413344462F636E782E786D6C504B01021400140006080800B670623BBFEF2E3B690500003C10000034000000000000000000000000006D0800006662782F42384135303843342D343331462D343546312D424341352D35323434
310
32364645413344462F6F626A656374732E786D6C504B01021400140006080000B670623B0000000000000000000000003500000000000000000000000000280E00006662782F42384135303843342D343331462D343546312D424341352D3532343432364645413344462F76657274696365732E62696E504B010214001400
310
06080800B670623BF270F133060000000400000036000000000000000000000000007B0E00006662782F42384135303843342D343331462D343546312D424341352D3532343432364645413344462F747269616E676C65732E62696E504B01021400140006080000B670623B00000000000000000000000037000000000000
310
00000000000000D50E00006662782F42384135303843342D343331462D343546312D424341352D3532343432364645413344462F617474726962757465732E62696E504B01021400140006080800B670623B08DA0BD1900000004101000036000000000000000000000000002A0F00006662782F42384135303843342D3433
310
31462D343546312D424341352D3532343432364645413344462F6469726563746F72792E786D6C504B01021400140006080800B670623B3B4606F3FE000000A00100003B000000000000000000000000000E1000006662782F42384135303843342D343331462D343546312D424341352D3532343432364645413344462F72
310
65736F75726365732F636F72652E786D6C504B0506000000000E000E0080040000651100000000
  0
XRECORD
  5
187
102
{ACAD_REACTORS
330
186
102
}
330
186
100
AcDbXrecord
280
     1
 70
     1
 90
429727718
  1
887D55A9-D0DD-414E-B741-A7DCD4DA2B4C
310
504B03040A0000080000B670623B3DEE336E79000000790000001B0000006175746F6465736B2D64657369676E2D7061636B6167652E786D6C3C3F786D6C2076657273696F6E3D22312E302220656E636F64696E673D227574662D3822203F3E3C666F726D6174733E3C666F726D61743E687474703A2F2F736368656D612E
310
6175746F6465736B2E636F6D2F64657369676E2D7061636B6167652F323030393C2F666F726D61743E3C2F666F726D6174733E504B0304140006080800B670623BD486FD9CA0000000F4000000130000005B436F6E74656E745F54797065735D2E786D6C7D8EC10E82300C865F65E91D8A1E8C310C0EEA1BF002731658846E
310
D98AC1B77784ABF1D8FE5FBFBF75BBCE937A534CCEB38643598122B6FEE978D0B0485F9C41B54DDD7D022595594E1A469170414C76A4D9A4D207E29CF43ECE46F218070CC6BECC4078ACAA135ACF422C856C0E68EA1BF5669944DDD7BCDE7B1F8E415D77AECB980613C2E4AC91FC167A2B244592486606FC29C8FD7F045B9A
310
EF7053A7E60B504B0304140006080800B670623BBC1638F5EC0000007C01000008000000636F72652E786D6C8D90416EC3201045AF82665B61836BE2D8C24471DB9CA01740401C94182C03558F5F9C3852BBEB6A467FFE9B197D7EF89E6EE8CB2CC17AD7032D0820E394D7D68D3DA478C67B4007C117EFE32F1B202727D3C3
310
2A83E0E3E2D3BC49CABB685CCCAAF3DA6CA20CC14440EA969B1E82BA98491632C5EC08D76296EA2A4753D06797E194AC468F2356E77DF66CCD02825543D50CACC62D39ED70FDC68EB8FD68F6F8787A6784342D1DDA1D2F5758F068A7E77DB518198D065111D2624A31A93E69DD11D6D5EC85EC3B4278B9DAFF4069D6FF8492
310
75F1B5DADE7D600104CD8FDC0782976B16B9DC83CA75CD4DFC00504B0304140006080800B670623B55019EA25F0000007C00000007000000636E782E786D6C4DCB3B0E80201045D1AD90E915ED2CF8AC45050C11660C8261F98AB1B07AC9C97D42D718D865D3E909258CFD00CCE24AC6E326A164D74DC0B4128928FF326038
310
472BA13128B1252AC747C6BAB984FC68F0B87FE8960A5C09FE86CFB69FBA01504B0304140006080800B670623B3586FFB671010000D40300000C0000006662782F636F72652E786D6CC553ED6E8320147D15C2DF4541A76D6D90A6DDD627D80B50A4CE54C120983EFEAE1F4DD7A55BBA5FF3879273EEE59E7310B6393735EA
310
95ED2AA3731C851423A5A5292A5DE6D8BB63B0C268C39935C67D29C3488B46E578803167A535BE9D2169B453DA01AA4DA16650749D7218C91A1639EEE4876A4428BC838AEE14B6429E44A9C228041AEA38EB9C0501681A32BC313F1ECE8C4C3867DE57C5CC56054CAB8E95B298A7F12E5EEED224C8E87E11242FE936C8DE96
310
AB60BB7F4D295D66D12E5B30323473E6AAE6A24E5A259C2A308F29CD82280A68FC1E256B9AAE93F489AED694323294DF34F9B678B0C957DA3DC7B3DCA9ADC33C022123F1CD2D44E450277AD04338234388F01913BE0D1A0281909D38D4171F27807A259DB1093085F157AA17B557309586747CD0CF0B46A64E983A6E0EAEEF
310
CE881F9EF1FB8E70D44297604238581EBC1B74B249C31C5AAB6CD0BB33D2C636A27ECCC62F0EFF445DC5DF95244D6DEC7F2922F30191F9F720C37DE49F504B0304140006080800B670623B4220A0FF7D0000009D0000000B0000006662782F636E782E786D6C4DCCD10A83201886E15B91FFDCE542CB0335D0EC3E6259C84A
310
C3E9D8E5AF46073BFAE0E1E315DD675BD1DBA5978F41C2FD4600B9F088930F8B849267CC01754AA418F3DF0D50183727E164506249B1EC174D6E1ECB9A0F5D7D785E68DB8151CD286E5A5363CA6B8A39E90D36D40E96B086F55A43A544F52B1D7B86D517504B0304140006080800B670623B2FA3FEDE290100001202000031
310
0000006662782F45374635344235342D363743322D343832342D383044432D4334454645303536354442422F636F72652E786D6C8D515B6EC32010BC0AE22B55850D2E386E848994D7097A0117488A1283C5A3CAF10BB523B57FF961D1ECCCECC0F2ED7DBC816FED8371B687A4C210682B9D32F6D2C314CFA883602BB8772E
310
FEA141608751F7B0C050F08B77695A20E96CD43666D43AA5177008414708E42D5F7A18E4971E876A483133C2B59A06791D2EBA22556E679EE021FA1C00CC43CA09C5717D6274C7286AD7FB06D1AEA1A8C3873DDAD3E3E98859CB0EBB1DAF67A1E02919B5C88DCA71CCD968FFAC49110B1ECDF8882FBD1EA256503418BF2342
310
106E3E08DD60B6A1EC15771B8C795DE8FF4469524F8A92B1F1AD59E2CEB20005E1F5DC105CB9F4797B84D1F7C9F908CABC55D0F2050A5C61CC1AD2F27A26E6E767C7962E8E213A9FBF7775FDCC5CC266DB960A5E970DE5F2BBBE5CCB36C50F504B0304140006080800B670623B1B8617914E01000033030000300000006662
310
782F45374635344235342D363743322D343832342D383044432D4334454645303536354442422F636E782E786D6CD593C16EC32010447F0571AD6CE3D489D20813A9877E410FBD62D82434182CC055F3F75D1292E692438FBD206B7698593D61BEFD1E2DF982108D773D6D6B460938E5B571FB9ECE6957AD29D90A1EBC4F77
310
364A9C1CA1A759A682EF839FA72269D8C9D92654AD71C72206887E0E0A22CAF926B15E498B01E0AA19451807D01A34B919F16B070157417138917400F2F6FA41FCF0092A45DEE414C19BDC21783E4BD39D891265658C3D8DEA00A3ACE59CBC8678ACB54CB26EEB6BD7839D7E9348BE70AD9C8321B9BCA7F9A4A26C542347DE
310
E050F09802D22BA6749A800A394DD62899107273365E3C82CFC6A55557BC06C10774B7ABE7AEC3B0F34CF06446280E154026D0542C187BA9DAB6628BF7B6DBB0E5A65B3EB1F58631DE64BBE083F7B65CC218087E22CABB042E51D1F2268F1FE12B3EA24D40D63E9CFE00120194D60B9D5BC67FE6D39CDF37E20AF817881F50
310
4B0304140006080800B670623B29652116630500003C100000340000006662782F45374635344235342D363743322D343832342D383044432D4334454645303536354442422F6F626A656374732E786D6CAD575D739B3814FD2B0CFB0C989834C90EA1639B24E3E9A6EDD4D3CE3E64C623834CD8006224913AFDF57B040203
310
B65BEF871F0C12D2FD3CF7E8CA7FBFCB33E3957291B2E2D674ED8969D02262715A24B76625B7D6B569BC0F7CCE98EC2D338D82E4F4D654D366E0279C55A59E8AE99654991CCDDECFFF3444440B6A1A514684B83545F44C7362934AB2988A173B2692D8C97667BB76B3702836E1A47C1E092D09A78584A5982F20C5688C7287
310
C389E904BEA3BE07BEFAD7ABA6A75739B53F43FD69212429A20365233153D70BEF2E2E6FAC4BCF9B5ADEBB0BD79ADFCF43CBBD9A4E16EF168B9BD9DD0D140BC921495BC2E9D60C1E101B9E46BED37CEA2CD6861F3329624541A3DA7F7858DBAC25C6B4A4458C3CA654405BCFEBC970E8AAD8F43E4FD558ABEC4F9FE7557F47
310
4F506B7BFBEC5BCA367FC105710E2AB8A00A554D7CB4A30DFE26FBA86D18CBF4B75418399194A72433B274C3097F33032C554B027F2046A1932B842B0FCCC0DDCBEBDB8AD2F835768F59B9ADB24C41D30C6A64AF817F2A456D59FA83F2E3DA60137255A585BCD60EC9B7929AC18DEFD49381AF1ED30BFDB109A4B1CD488294
310
C3CDE6EBC8D185AABD6568061FEE37BB95AAC7E3CA4BCE4ACAA5820FA0D526AE7DAA2869B5EE5999531BE0CC20E6FBA07C41E43FA27CF7A6206F3CDD793B4F6B919C1462CB788EDCD893FA674CDA17AB7B3B7C019F8D561FAEE966FED562DFE98C1D12C6A9FC015C2A35D7FF3D7FC398F591DA4B5FE0BFA2C0189FEA50AE22
310
92817A1ED3020951A03432862970F976B33383259812CC8E5D240BBA801CBCF8CE2BBEE3BF910DB6AAD5F79E05123AE2DB33981FB1ACCB02B69D00CB014FD68AB573A7627EF9BFD4CC2C5C7D58557C4B22FAA88925A4DBB44825CECE3D78FB060D1231F0E885BE7D673C86A3874958F593906B5502D1563157814FDAC3420D
310
F69A070A22EC4B98E23CFF171A1E5311D12C23056555ABA53B8614563B92D17D02AAB009E8F46284624E5F53D5490C560CCCC2591FF1B45421EB0EBD8EA7ED13BE7C5D7E0428CD60FEF60779EB13E6664FF711CB185F6FDED60D139A001FF60CD1FD6D086F1D51474901E26B2CB794A343BC8ED3EDB612E0DD2351FCB65CF4
310
33D511C9E14B5B40ADC6A6263DB0336A8F700DDF56271A024E70B0B3629DE21847591E55DED73D56206AB927E46FAABC5C939C55853C274C93D69FD6FA4E78BF8B11DF898C9ECD60553FAD39283BA6F18984AA23E8884F83F45C5F5F859797B31B2B9C84A1E5B9DE9D35BFF25C6B76152E422F9C5DCC3D847F5801ED09D5AF
310
41441327A25FF15487F9EB725FB666F048A4701E9A827292E6F97569A32DF61DEC01C0BB8DCBBCCC684E0B49147C1FD54BF685A0AB18C868E6973949E819523E3DAC463660E68C7D9F55A9D1EFA3BD7A76A16AE1A810F95CE59B82A4D968A376DC2E8B44BBDD86B27B368CDE0ED548C7137DA860591A83706223A12CA712B4
310
7306DBF39C0A20A6DF95C7FAF670C6EED7A61F946493D1D6926782963813403548A78AE470DEF80D2D9CEAA26E4D1C76F60BFE74219A06527D6B82DF641A51616F703CAAC6A7160E08A00BEB4810A0274592A1B36E3675E36E978A0DE80727A0D6DF2D39A75BD27E0D8837276589537B40ABB56D5A41F48F1C6FCD3188C4EB
310
A6929D2FFB89CE995A4D00AE813BDD032DC48B56BD437DFDDC2DD7AED70C2272D63DE9A72068A45A92F0A4BE17A8A06B9366E16707AD80B1FC649459952097E74BB23805982B55E0401150A165964402AA8BDF9F3E7386BB686EDCA780C0D382E5392BF460A6EFB2C6EA1937D3F809B440D5F5435C4C5CF7A9EEFAF54564BD
310
2182DA24162F98680B4E7930C21A0079709CEAEB99A372305ABE0C0D7D6078105A83F6A0296DAEE1068A47DD1C55A9F4C9B2FC69E3EFD44B81028E963DF81B504B0304140006080000B670623B000000000000000000000000350000006662782F45374635344235342D363743322D343832342D383044432D433445464530
310
3536354442422F76657274696365732E62696E504B0304140006080800B670623BF270F1330600000004000000360000006662782F45374635344235342D363743322D343832342D383044432D4334454645303536354442422F747269616E676C65732E62696E636660600000504B0304140006080000B670623B00000000
310
0000000000000000370000006662782F45374635344235342D363743322D343832342D383044432D4334454645303536354442422F617474726962757465732E62696E504B0304140006080800B670623B08DA0BD19000000041010000360000006662782F45374635344235342D363743322D343832342D383044432D4334
310
454645303536354442422F6469726563746F72792E786D6C858F410AC3201045AF22B36F53E9A60B35CBEEBAE80D244E44489C6234F4F835464A48035D0DF398FF9F8AF63D0E6CC63039F212F8F9020C7D47C6792B21C5FE7403D62A1188E2E60C98D7234A5830286103A55745067B9D86B8A3CF9C7F90C11DE607FB144396
310
D7B6A82D282E9A152AD114D5EF2CB866EEE831B8EEA07A7BB5A8D7D61A2BAAEB7FD5F70921FF497D00504B0304140006080800B670623B6378F24DFF000000A00100003B0000006662782F45374635344235342D363743322D343832342D383044432D4334454645303536354442422F7265736F75726365732F636F72652E
310
786D6C8D504B6E833010BD0A9A6D65B0094E42641C85B639412F6099496225D8C89FAAC7AF09546A77DDCC8CDE47F3F4C4F16B7C149FE88371B603565228D06A37187BED20C50BD9437194C23B177FC9A0B06AC40E6618A4B87A97A615D2CE46B431A3D60DB8822A048C50E8473E3A08FA86A32A558A5911EEE5A4F45D5DB1
310
6465A6B34E8A107D0E502C4FE609D26370C96B0CA25A58295232C3AA3143FE692E063D485EF7F5AEE71BD2D2F39634AFFC44DAF7DD9E9CCE6F9CD25DCBFA762BAAD92C4534E34F46ED51451C40D694B6843142EB0FD61C283F34FC85EE0F948A6A96FF31A569F8A729191B37F51A77B105902C0779125254735F793DCBCC7B
310
EE567E03504B010214000A0000080000B670623B3DEE336E79000000790000001B00000000000000000000000000000000006175746F6465736B2D64657369676E2D7061636B6167652E786D6C504B01021400140006080800B670623BD486FD9CA0000000F40000001300000000000000000000000000B20000005B436F6E
310
74656E745F54797065735D2E786D6C504B01021400140006080800B670623BBC1638F5EC0000007C010000080000000000000000000000000083010000636F72652E786D6C504B01021400140006080800B670623B55019EA25F0000007C000000070000000000000000000000000095020000636E782E786D6C504B010214
310
00140006080800B670623B3586FFB671010000D40300000C00000000000000000000000000190300006662782F636F72652E786D6C504B01021400140006080800B670623B4220A0FF7D0000009D0000000B00000000000000000000000000B40400006662782F636E782E786D6C504B01021400140006080800B670623B2F
310
A3FEDE290100001202000031000000000000000000000000005A0500006662782F45374635344235342D363743322D343832342D383044432D4334454645303536354442422F636F72652E786D6C504B01021400140006080800B670623B1B8617914E010000330300003000000000000000000000000000D2060000666278
310
2F45374635344235342D363743322D343832342D383044432D4334454645303536354442422F636E782E786D6C504B01021400140006080800B670623B29652116630500003C10000034000000000000000000000000006E0800006662782F45374635344235342D363743322D343832342D383044432D4334454645303536
310
354442422F6F626A656374732E786D6C504B01021400140006080000B670623B0000000000000000000000003500000000000000000000000000230E00006662782F45374635344235342D363743322D343832342D383044432D4334454645303536354442422F76657274696365732E62696E504B01021400140006080800
310
B670623BF270F13306000000040000003600000000000000000000000000760E00006662782F45374635344235342D363743322D343832342D383044432D4334454645303536354442422F747269616E676C65732E62696E504B01021400140006080000B670623B0000000000000000000000003700000000000000000000
310
000000D00E00006662782F45374635344235342D363743322D343832342D383044432D4334454645303536354442422F617474726962757465732E62696E504B01021400140006080800B670623B08DA0BD190000000410100003600000000000000000000000000250F00006662782F45374635344235342D363743322D34
310
3832342D383044432D4334454645303536354442422F6469726563746F72792E786D6C504B01021400140006080800B670623B6378F24DFF000000A00100003B00000000000000000000000000091000006662782F45374635344235342D363743322D343832342D383044432D4334454645303536354442422F7265736F75
310
726365732F636F72652E786D6C504B0506000000000E000E0080040000611100000000
  0
XRECORD
  5
112
102
{ACAD_REACTORS
330
110
102
}
330
110
100
AcDbXrecord
280
     1
270
     1
271
     1
  0
XRECORD
  5
111
102
{ACAD_REACTORS
330
110
102
}
330
110
100
AcDbXrecord
280
     1
270
     1
271
     1
  0
XRECORD
  5
18A
102
{ACAD_REACTORS
330
110
102
}
330
110
100
AcDbXrecord
280
     1
 70
     0
 90
1778669749
  1
9BF507EE-FAF7-4A99-A33D-4EE51894BC40
310
504B03040A0000080000B670623B3DEE336E79000000790000001B0000006175746F6465736B2D64657369676E2D7061636B6167652E786D6C3C3F786D6C2076657273696F6E3D22312E302220656E636F64696E673D227574662D3822203F3E3C666F726D6174733E3C666F726D61743E687474703A2F2F736368656D612E
310
6175746F6465736B2E636F6D2F64657369676E2D7061636B6167652F323030393C2F666F726D61743E3C2F666F726D6174733E504B0304140006080800B670623BD486FD9CA0000000F4000000130000005B436F6E74656E745F54797065735D2E786D6C7D8EC10E82300C865F65E91D8A1E8C310C0EEA1BF002731658846E
310
D98AC1B77784ABF1D8FE5FBFBF75BBCE937A534CCEB38643598122B6FEE978D0B0485F9C41B54DDD7D022595594E1A469170414C76A4D9A4D207E29CF43ECE46F218070CC6BECC4078ACAA135ACF422C856C0E68EA1BF5669944DDD7BCDE7B1F8E415D77AECB980613C2E4AC91FC167A2B244592486606FC29C8FD7F045B9A
310
EF7053A7E60B504B0304140006080800B670623BCA089DFFEC0000007C01000008000000636F72652E786D6C8D90416E83301045AF62CDB632D8402020E32882F604BD80653BC44AB011B6AB1EBF262152BBEB6A467FFE9B197D76FA9EEFE84BAFDE38DB03CD08206DA553C64E3DC470C1474027CE56E7C22F1B202B66DDC3
310
260367D3EAE2B24BD2D9A06D48AA754AEFA2F05E0740F29E9A1EBCBCEA59642286E4F0B76C11F226269DD15797E0188D42CF2346A57DE662F40ABCAEC77628C6120F654571D50C04B7F5B9C1E3997CD4F550BE3745C3F20DE62C98F9755FAE5A04AD801784B498524C8A4F5A75E4D055873772EC0861F966FF03C545FD138A
310
C686B2D8DF7D621E384D8F3C069CE55B16A93C824A75CB8DFF00504B0304140006080800B670623B55019EA25F0000007C00000007000000636E782E786D6C4DCB3B0E80201045D1AD90E915ED2CF8AC45050C11660C8261F98AB1B07AC9C97D42D718D865D3E909258CFD00CCE24AC6E326A164D74DC0B4128928FF326038
310
472BA13128B1252AC747C6BAB984FC68F0B87FE8960A5C09FE86CFB69FBA01504B0304140006080800B670623B68FC0B7272010000D40300000C0000006662782F636F72652E786D6CC5535B6E833010BC8AE5DF0A6C1E8124328E22D29EA01770C0A128602363A31CBFCB234A53A555FA553EC09AD9F5CE8C31DB5DDA060D
310
D2F4B556190E7C8A9154852E6B5565D8D993B7C668C799D1DA7E29C3488956667884316795D1AE5BA0422B2B950554E9522EA0E87B69312A1A5864B82F3E642B7CE12C54F467BF13C55954D20F7CA0A18EB3DE1A1080E621E31BF3D3F1C2C88C73E65C5D2E6C5DC2B4FA544B8379921C36797888BC3C8A032F4E73EA6D927D
310
EA1DF6F42D49F2E8350D5346C666CE6CDD5ED515460A2B4BCC434A375E1078347C0FE22D5D6DE3D50B5D6F2965642CBF6B725DF96493AB958DC245EEDCD6631E809089F8E61622B2A81703E8219C913144F84C09DF070D8140C8561C9BAB8F3340832CAC363130A576376A108D933095FA747AD0CF0B46E64E983A6D0EAE1F
310
CE089F9EF1FB8E70D44255604258581E9D1D75B259C3125A278D37D80B52DAB4A279CEC62F0EFF44DDC43F9454E8469BFF5244960322CBEF41C6FBC83F01504B0304140006080800B670623B0F71DDB67E0000009D0000000B0000006662782F636E782E786D6C4DCCD10A83201886E15B91FFDCA54DB73F502386BB8F5816
310
32D3703976F9ABD1C18E3E78F87855FB990379BBFCF2296AE02706C4C5471A7C9C349475A408A4352AA7B4FEDD80C47E761A7606A3A69CCA72D0E0C6BE8475D3E0E3F3409428EA6B27A84079A782899AA2EC1A7AE3ECCC2FD858CB2D544655BFD2B67BD87C01504B0304140006080800B670623BE134B4FB28010000120200
310
00310000006662782F38353834323741342D343835462D343034322D383541392D4331303331363839454531452F636F72652E786D6C8D515B6EC32010BC0AE22B55850D0EA424C24451959EA0172086A42831583CAA1CBF503B52FB971F16CDCECC0EACD8DFC71BF836215AEF7A481A0C817183D7D65D7A98D3197108F652
310
04EFD31F1A044E8DA6871586525C82CFD3020DDE25E352419DD76601558C264130DCCAA58771F832A36A544E8511AFCDA486ABBA988634A55D7852C4144A00300FA927949C71DABD1D28A29C7D208A6987383B6CD13BC16BB2E1DBE3911C453B0BA5C8D9EA456E758963CFD684674DAA588A64C747FC2118958C86B2C3788B
310
0841B8FB247487D98EB257CC77188BB6D2FF89F2A49F1465EBD2BA5BE2CEB2082511EDDC9042FB7CBA3DC298FBE4430275DE2A9AE1054ADC60CC08E3A29D89E5F9C5714317C7987C28DFBBBA9E0A97B0D97643A568EB864AF95D5FA9759BF207504B0304140006080800B670623B1B8617914E010000330300003000000066
310
62782F38353834323741342D343835462D343034322D383541392D4331303331363839454531452F636E782E786D6CD593C16EC32010447F0571AD6CE3D489D20813A9877E410FBD62D82434182CC055F3F75D1292E692438FBD206B7698593D61BEFD1E2DF982108D773D6D6B460938E5B571FB9ECE6957AD29D90A1EBC4F
310
77364A9C1CA1A759A682EF839FA72269D8C9D92654AD71C72206887E0E0A22CAF926B15E498B01E0AA19451807D01A34B919F16B070157417138917400F2F6FA41FCF0092A45DEE414C19BDC21783E4BD39D891265658C3D8DEA00A3ACE59CBC8678ACB54CB26EEB6BD7839D7E9348BE70AD9C8321B9BCA7F9A4A26C542347
310
DEE050F09802D22BA6749A800A394DD62899107273365E3C82CFC6A55557BC06C10774B7ABE7AEC3B0F34CF06446280E154026D0542C187BA9DAB6628BF7B6DBB0E5A65B3EB1F58631DE64BBE083F7B65CC218087E22CABB042E51D1F2268F1FE12B3EA24D40D63E9CFE00120194D60B9D5BC67FE6D39CDF37E20AF817881F
310
504B0304140006080800B670623B5933D422630500003B100000340000006662782F38353834323741342D343835462D343034322D383541392D4331303331363839454531452F6F626A656374732E786D6CAD575B6FA33814FE2B887D0642934E9B156594264D158D3A534DD4D13E548A0C38942D60649B4EBABF7E3F8321
310
40924EF6928780CDF1B97EE762EFF32E4B8D37CA45C2F21BD3B547A641F39045491EDF98A5DC5AD7A6F1D9F73863B243661A39C9E88DA9B64DDF8B392B0BBD15D12D295339D85DDEFE618890E6D434C2940871638AF08566C426A5641115AF764424B1E3EDCE76ED9AB0CF36E6A47819302D08A7B984A6D8CFC1C5A89572FB
310
CB91E9F89EA3BEFB9EFAD754E3D3544E654F5F7E920B49F2F040D880CDD89D2CEE2E2EA7D6E56432B6269F2E5CEB7679BBB0DCABF168FE693E9FCEEEA6102C240727AD09A75BD3BF876F78127A4EFDA9D5582B7E4CA590E5390D2BFB6161A5B3E618D182E611E2985001691DAB47FDA5AB7CD3F93C566B2DB2BB7D9E55DD13
310
1D468DEECDB3AB290BFE8409E21C54704115AA6AFF68436BFC8DF65E0B184BF5B74418199194272435D224E084BF9B3E481589EFF5D828747285706581E9BB7B7E5D5D911ABFC6EE312DB7659A2A689A7E85EC0DF04FA5A8344BFEA2FCB834E8845895492EAFB541F2BDA0A63FF59C6AD3F7D4637CA13FD68E34B629891172
310
98597F1D183A57B9B75A98FE9765B05BAB7C3C2EBCE0ACA05C2AF8005A4DE09AA7F29216EB9E15397500C6F47CBE77CA7778FE2BD277AF0AE2C693DD6437D1522427B9D8329E2136F6A8FA19A3E6C56ADF0E5F50CF06D48734EDCEBF22F69C56D97EC138153F804B85E6FABFC7AFEFB32E523BE1F3BD372418E363EDCA7548
310
52949E8724474014288D94610BB57C1BEC4C7F854A89CA8E5324F55B871CBC78CE1BBEE3BFE68D6A5589EF3C730474506FCFA8FCF0659516D0ED04580EEA6425581B77CAE797FF4BCECC16EB2FEB926F49481F746159D06D922712BD730FDEAE42BD40F42C7AA5EF3F198F60E86110D6DD20645A9480B795CF95E3E3A659A8
310
C55E724F408873315335CFFB8584874484344D494E59D94869DB90C26A5B64F49C802CAC1D3ABE18A098D3B7444D123D8A9E5AE8F5214F0AE5B2B6E9B575DA3E61CBD3EA2B4009FA940524DD1305FB6A1FB294F14DF0BEA90BA109ECE1481FDC3FFAE8D60E75141700BE82725371B4873751B2DD960265F788137FACE6DD40
310
B575E4F0A5C99F46629D92131467A41EE11ABD8D4CCC039CA0AFB37C93A08B232B8F0AEFCA1E0A1015DF13FC83322B362463652ECF71D3A8B1A7D1BE65DE1D62C44F22C317D35F574FEB16153BA2D13E543D10A80E74C4A65E78A6B7CBCBD1D5DD9DB59C2DAFACC96C3AB566E3F1C29ADCDD5DBAD7D3C9ED7C822ED74F80A6
310
41755310DE4443F44A9E68373FADF6596BFA0F440AE7BECE2727AE9F4F2B1B53B1E7E00CF0DD1E5C65454A339A4BA2D0FBA05ED2EF0443458F47BDBFCA484CCFE0F2ED7E3DD0013B679C7B5499467F0ECEEADDB9CA85A34CE44B99053949D2C1416DB85DE4B136BB7165FBAC0B7AB3542BED4F8CA182A549847A1319316519
310
95A83A67147B9E5101C47487F2485F1ECE38FD568F839204296D3479219888530154036E6528FBFBC66F98E0D4107563A2D7D9AFF8D389681A08F58D89F22693900A3B407754734FC51C10C010D6D640809EE4718AC1BA3ED4AEDB53CA37283F68805A7E4B72CEB0A4EDEAD5DD8C14059A76AFAA56BA6901E13F32BC51C720
310
12AF41295B5BF61BAD3195181FB506E6B40F4C10AF5AF40EF9F5B159AE5DD1F43C72D635E94310D45C2D49785C5D0B94D3B54AB3C5A38349C0587D338AB48C11CBF339599C02CCA54A70A008A8D03C0B2201D5F9EFCF8F9CE12A9A19CB0410789EB32C63B95ECCF455D658BFE0621A3DA32C5075FB101723D77DAE867E7D0F
310
D90444509B44E2151B4DC2290B065803200FBAA9BE9D392A0603F2D5C2D00D6302A615680F66D2FA166E2079D4C551A54AB758161FCEFD4E450A14704CECFEDF504B0304140006080000B670623B000000000000000000000000350000006662782F38353834323741342D343835462D343034322D383541392D4331303331
310
363839454531452F76657274696365732E62696E504B0304140006080800B670623BF270F1330600000004000000360000006662782F38353834323741342D343835462D343034322D383541392D4331303331363839454531452F747269616E676C65732E62696E636660600000504B0304140006080000B670623B000000
310
000000000000000000370000006662782F38353834323741342D343835462D343034322D383541392D4331303331363839454531452F617474726962757465732E62696E504B0304140006080800B670623B08DA0BD19000000041010000360000006662782F38353834323741342D343835462D343034322D383541392D43
310
31303331363839454531452F6469726563746F72792E786D6C858F410AC3201045AF22B36F53E9A60B35CBEEBAE80D244E44489C6234F4F835464A48035D0DF398FF9F8AF63D0E6CC63039F212F8F9020C7D47C6792B21C5FE7403D62A1188E2E60C98D7234A5830286103A55745067B9D86B8A3CF9C7F90C11DE607FB1443
310
96D7B6A82D282E9A152AD114D5EF2CB866EEE831B8EEA07A7BB5A8D7D61A2BAAEB7FD5F70921FF497D00504B0304140006080800B670623BD9A3B367FE000000A00100003B0000006662782F38353834323741342D343835462D343034322D383541392D4331303331363839454531452F7265736F75726365732F636F7265
310
2E786D6C8D504B6E833010BD0A9A6D65B01D0201194711694FD00B586642AD043BF2A7EAF16B122AB5BB6E6646EFA3797AE2F8B5DC8A4FF4C1383B002B291468B59B8C9D0748F1420E501CA5F0CEC55F3228AC5A708015062966EFD27D83B4B3116DCCA875136EA00A012314FA968F0182FEC045952AC5AC08D7F2AEF455CD
310
58B232D3592745883E07289E4FD609D26370C96B0CA27AB252A464A64D63A6FCD35C0C7A904D73EE467EE664DCD58CD4ED4849D79C5A723ED1B7A61977AF2D6F45B59AA58866F9C9A83DAA8813484E6947182394BFB3BAA7FBBEDEBFD0434FA9A856F91F53BA4FFF342563E38E6F719FB60092E5200F428A6AED2BAF479979
310
AFDDCA6F504B010214000A0000080000B670623B3DEE336E79000000790000001B00000000000000000000000000000000006175746F6465736B2D64657369676E2D7061636B6167652E786D6C504B01021400140006080800B670623BD486FD9CA0000000F40000001300000000000000000000000000B20000005B436F6E
310
74656E745F54797065735D2E786D6C504B01021400140006080800B670623BCA089DFFEC0000007C010000080000000000000000000000000083010000636F72652E786D6C504B01021400140006080800B670623B55019EA25F0000007C000000070000000000000000000000000095020000636E782E786D6C504B010214
310
00140006080800B670623B68FC0B7272010000D40300000C00000000000000000000000000190300006662782F636F72652E786D6C504B01021400140006080800B670623B0F71DDB67E0000009D0000000B00000000000000000000000000B50400006662782F636E782E786D6C504B01021400140006080800B670623BE1
310
34B4FB280100001202000031000000000000000000000000005C0500006662782F38353834323741342D343835462D343034322D383541392D4331303331363839454531452F636F72652E786D6C504B01021400140006080800B670623B1B8617914E010000330300003000000000000000000000000000D3060000666278
310
2F38353834323741342D343835462D343034322D383541392D4331303331363839454531452F636E782E786D6C504B01021400140006080800B670623B5933D422630500003B10000034000000000000000000000000006F0800006662782F38353834323741342D343835462D343034322D383541392D4331303331363839
310
454531452F6F626A656374732E786D6C504B01021400140006080000B670623B0000000000000000000000003500000000000000000000000000240E00006662782F38353834323741342D343835462D343034322D383541392D4331303331363839454531452F76657274696365732E62696E504B01021400140006080800
310
B670623BF270F13306000000040000003600000000000000000000000000770E00006662782F38353834323741342D343835462D343034322D383541392D4331303331363839454531452F747269616E676C65732E62696E504B01021400140006080000B670623B0000000000000000000000003700000000000000000000
310
000000D10E00006662782F38353834323741342D343835462D343034322D383541392D4331303331363839454531452F617474726962757465732E62696E504B01021400140006080800B670623B08DA0BD190000000410100003600000000000000000000000000260F00006662782F38353834323741342D343835462D34
310
3034322D383541392D4331303331363839454531452F6469726563746F72792E786D6C504B01021400140006080800B670623BD9A3B367FE000000A00100003B000000000000000000000000000A1000006662782F38353834323741342D343835462D343034322D383541392D4331303331363839454531452F7265736F75
310
726365732F636F72652E786D6C504B0506000000000E000E0080040000611100000000
  0
XRECORD
  5
113
102
{ACAD_REACTORS
330
110
102
}
330
110
100
AcDbXrecord
280
     1
270
     1
271
     1
  0
XRECORD
  5
114
102
{ACAD_REACTORS
330
110
102
}
330
110
100
AcDbXrecord
280
     1
270
     1
271
     1
  0
XRECORD
  5
2FF
102
{ACAD_REACTORS
330
2FE
102
}
330
2FE
100
AcDbXrecord
280
     1
102
DISPLAYNAME
  1
Imperial24
102
FLAGS
 90
        0
  0
XRECORD
  5
303
102
{ACAD_REACTORS
330
302
102
}
330
302
100
AcDbXrecord
280
     1
102
DISPLAYNAME
  1
Metric50
102
FLAGS
 90
        0
  0
CELLSTYLEMAP
  5
2F3
102
{ACAD_REACTORS
330
2F2
102
}
330
2F2
100
AcDbCellStyleMap
 90
        3
300
CELLSTYLE
  1
TABLEFORMAT_BEGIN
 90
        5
170
     1
 91
        0
 92
    32768
 62
   257
 93
        1
300
CONTENTFORMAT
  1
CONTENTFORMAT_BEGIN
 90
        0
 91
        0
 92
      512
 93
        0
300

 40
0.0
140
1.0
 94
        5
 62
     0
340
20C
144
0.25
309
CONTENTFORMAT_END
171
     0
 94
        6
 95
        1
302
GRIDFORMAT
  1
GRIDFORMAT_BEGIN
 90
        0
 91
        1
 62
     0
 92
       -2
340
0
 93
        1
 40
0.045
309
GRIDFORMAT_END
 95
        2
302
GRIDFORMAT
  1
GRIDFORMAT_BEGIN
 90
        0
 91
        1
 62
     0
 92
       -2
340
0
 93
        1
 40
0.045
309
GRIDFORMAT_END
 95
        4
302
GRIDFORMAT
  1
GRIDFORMAT_BEGIN
 90
        0
 91
        1
 62
     0
 92
       -2
340
0
 93
        1
 40
0.045
309
GRIDFORMAT_END
 95
        8
302
GRIDFORMAT
  1
GRIDFORMAT_BEGIN
 90
        0
 91
        1
 62
     0
 92
       -2
340
0
 93
        1
 40
0.045
309
GRIDFORMAT_END
 95
       16
302
GRIDFORMAT
  1
GRIDFORMAT_BEGIN
 90
        0
 91
        1
 62
     0
 92
       -2
340
0
 93
        1
 40
0.045
309
GRIDFORMAT_END
 95
       32
302
GRIDFORMAT
  1
GRIDFORMAT_BEGIN
 90
        0
 91
        1
 62
     0
 92
       -2
340
0
 93
        1
 40
0.045
309
GRIDFORMAT_END
309
TABLEFORMAT_END
  1
CELLSTYLE_BEGIN
 90
        1
 91
        1
300
_TITLE
309
CELLSTYLE_END
300
CELLSTYLE
  1
TABLEFORMAT_BEGIN
 90
        5
170
     1
 91
        0
 92
        0
 62
   257
 93
        1
300
CONTENTFORMAT
  1
CONTENTFORMAT_BEGIN
 90
        0
 91
        0
 92
      512
 93
        0
300

 40
0.0
140
1.0
 94
        4
 62
     0
340
20C
144
0.18
309
CONTENTFORMAT_END
171
     0
 94
        6
 95
        1
302
GRIDFORMAT
  1
GRIDFORMAT_BEGIN
 90
        0
 91
        1
 62
     0
 92
       -2
340
0
 93
        1
 40
0.045
309
GRIDFORMAT_END
 95
        2
302
GRIDFORMAT
  1
GRIDFORMAT_BEGIN
 90
        0
 91
        1
 62
     0
 92
       -2
340
0
 93
        1
 40
0.045
309
GRIDFORMAT_END
 95
        4
302
GRIDFORMAT
  1
GRIDFORMAT_BEGIN
 90
        0
 91
        1
 62
     0
 92
       -2
340
0
 93
        1
 40
0.045
309
GRIDFORMAT_END
 95
        8
302
GRIDFORMAT
  1
GRIDFORMAT_BEGIN
 90
        0
 91
        1
 62
     0
 92
       -2
340
0
 93
        1
 40
0.045
309
GRIDFORMAT_END
 95
       16
302
GRIDFORMAT
  1
GRIDFORMAT_BEGIN
 90
        0
 91
        1
 62
     0
 92
       -2
340
0
 93
        1
 40
0.045
309
GRIDFORMAT_END
 95
       32
302
GRIDFORMAT
  1
GRIDFORMAT_BEGIN
 90
        0
 91
        1
 62
     0
 92
       -2
340
0
 93
        1
 40
0.045
309
GRIDFORMAT_END
309
TABLEFORMAT_END
  1
CELLSTYLE_BEGIN
 90
        2
 91
        1
300
_HEADER
309
CELLSTYLE_END
300
CELLSTYLE
  1
TABLEFORMAT_BEGIN
 90
        5
170
     1
 91
        0
 92
        0
 62
   257
 93
        1
300
CONTENTFORMAT
  1
CONTENTFORMAT_BEGIN
 90
        0
 91
        0
 92
      512
 93
        0
300

 40
0.0
140
1.0
 94
        4
 62
     0
340
20C
144
0.18
309
CONTENTFORMAT_END
171
     0
 94
        6
 95
        1
302
GRIDFORMAT
  1
GRIDFORMAT_BEGIN
 90
        0
 91
        1
 62
     0
 92
       -2
340
0
 93
        1
 40
0.045
309
GRIDFORMAT_END
 95
        2
302
GRIDFORMAT
  1
GRIDFORMAT_BEGIN
 90
        0
 91
        1
 62
     0
 92
       -2
340
0
 93
        1
 40
0.045
309
GRIDFORMAT_END
 95
        4
302
GRIDFORMAT
  1
GRIDFORMAT_BEGIN
 90
        0
 91
        1
 62
     0
 92
       -2
340
0
 93
        1
 40
0.045
309
GRIDFORMAT_END
 95
        8
302
GRIDFORMAT
  1
GRIDFORMAT_BEGIN
 90
        0
 91
        1
 62
     0
 92
       -2
340
0
 93
        1
 40
0.045
309
GRIDFORMAT_END
 95
       16
302
GRIDFORMAT
  1
GRIDFORMAT_BEGIN
 90
        0
 91
        1
 62
     0
 92
       -2
340
0
 93
        1
 40
0.045
309
GRIDFORMAT_END
 95
       32
302
GRIDFORMAT
  1
GRIDFORMAT_BEGIN
 90
        0
 91
        1
 62
     0
 92
       -2
340
0
 93
        1
 40
0.045
309
GRIDFORMAT_END
309
TABLEFORMAT_END
  1
CELLSTYLE_BEGIN
 90
        3
 91
        2
300
_DATA
309
CELLSTYLE_END
  0
CELLSTYLEMAP
  5
2F1
102
{ACAD_REACTORS
330
104
102
}
330
104
100
AcDbCellStyleMap
 90
        3
300
CELLSTYLE
  1
TABLEFORMAT_BEGIN
 90
        5
170
     1
 91
        0
 92
    32768
 62
   257
 93
        1
300
CONTENTFORMAT
  1
CONTENTFORMAT_BEGIN
 90
        0
 91
        0
 92
      512
 93
        0
300

 40
0.0
140
1.0
 94
        5
 62
     0
340
11
144
0.25
309
CONTENTFORMAT_END
171
     1
301
MARGIN
  1
CELLMARGIN_BEGIN
 40
0.06
 40
0.06
 40
0.06
 40
0.06
 40
0.18
 40
0.18
309
CELLMARGIN_END
 94
        6
 95
        1
302
GRIDFORMAT
  1
GRIDFORMAT_BEGIN
 90
        0
 91
        1
 62
     0
 92
       -2
340
0
 93
        0
 40
0.045
309
GRIDFORMAT_END
 95
        2
302
GRIDFORMAT
  1
GRIDFORMAT_BEGIN
 90
        0
 91
        1
 62
     0
 92
       -2
340
0
 93
        0
 40
0.045
309
GRIDFORMAT_END
 95
        4
302
GRIDFORMAT
  1
GRIDFORMAT_BEGIN
 90
        0
 91
        1
 62
     0
 92
       -2
340
0
 93
        0
 40
0.045
309
GRIDFORMAT_END
 95
        8
302
GRIDFORMAT
  1
GRIDFORMAT_BEGIN
 90
        0
 91
        1
 62
     0
 92
       -2
340
0
 93
        0
 40
0.045
309
GRIDFORMAT_END
 95
       16
302
GRIDFORMAT
  1
GRIDFORMAT_BEGIN
 90
        0
 91
        1
 62
     0
 92
       -2
340
0
 93
        0
 40
0.045
309
GRIDFORMAT_END
 95
       32
302
GRIDFORMAT
  1
GRIDFORMAT_BEGIN
 90
        0
 91
        1
 62
     0
 92
       -2
340
0
 93
        0
 40
0.045
309
GRIDFORMAT_END
309
TABLEFORMAT_END
  1
CELLSTYLE_BEGIN
 90
        1
 91
        1
300
_TITLE
309
CELLSTYLE_END
300
CELLSTYLE
  1
TABLEFORMAT_BEGIN
 90
        5
170
     1
 91
        0
 92
        0
 62
   257
 93
        1
300
CONTENTFORMAT
  1
CONTENTFORMAT_BEGIN
 90
        0
 91
        0
 92
      512
 93
        0
300

 40
0.0
140
1.0
 94
        5
 62
     0
340
11
144
0.18
309
CONTENTFORMAT_END
171
     1
301
MARGIN
  1
CELLMARGIN_BEGIN
 40
0.06
 40
0.06
 40
0.06
 40
0.06
 40
0.18
 40
0.18
309
CELLMARGIN_END
 94
        6
 95
        1
302
GRIDFORMAT
  1
GRIDFORMAT_BEGIN
 90
        0
 91
        1
 62
     0
 92
       -2
340
0
 93
        0
 40
0.045
309
GRIDFORMAT_END
 95
        2
302
GRIDFORMAT
  1
GRIDFORMAT_BEGIN
 90
        0
 91
        1
 62
     0
 92
       -2
340
0
 93
        0
 40
0.045
309
GRIDFORMAT_END
 95
        4
302
GRIDFORMAT
  1
GRIDFORMAT_BEGIN
 90
        0
 91
        1
 62
     0
 92
       -2
340
0
 93
        0
 40
0.045
309
GRIDFORMAT_END
 95
        8
302
GRIDFORMAT
  1
GRIDFORMAT_BEGIN
 90
        0
 91
        1
 62
     0
 92
       -2
340
0
 93
        0
 40
0.045
309
GRIDFORMAT_END
 95
       16
302
GRIDFORMAT
  1
GRIDFORMAT_BEGIN
 90
        0
 91
        1
 62
     0
 92
       -2
340
0
 93
        0
 40
0.045
309
GRIDFORMAT_END
 95
       32
302
GRIDFORMAT
  1
GRIDFORMAT_BEGIN
 90
        0
 91
        1
 62
     0
 92
       -2
340
0
 93
        0
 40
0.045
309
GRIDFORMAT_END
309
TABLEFORMAT_END
  1
CELLSTYLE_BEGIN
 90
        2
 91
        1
300
_HEADER
309
CELLSTYLE_END
300
CELLSTYLE
  1
TABLEFORMAT_BEGIN
 90
        5
170
     1
 91
        0
 92
        0
 62
   257
 93
        1
300
CONTENTFORMAT
  1
CONTENTFORMAT_BEGIN
 90
        0
 91
        0
 92
      512
 93
        0
300

 40
0.0
140
1.0
 94
        2
 62
     0
340
11
144
0.18
309
CONTENTFORMAT_END
171
     1
301
MARGIN
  1
CELLMARGIN_BEGIN
 40
0.06
 40
0.06
 40
0.06
 40
0.06
 40
0.18
 40
0.18
309
CELLMARGIN_END
 94
        6
 95
        1
302
GRIDFORMAT
  1
GRIDFORMAT_BEGIN
 90
        0
 91
        1
 62
     0
 92
       -2
340
0
 93
        0
 40
0.045
309
GRIDFORMAT_END
 95
        2
302
GRIDFORMAT
  1
GRIDFORMAT_BEGIN
 90
        0
 91
        1
 62
     0
 92
       -2
340
0
 93
        0
 40
0.045
309
GRIDFORMAT_END
 95
        4
302
GRIDFORMAT
  1
GRIDFORMAT_BEGIN
 90
        0
 91
        1
 62
     0
 92
       -2
340
0
 93
        0
 40
0.045
309
GRIDFORMAT_END
 95
        8
302
GRIDFORMAT
  1
GRIDFORMAT_BEGIN
 90
        0
 91
        1
 62
     0
 92
       -2
340
0
 93
        0
 40
0.045
309
GRIDFORMAT_END
 95
       16
302
GRIDFORMAT
  1
GRIDFORMAT_BEGIN
 90
        0
 91
        1
 62
     0
 92
       -2
340
0
 93
        0
 40
0.045
309
GRIDFORMAT_END
 95
       32
302
GRIDFORMAT
  1
GRIDFORMAT_BEGIN
 90
        0
 91
        1
 62
     0
 92
       -2
340
0
 93
        0
 40
0.045
309
GRIDFORMAT_END
309
TABLEFORMAT_END
  1
CELLSTYLE_BEGIN
 90
        3
 91
        2
300
_DATA
309
CELLSTYLE_END
  0
DMBASEELEMENT
  5
20E
102
{ACAD_XDICTIONARY
360
212
102
}
102
{ACAD_REACTORS
330
20B
102
}
330
20B
100
AcMapDMBaseElement
 70
     1
  1
Kartenbasis
 70
     1
330
20B
100
AcMapDMBaseElement
 70
     2
  1

 70
     2
  1

 70
     1
 40
1.797693134862314E+99
 70
        1
 70
     1
 70
     1
 70
     1
360
211
100
AcMapDMBaseElement
 70
     1
  0
DMDEFAULTSTYLE
  5
20F
102
{ACAD_REACTORS
330
20B
102
}
330
20B
100
AcMapDMDefaultStyle
 70
     1
 90
        1
  1
Vorgabe
100
AcMapDMDefaultStyle
 70
     1
280
   100
 90
        0
1001
AcMapDMDisplayStyleRegapp
1070
     2
1071
        1
1000
Vorgabe
1000

  0
DICTIONARY
  5
212
330
20E
100
AcDbDictionary
280
     1
281
     1
  3
AcMapDMSurrogateStyleSets
360
213
  0
DMSTYLEREFERENCE
  5
211
330
20E
100
AcMapDMStyleReference
 70
     1
 70
     0
340
20F
330
20B
  0
DMSURROGATESTYLESETS
  5
213
102
{ACAD_REACTORS
330
212
102
}
330
212
100
AcMapDMSurrogateStyleSets
 70
     1
  1
Kartenbasis
 70
     1
 40
1.797693134862314E+99
 70
        1
 70
     1
 70
     1
 70
     1
330
211
 70
     0
  0
ENDSEC
  0
SECTION
  2
ACDSDATA
 70
     2
 71
     8
  0
ACDSSCHEMA
 90
        0
  1
AcDb_Thumbnail_Schema
  2
AcDbDs::ID
280
    10
 91
        8
  2
Thumbnail_Data
280
    15
 91
        0
101
ACDSRECORD
 95
        0
 90
        1
  2
AcDbDs::TreatedAsObjectData
280
     1
291
     1
101
ACDSRECORD
 95
        0
 90
        2
  2
AcDbDs::Legacy
280
     1
291
     1
101
ACDSRECORD
  1
AcDbDs::ID
 90
        3
  2
AcDs:Indexable
280
     1
291
     1
101
ACDSRECORD
  1
AcDbDs::ID
 90
        4
  2
AcDbDs::HandleAttribute
280
     7
282
     1
  0
ACDSSCHEMA
 90
        1
  1
AcDbDs::TreatedAsObjectDataSchema
  2
AcDbDs::TreatedAsObjectData
280
     1
 91
        0
  0
ACDSSCHEMA
 90
        2
  1
AcDbDs::LegacySchema
  2
AcDbDs::Legacy
280
     1
 91
        0
  0
ACDSSCHEMA
 90
        3
  1
AcDbDs::IndexedPropertySchema
  2
AcDs:Indexable
280
     1
 91
        0
  0
ACDSSCHEMA
 90
        4
  1
AcDbDs::HandleAttributeSchema
  2
AcDbDs::HandleAttribute
280
     7
 91
        1
284
     1
  0
ACDSRECORD
 90
        0
  2
AcDbDs::ID
280
    10
320
22
  2
Thumbnail_Data
280
    15
 94
     1659
310
89504E470D0A1A0A0000000D4948445200000100000000900803000000D0BD45A300000300504C5445F7F7F7FFFFFFF7F7F70000000000000000000000000000000000000000000000000000330000660000990000CC0000FF0033000033330033660033990033CC0033FF0066000066330066660066990066CC0066FF0099
310
000099330099660099990099CC0099FF00CC0000CC3300CC6600CC9900CCCC00CCFF00FF0000FF3300FF6600FF9900FFCC00FFFF3300003300333300663300993300CC3300FF3333003333333333663333993333CC3333FF3366003366333366663366993366CC3366FF3399003399333399663399993399CC3399FF33CC00
310
33CC3333CC6633CC9933CCCC33CCFF33FF0033FF3333FF6633FF9933FFCC33FFFF6600006600336600666600996600CC6600FF6633006633336633666633996633CC6633FF6666006666336666666666996666CC6666FF6699006699336699666699996699CC6699FF66CC0066CC3366CC6666CC9966CCCC66CCFF66FF0066
310
FF3366FF6666FF9966FFCC66FFFF9900009900339900669900999900CC9900FF9933009933339933669933999933CC9933FF9966009966339966669966999966CC9966FF9999009999339999669999999999CC9999FF99CC0099CC3399CC6699CC9999CCCC99CCFF99FF0099FF3399FF6699FF9999FFCC99FFFFCC0000CC00
310
33CC0066CC0099CC00CCCC00FFCC3300CC3333CC3366CC3399CC33CCCC33FFCC6600CC6633CC6666CC6699CC66CCCC66FFCC9900CC9933CC9966CC9999CC99CCCC99FFCCCC00CCCC33CCCC66CCCC99CCCCCCCCCCFFCCFF00CCFF33CCFF66CCFF99CCFFCCCCFFFFFF0000FF0033FF0066FF0099FF00CCFF00FFFF3300FF3333
310
FF3366FF3399FF33CCFF33FFFF6600FF6633FF6666FF6699FF66CCFF66FFFF9900FF9933FF9966FF9999FF99CCFF99FFFFCC00FFCC33FFCC66FFCC99FFCCCCFFCCFFFFFF00FFFF33FFFF66FFFF99FFFFCCFFFFFF0000000D0D0D1A1A1A2828283535354343435050505D5D5D6B6B6B787878868686939393A1A1A1AEAEAEBB
310
BBBBC9C9C9D6D6D6E4E4E4F1F1F1FFFFFF0000000000000000000000000000000000000000000000000000000000002EB028C1000003364944415478DAED9B5992E3300C4375FF43E1243CCCCCD474C7D64E2D8E6D12F84B6257074F20AD251DC21D42F2128D6BA5F9E93B953A6A58B4687F00804DFBB97F41CD7F088E0118
310
1DFEDCFFDF0A8023FBBA008898B55F08406ED6F0F06B026079F88B1DC0D3F02B02607AF8FBFE8D0F7FBE08C8FC07CFE32FD6FDE70180A7F8A7FED3FC9B1FFED47F32E0F0E7BF3D3F300E80FEE9DF99FFC823FD3B7BFCD17F0400F1FCCF9DFFE0DEBFF3020870EFDF5F01441D507CFB8F0B4082BF00386C008D00F8F05F0D80
310
C70238BF38FB87CB00A0D219FC05C0CD49D8790EE0C67FAD020E00300E019D00C07813EC05C0BAFF6A007E3E805B00FE0270AE0097012803F0E4FFA80089ADBB0C800F00A82C847F01C03880DA61A0FC7E08DB4BC1EAAF01120078586A351A8D7F0440C203018C588B31D53ECCDECD013CA502F4BE7591E92442C2D3007CF9
310
89E00E005004F0D91E8279FB887C4B7005E0E8F51900F3D3A064ADF74E00F2D1FC4C08A10220298191C7F0974C9F6D8B94DFEF3E211300922604318DBB180C9A133D0F34001C3F16C09D8724B309CF78B4AF2902F84CA45AB3E8D7A88941CAFE8B1CDE7D48508E432D00E57584856392A43F280154CBE2E5200601D8E32031
310
86A9F5A6210C4BEB6E33CD618D838565C23F4D73D81587DB60021186450E98B9A777E3E45EE8D03A29FE53EBFDA1FC3DB526CAD725671BBB68A05115AB13F3D4CA623DA116E02514DD71D8C1E18AB416DF9A2A44DDA83C8103B4E3371408E5B507866F71509D0A61DB234A5747B89A43A7636066A0471B84A2579F306CE420
310
8A7A2CBEA16C82938DB2CEE3FFEBA5CDCA685A3A5303181FECC5A7677D46B280E1B84F71B2A7291895C50B6655E30B8CF86ACD77A9FCA76F3DA35D0EE18A29667B9F7669931FBD2763616BB33FBF422FE01B50C89E76D103706E508AE56BFB60F8B225C8EED9BB7EC59EBA193A197F068FD1BFABEA94538EF0C8802CCCF656
310
0D296F7F02B5A129E4E45755FEB0EBCEE00C6EB45C95F807D5CE5D3CF0FCA6B1974776ED4B3697577834EF7CE9F6FAD69E60E08441CFA3B2EB1B6C495F013FEFC0C90F55AB05E0D93F0904F7F6498004288AA2288AA2288AA2288AA2288AA2288AA2288AA2288AA2288AA2288AA228CAAEFE001D8871125E2FE99D00000000
310
49454E44AE426082
  0
ENDSEC
  0
EOF
