  0
SECTION
  2
HEADER
  9
$ACADVER
  1
AC1027
  9
$ACADMAINTVER
 70
   125
  9
$DWGCODEPAGE
  3
ANSI_1252
  9
$LASTSAVEDBY
  1
P04857991
  9
$REQUIREDVERSIONS
160
                 0
  9
$INSBASE
 10
0.0
 20
0.0
 30
0.0
  9
$EXTMIN
 10
10613.47213222671
 20
339637.5206079148
 30
-0.0000000000112498
  9
$EXTMAX
 10
17263.40116862753
 20
363273.547632653
 30
0.0000000000002956
  9
$LIMMIN
 10
0.0
 20
0.0
  9
$LIMMAX
 10
12.0
 20
9.0
  9
$ORTHOMODE
 70
     0
  9
$REGENMODE
 70
     1
  9
$FILLMODE
 70
     1
  9
$QTEXTMODE
 70
     0
  9
$MIRRTEXT
 70
     0
  9
$LTSCALE
 40
1.0
  9
$ATTMODE
 70
     1
  9
$TEXTSIZE
 40
0.2
  9
$TRACEWID
 40
0.05
  9
$TEXTSTYLE
  7
Legend
  9
$CLAYER
  8
0
  9
$CELTYPE
  6
ByLayer
  9
$CECOLOR
 62
   256
  9
$CELTSCALE
 40
1.0
  9
$DISPSILH
 70
     0
  9
$DIMSCALE
 40
1.0
  9
$DIMASZ
 40
0.18
  9
$DIMEXO
 40
0.0625
  9
$DIMDLI
 40
0.38
  9
$DIMRND
 40
0.0
  9
$DIMDLE
 40
0.0
  9
$DIMEXE
 40
0.18
  9
$DIMTP
 40
0.0
  9
$DIMTM
 40
0.0
  9
$DIMTXT
 40
0.18
  9
$DIMCEN
 40
0.09
  9
$DIMTSZ
 40
0.0
  9
$DIMTOL
 70
     0
  9
$DIMLIM
 70
     0
  9
$DIMTIH
 70
     1
  9
$DIMTOH
 70
     1
  9
$DIMSE1
 70
     0
  9
$DIMSE2
 70
     0
  9
$DIMTAD
 70
     0
  9
$DIMZIN
 70
     0
  9
$DIMBLK
  1

  9
$DIMASO
 70
     1
  9
$DIMSHO
 70
     1
  9
$DIMPOST
  1

  9
$DIMAPOST
  1

  9
$DIMALT
 70
     0
  9
$DIMALTD
 70
     2
  9
$DIMALTF
 40
25.4
  9
$DIMLFAC
 40
1.0
  9
$DIMTOFL
 70
     0
  9
$DIMTVP
 40
0.0
  9
$DIMTIX
 70
     0
  9
$DIMSOXD
 70
     0
  9
$DIMSAH
 70
     0
  9
$DIMBLK1
  1

  9
$DIMBLK2
  1

  9
$DIMSTYLE
  2
Standard
  9
$DIMCLRD
 70
     0
  9
$DIMCLRE
 70
     0
  9
$DIMCLRT
 70
     0
  9
$DIMTFAC
 40
1.0
  9
$DIMGAP
 40
0.09
  9
$DIMJUST
 70
     0
  9
$DIMSD1
 70
     0
  9
$DIMSD2
 70
     0
  9
$DIMTOLJ
 70
     1
  9
$DIMTZIN
 70
     0
  9
$DIMALTZ
 70
     0
  9
$DIMALTTZ
 70
     0
  9
$DIMUPT
 70
     0
  9
$DIMDEC
 70
     4
  9
$DIMTDEC
 70
     4
  9
$DIMALTU
 70
     2
  9
$DIMALTTD
 70
     2
  9
$DIMTXSTY
  7
Standard
  9
$DIMAUNIT
 70
     0
  9
$DIMADEC
 70
     0
  9
$DIMALTRND
 40
0.0
  9
$DIMAZIN
 70
     0
  9
$DIMDSEP
 70
    46
  9
$DIMATFIT
 70
     3
  9
$DIMFRAC
 70
     0
  9
$DIMLDRBLK
  1

  9
$DIMLUNIT
 70
     2
  9
$DIMLWD
 70
    -2
  9
$DIMLWE
 70
    -2
  9
$DIMTMOVE
 70
     0
  9
$DIMFXL
 40
1.0
  9
$DIMFXLON
 70
     0
  9
$DIMJOGANG
 40
0.7853981633974483
  9
$DIMTFILL
 70
     0
  9
$DIMTFILLCLR
 70
     0
  9
$DIMARCSYM
 70
     0
  9
$DIMLTYPE
  6

  9
$DIMLTEX1
  6

  9
$DIMLTEX2
  6

  9
$DIMTXTDIRECTION
 70
     0
  9
$LUNITS
 70
     2
  9
$LUPREC
 70
     4
  9
$SKETCHINC
 40
0.1
  9
$FILLETRAD
 40
0.0
  9
$AUNITS
 70
     0
  9
$AUPREC
 70
     0
  9
$MENU
  1
.
  9
$ELEVATION
 40
0.0
  9
$PELEVATION
 40
0.0
  9
$THICKNESS
 40
0.0
  9
$LIMCHECK
 70
     0
  9
$CHAMFERA
 40
0.0
  9
$CHAMFERB
 40
0.0
  9
$CHAMFERC
 40
0.0
  9
$CHAMFERD
 40
0.0
  9
$SKPOLY
 70
     0
  9
$TDCREATE
 40
2459389.492465278
  9
$TDUCREATE
 40
2459389.409131945
  9
$TDUPDATE
 40
2459394.535023148
  9
$TDUUPDATE
 40
2459394.451689815
  9
$TDINDWG
 40
0.9259953704
  9
$TDUSRTIMER
 40
0.9259722222
  9
$USRTIMER
 70
     1
  9
$ANGBASE
 50
0.0
  9
$ANGDIR
 70
     0
  9
$PDMODE
 70
     0
  9
$PDSIZE
 40
0.0
  9
$PLINEWID
 40
0.0
  9
$SPLFRAME
 70
     0
  9
$SPLINETYPE
 70
     6
  9
$SPLINESEGS
 70
     8
  9
$HANDSEED
  5
CB1
  9
$SURFTAB1
 70
     6
  9
$SURFTAB2
 70
     6
  9
$SURFTYPE
 70
     6
  9
$SURFU
 70
     6
  9
$SURFV
 70
     6
  9
$UCSBASE
  2

  9
$UCSNAME
  2

  9
$UCSORG
 10
0.0
 20
0.0
 30
0.0
  9
$UCSXDIR
 10
1.0
 20
0.0
 30
0.0
  9
$UCSYDIR
 10
0.0
 20
1.0
 30
0.0
  9
$UCSORTHOREF
  2

  9
$UCSORTHOVIEW
 70
     0
  9
$UCSORGTOP
 10
0.0
 20
0.0
 30
0.0
  9
$UCSORGBOTTOM
 10
0.0
 20
0.0
 30
0.0
  9
$UCSORGLEFT
 10
0.0
 20
0.0
 30
0.0
  9
$UCSORGRIGHT
 10
0.0
 20
0.0
 30
0.0
  9
$UCSORGFRONT
 10
0.0
 20
0.0
 30
0.0
  9
$UCSORGBACK
 10
0.0
 20
0.0
 30
0.0
  9
$PUCSBASE
  2

  9
$PUCSNAME
  2

  9
$PUCSORG
 10
0.0
 20
0.0
 30
0.0
  9
$PUCSXDIR
 10
1.0
 20
0.0
 30
0.0
  9
$PUCSYDIR
 10
0.0
 20
1.0
 30
0.0
  9
$PUCSORTHOREF
  2

  9
$PUCSORTHOVIEW
 70
     0
  9
$PUCSORGTOP
 10
0.0
 20
0.0
 30
0.0
  9
$PUCSORGBOTTOM
 10
0.0
 20
0.0
 30
0.0
  9
$PUCSORGLEFT
 10
0.0
 20
0.0
 30
0.0
  9
$PUCSORGRIGHT
 10
0.0
 20
0.0
 30
0.0
  9
$PUCSORGFRONT
 10
0.0
 20
0.0
 30
0.0
  9
$PUCSORGBACK
 10
0.0
 20
0.0
 30
0.0
  9
$USERI1
 70
     0
  9
$USERI2
 70
     0
  9
$USERI3
 70
     0
  9
$USERI4
 70
     0
  9
$USERI5
 70
     0
  9
$USERR1
 40
0.0
  9
$USERR2
 40
0.0
  9
$USERR3
 40
0.0
  9
$USERR4
 40
0.0
  9
$USERR5
 40
0.0
  9
$WORLDVIEW
 70
     1
  9
$SHADEDGE
 70
     3
  9
$SHADEDIF
 70
    70
  9
$TILEMODE
 70
     1
  9
$MAXACTVP
 70
    64
  9
$PINSBASE
 10
0.0
 20
0.0
 30
0.0
  9
$PLIMCHECK
 70
     0
  9
$PEXTMIN
 10
0.0
 20
0.0
 30
0.0
  9
$PEXTMAX
 10
0.0
 20
0.0
 30
0.0
  9
$PLIMMIN
 10
0.0
 20
0.0
  9
$PLIMMAX
 10
12.0
 20
9.0
  9
$UNITMODE
 70
     0
  9
$VISRETAIN
 70
     1
  9
$PLINEGEN
 70
     0
  9
$PSLTSCALE
 70
     1
  9
$TREEDEPTH
 70
  3020
  9
$CMLSTYLE
  2
Standard
  9
$CMLJUST
 70
     0
  9
$CMLSCALE
 40
1.0
  9
$PROXYGRAPHICS
 70
     1
  9
$MEASUREMENT
 70
     1
  9
$CELWEIGHT
370
    -1
  9
$ENDCAPS
280
     0
  9
$JOINSTYLE
280
     0
  9
$LWDISPLAY
290
     0
  9
$INSUNITS
 70
     1
  9
$HYPERLINKBASE
  1

  9
$STYLESHEET
  1

  9
$XEDIT
290
     1
  9
$CEPSNTYPE
380
     0
  9
$PSTYLEMODE
290
     1
  9
$FINGERPRINTGUID
  2
{64AB614E-DCAE-D841-BC38-59E23EB6FA23}
  9
$VERSIONGUID
  2
{91F19FB3-0CE4-8144-BB5D-D996E9E5AADD}
  9
$EXTNAMES
290
     1
  9
$PSVPSCALE
 40
0.0
  9
$OLESTARTUP
290
     0
  9
$SORTENTS
280
   127
  9
$INDEXCTL
280
     0
  9
$HIDETEXT
280
     1
  9
$XCLIPFRAME
280
     2
  9
$HALOGAP
280
     0
  9
$OBSCOLOR
 70
   257
  9
$OBSLTYPE
280
     0
  9
$INTERSECTIONDISPLAY
280
     0
  9
$INTERSECTIONCOLOR
 70
   257
  9
$DIMASSOC
280
     2
  9
$PROJECTNAME
  1

  9
$CAMERADISPLAY
290
     0
  9
$LENSLENGTH
 40
50.0
  9
$CAMERAHEIGHT
 40
0.0
  9
$STEPSPERSEC
 40
2.0
  9
$STEPSIZE
 40
100.0
  9
$3DDWFPREC
 40
2.0
  9
$PSOLWIDTH
 40
0.25
  9
$PSOLHEIGHT
 40
4.0
  9
$LOFTANG1
 40
1.570796326794896
  9
$LOFTANG2
 40
1.570796326794896
  9
$LOFTMAG1
 40
0.0
  9
$LOFTMAG2
 40
0.0
  9
$LOFTPARAM
 70
     7
  9
$LOFTNORMALS
280
     1
  9
$LATITUDE
 40
37.795
  9
$LONGITUDE
 40
-122.394
  9
$NORTHDIRECTION
 40
0.0
  9
$TIMEZONE
 70
 -8000
  9
$LIGHTGLYPHDISPLAY
280
     1
  9
$TILEMODELIGHTSYNCH
280
     1
  9
$CMATERIAL
347
96
  9
$SOLIDHIST
280
     0
  9
$SHOWHIST
280
     1
  9
$DWFFRAME
280
     2
  9
$DGNFRAME
280
     0
  9
$REALWORLDSCALE
290
     1
  9
$INTERFERECOLOR
 62
     1
  9
$INTERFEREOBJVS
345
A3
  9
$INTERFEREVPVS
346
A0
  9
$CSHADOW
280
     0
  9
$SHADOWPLANELOCATION
 40
0.0
  0
ENDSEC
  0
SECTION
  2
CLASSES
  0
CLASS
  1
ACDBDICTIONARYWDFLT
  2
AcDbDictionaryWithDefault
  3
ObjectDBX Classes
 90
        0
 91
        1
280
     0
281
     0
  0
CLASS
  1
DICTIONARYVAR
  2
AcDbDictionaryVar
  3
ObjectDBX Classes
 90
        0
 91
        9
280
     0
281
     0
  0
CLASS
  1
TABLESTYLE
  2
AcDbTableStyle
  3
ObjectDBX Classes
 90
     4095
 91
        2
280
     0
281
     0
  0
CLASS
  1
MATERIAL
  2
AcDbMaterial
  3
ObjectDBX Classes
 90
     1153
 91
        3
280
     0
281
     0
  0
CLASS
  1
VISUALSTYLE
  2
AcDbVisualStyle
  3
ObjectDBX Classes
 90
     4095
 91
       24
280
     0
281
     0
  0
CLASS
  1
SCALE
  2
AcDbScale
  3
ObjectDBX Classes
 90
     1153
 91
       33
280
     0
281
     0
  0
CLASS
  1
MLEADERSTYLE
  2
AcDbMLeaderStyle
  3
ACDB_MLEADERSTYLE_CLASS
 90
     4095
 91
        2
280
     0
281
     0
  0
CLASS
  1
CELLSTYLEMAP
  2
AcDbCellStyleMap
  3
ObjectDBX Classes
 90
     1152
 91
       14
280
     0
281
     0
  0
CLASS
  1
EXACXREFPANELOBJECT
  2
ExAcXREFPanelObject
  3
EXAC_ESW
 90
     1025
 91
        0
280
     0
281
     0
  0
CLASS
  1
NPOCOLLECTION
  2
AcDbImpNonPersistentObjectsCollection
  3
ObjectDBX Classes
 90
     1153
 91
        0
280
     0
281
     0
  0
CLASS
  1
LAYER_INDEX
  2
AcDbLayerIndex
  3
ObjectDBX Classes
 90
        0
 91
        0
280
     0
281
     0
  0
CLASS
  1
SPATIAL_INDEX
  2
AcDbSpatialIndex
  3
ObjectDBX Classes
 90
        0
 91
        0
280
     0
281
     0
  0
CLASS
  1
IDBUFFER
  2
AcDbIdBuffer
  3
ObjectDBX Classes
 90
        0
 91
        0
280
     0
281
     0
  0
CLASS
  1
ACDBSECTIONVIEWSTYLE
  2
AcDbSectionViewStyle
  3
ObjectDBX Classes
 90
     1025
 91
        2
280
     0
281
     0
  0
CLASS
  1
ACDBDETAILVIEWSTYLE
  2
AcDbDetailViewStyle
  3
ObjectDBX Classes
 90
     1025
 91
        2
280
     0
281
     0
  0
CLASS
  1
DMMAPMANAGER
  2
AcMapDMMapManager
  3
AcMapDisplayManagement
 90
     1024
 91
        1
280
     0
281
     0
  0
CLASS
  1
DMSTYLELIBRARY
  2
AcMapDMStyleLibrary
  3
AcMapDisplayManagement
 90
     1024
 91
        1
280
     0
281
     0
  0
CLASS
  1
DMSTYLECATEGORY
  2
AcMapDMStyleCategory
  3
AcMapDisplayManagement
 90
     1024
 91
        1
280
     0
281
     0
  0
CLASS
  1
DATATABLE
  2
AcDbDataTable
  3
ObjectDBX Classes
 90
        0
 91
        1
280
     0
281
     0
  0
CLASS
  1
MAPRESOURCEMANAGEROBJECT
  2
AcMapResourceManager
  3
AcMapSharedComponents
 90
     1024
 91
        1
280
     0
281
     0
  0
CLASS
  1
MAPGWSUNDOOBJECT
  2
AcMapGWSUndoRecorder
  3
AcMapFeatureSourceManager
 90
     1025
 91
        1
280
     0
281
     0
  0
CLASS
  1
DMMAP
  2
AcMapDMMap
  3
AcMapDisplayManagement
 90
     1024
 91
        1
280
     0
281
     0
  0
CLASS
  1
DMBASEELEMENT
  2
AcMapDMBaseElement
  3
AcMapDisplayManagement
 90
     1024
 91
        1
280
     0
281
     0
  0
CLASS
  1
DMDEFAULTSTYLE
  2
AcMapDMDefaultStyle
  3
AcMapDisplayManagement
 90
     1024
 91
        1
280
     0
281
     0
  0
CLASS
  1
DMSTYLEREFERENCE
  2
AcMapDMStyleReference
  3
AcMapDisplayManagement
 90
     1024
 91
        1
280
     0
281
     0
  0
CLASS
  1
DMSURROGATESTYLESETS
  2
AcMapDMSurrogateStyleSets
  3
AcMapDisplayManagement
 90
     1153
 91
        1
280
     0
281
     0
  0
CLASS
  1
SORTENTSTABLE
  2
AcDbSortentsTable
  3
ObjectDBX Classes
 90
        0
 91
        1
280
     0
281
     0
  0
CLASS
  1
DMSTYLIZEDENTITIESTABLE
  2
AcMapDMStylizedEntitiesTable
  3
AcMapDisplayManagement
 90
     1024
 91
        1
280
     0
281
     0
  0
CLASS
  1
SUN
  2
AcDbSun
  3
SCENEOE
 90
     1153
 91
        1
280
     0
281
     0
  0
CLASS
  1
IRD_DSC_DICT
  2
CIrdDscDict
  3
"IRD"
 90
     1025
 91
        1
280
     0
281
     0
  0
CLASS
  1
IRD_DSC_RECORD
  2
CIrdDscRecord
  3
"IRD"
 90
     1025
 91
        3
280
     0
281
     0
  0
CLASS
  1
IRD_OBJ_RECORD
  2
CIrdObjRecord
  3
"IRD"
 90
     1025
 91
        0
280
     0
281
     0
  0
ENDSEC
  0
SECTION
  2
TABLES
  0
TABLE
  2
VPORT
  5
8
330
0
100
AcDbSymbolTable
 70
     1
1001
ACAD
1000
DbSaveVer
1071
      122
  0
VPORT
  5
94
330
8
100
AcDbSymbolTableRecord
100
AcDbViewportTableRecord
  2
*Active
 70
     0
 10
0.0
 20
0.0
 11
1.0
 21
1.0
 12
13123.4767140702
 22
343518.5328953808
 13
0.0
 23
0.0
 14
0.5
 24
0.5
 15
0.5
 25
0.5
 16
0.0
 26
0.0
 36
1.0
 17
0.0
 27
0.0
 37
0.0
 40
23846.43678338995
 41
1.736998514115899
 42
50.0
 43
0.0
 44
0.0
 50
0.0
 51
0.0
 71
     0
 72
  1000
 73
     1
 74
     3
 75
     0
 76
     0
 77
     0
 78
     0
281
     0
 65
     1
110
0.0
120
0.0
130
0.0
111
1.0
121
0.0
131
0.0
112
0.0
122
1.0
132
0.0
 79
     0
146
0.0
348
9F
 60
     3
 61
     5
292
     1
282
     1
141
0.0
142
0.0
 63
   250
421
  3355443
361
217
1001
ACAD_NAV_VCDISPLAY
1070
     3
  0
ENDTAB
  0
TABLE
  2
LTYPE
  5
5
330
0
100
AcDbSymbolTable
 70
     3
  0
LTYPE
  5
14
330
5
100
AcDbSymbolTableRecord
100
AcDbLinetypeTableRecord
  2
ByBlock
 70
     0
  3

 72
    65
 73
     0
 40
0.0
  0
LTYPE
  5
15
330
5
100
AcDbSymbolTableRecord
100
AcDbLinetypeTableRecord
  2
ByLayer
 70
     0
  3

 72
    65
 73
     0
 40
0.0
  0
LTYPE
  5
16
330
5
100
AcDbSymbolTableRecord
100
AcDbLinetypeTableRecord
  2
Continuous
 70
     0
  3
Solid line
 72
    65
 73
     0
 40
0.0
  0
LTYPE
  5
265
330
5
100
AcDbSymbolTableRecord
100
AcDbLinetypeTableRecord
  2
STRP1
 70
     0
  3
strichpunktierte linie fuer einbauteile
 72
    65
 73
     4
 40
0.4100000000000001
 49
0.25
 74
     0
 49
-0.06
 74
     0
 49
0.04
 74
     0
 49
-0.06
 74
     0
  0
LTYPE
  5
266
330
5
100
AcDbSymbolTableRecord
100
AcDbLinetypeTableRecord
  2
PT1
 70
     0
  3
punktierte linie - eng
 72
    65
 73
     2
 40
0.07
 49
0.02
 74
     0
 49
-0.05
 74
     0
  0
ENDTAB
  0
TABLE
  2
LAYER
  5
2
102
{ACAD_XDICTIONARY
360
18E
102
}
330
0
100
AcDbSymbolTable
 70
     3
  0
LAYER
  5
10
102
{ACAD_XDICTIONARY
360
E6
102
}
330
2
100
AcDbSymbolTableRecord
100
AcDbLayerTableRecord
  2
0
 70
     0
 62
     7
  6
Continuous
370
    -3
390
F
347
98
348
0
  0
LAYER
  5
50B
330
2
100
AcDbSymbolTableRecord
100
AcDbLayerTableRecord
  2
Straßenverlauf_ACHS
 70
     0
 62
    50
  6
Continuous
370
    -3
390
F
347
98
348
0
  0
LAYER
  5
547
330
2
100
AcDbSymbolTableRecord
100
AcDbLayerTableRecord
  2
Straßenverlauf_FBRD
 70
     0
 62
    10
  6
Continuous
370
    -3
390
F
347
98
348
0
  0
ENDTAB
  0
TABLE
  2
STYLE
  5
3
330
0
100
AcDbSymbolTable
 70
     3
  0
STYLE
  5
11
330
3
100
AcDbSymbolTableRecord
100
AcDbTextStyleTableRecord
  2
Standard
 70
     0
 40
0.0
 41
1.0
 50
0.0
 71
     0
 42
0.2
  3
arial.ttf
  4

1001
ACAD
1000
Arial
1071
       34
  0
STYLE
  5
DC
330
3
100
AcDbSymbolTableRecord
100
AcDbTextStyleTableRecord
  2
Beschriftung
 70
     0
 40
0.0
 41
1.0
 50
0.0
 71
     0
 42
0.2
  3
arial.ttf
  4

1001
AcadAnnotative
1000
AnnotativeData
1002
{
1070
     1
1070
     1
1002
}
1001
ACAD
1000
Arial
1071
       34
  0
STYLE
  5
20C
330
3
100
AcDbSymbolTableRecord
100
AcDbTextStyleTableRecord
  2
Legend
 70
     0
 40
0.0
 41
1.0
 50
0.0
 71
     0
 42
0.2
  3
calibri.ttf
  4

1001
ACAD
1000
Calibri
1071
       80
  0
ENDTAB
  0
TABLE
  2
VIEW
  5
6
330
0
100
AcDbSymbolTable
 70
     3
  0
ENDTAB
  0
TABLE
  2
UCS
  5
7
330
0
100
AcDbSymbolTable
 70
     0
  0
ENDTAB
  0
TABLE
  2
APPID
  5
9
330
0
100
AcDbSymbolTable
 70
    14
  0
APPID
  5
12
330
9
100
AcDbSymbolTableRecord
100
AcDbRegAppTableRecord
  2
ACAD
 70
     0
  0
APPID
  5
DD
330
9
100
AcDbSymbolTableRecord
100
AcDbRegAppTableRecord
  2
AcadAnnoPO
 70
     0
  0
APPID
  5
DE
330
9
100
AcDbSymbolTableRecord
100
AcDbRegAppTableRecord
  2
AcadAnnotative
 70
     0
  0
APPID
  5
DF
330
9
100
AcDbSymbolTableRecord
100
AcDbRegAppTableRecord
  2
ACAD_DSTYLE_DIMJAG
 70
     0
  0
APPID
  5
E0
330
9
100
AcDbSymbolTableRecord
100
AcDbRegAppTableRecord
  2
ACAD_DSTYLE_DIMTALN
 70
     0
  0
APPID
  5
107
330
9
100
AcDbSymbolTableRecord
100
AcDbRegAppTableRecord
  2
ACAD_MLEADERVER
 70
     0
  0
APPID
  5
1A6
330
9
100
AcDbSymbolTableRecord
100
AcDbRegAppTableRecord
  2
ACAD_NAV_VCDISPLAY
 70
     0
  0
APPID
  5
210
330
9
100
AcDbSymbolTableRecord
100
AcDbRegAppTableRecord
  2
AcMapDMDisplayStyleRegapp
 70
     0
  0
APPID
  5
21A
330
9
100
AcDbSymbolTableRecord
100
AcDbRegAppTableRecord
  2
ADE
 70
     0
  0
APPID
  5
21F
330
9
100
AcDbSymbolTableRecord
100
AcDbRegAppTableRecord
  2
DCO15
 70
     0
  0
APPID
  5
221
330
9
100
AcDbSymbolTableRecord
100
AcDbRegAppTableRecord
  2
MapGWS
 70
     0
  0
APPID
  5
32B
330
9
100
AcDbSymbolTableRecord
100
AcDbRegAppTableRecord
  2
ADE_PROJECTION
 70
     0
  0
APPID
  5
343
330
9
100
AcDbSymbolTableRecord
100
AcDbRegAppTableRecord
  2
AcMap_E615D161-C9D7-11d3-839F-0060B0FB6B57
 70
     0
  0
APPID
  5
347
330
9
100
AcDbSymbolTableRecord
100
AcDbRegAppTableRecord
  2
IRD
 70
     0
  0
ENDTAB
  0
TABLE
  2
DIMSTYLE
  5
A
330
0
100
AcDbSymbolTable
 70
     2
100
AcDbDimStyleTable
 71
     2
340
27
340
E1
  0
DIMSTYLE
105
27
330
A
100
AcDbSymbolTableRecord
100
AcDbDimStyleTableRecord
  2
Standard
 70
     0
340
11
  0
DIMSTYLE
105
E1
330
A
100
AcDbSymbolTableRecord
100
AcDbDimStyleTableRecord
  2
Beschriftung
 70
     0
 40
0.0
340
11
1001
AcadAnnotative
1000
AnnotativeData
1002
{
1070
     1
1070
     1
1002
}
1001
ACAD_DSTYLE_DIMJAG
1070
   388
1040
1.5
1001
ACAD_DSTYLE_DIMTALN
1070
   392
1070
     0
  0
ENDTAB
  0
TABLE
  2
BLOCK_RECORD
  5
1
330
0
100
AcDbSymbolTable
 70
     1
  0
BLOCK_RECORD
  5
1F
102
{ACAD_XDICTIONARY
360
15D
102
}
330
1
100
AcDbSymbolTableRecord
100
AcDbBlockTableRecord
  2
*Model_Space
340
22
 70
     0
280
     1
281
     0
  0
BLOCK_RECORD
  5
58
330
1
100
AcDbSymbolTableRecord
100
AcDbBlockTableRecord
  2
*Paper_Space
340
59
 70
     0
280
     1
281
     0
  0
BLOCK_RECORD
  5
5D
330
1
100
AcDbSymbolTableRecord
100
AcDbBlockTableRecord
  2
*Paper_Space0
340
5E
 70
     0
280
     1
281
     0
  0
ENDTAB
  0
ENDSEC
  0
SECTION
  2
BLOCKS
  0
BLOCK
  5
20
330
1F
100
AcDbEntity
  8
0
100
AcDbBlockBegin
  2
*Model_Space
 70
     0
 10
0.0
 20
0.0
 30
0.0
  3
*Model_Space
  1

  0
ENDBLK
  5
21
330
1F
100
AcDbEntity
  8
0
100
AcDbBlockEnd
  0
BLOCK
  5
5A
330
58
100
AcDbEntity
 67
     1
  8
0
100
AcDbBlockBegin
  2
*Paper_Space
 70
     0
 10
0.0
 20
0.0
 30
0.0
  3
*Paper_Space
  1

  0
ENDBLK
  5
5B
330
58
100
AcDbEntity
 67
     1
  8
0
100
AcDbBlockEnd
  0
BLOCK
  5
5F
330
5D
100
AcDbEntity
 67
     1
  8
0
100
AcDbBlockBegin
  2
*Paper_Space0
 70
     0
 10
0.0
 20
0.0
 30
0.0
  3
*Paper_Space0
  1

  0
ENDBLK
  5
60
330
5D
100
AcDbEntity
 67
     1
  8
0
100
AcDbBlockEnd
  0
ENDSEC
  0
SECTION
  2
ENTITIES
  0
LWPOLYLINE
  5
C0C
330
1F
100
AcDbEntity
  8
Straßenverlauf_ACHS
100
AcDbPolyline
 90
       92
 70
     0
 43
0.0
 10
17172.77909999993
 20
362081.3017999996
 10
17165.12839999981
 20
362098.0292000008
 10
17157.09509999957
 20
362114.5764000007
 10
17148.68350000027
 20
362130.9343999997
 10
17148.21410000045
 20
362131.8204999994
 10
17147.74370000045
 20
362132.7061000001
 10
17147.27219999954
 20
362133.5910999999
 10
17146.79970000032
 20
362134.4756000005
 10
17146.32610000018
 20
362135.3595000003
 10
17145.8515999997
 20
362136.2429000009
 10
17145.37619999982
 20
362137.1258000005
 10
17144.89969999995
 20
362138.0081999991
 10
17144.42239999957
 20
362138.8901000005
 10
17143.94419999979
 20
362139.7715000008
 10
17143.46509999968
 20
362140.6524000001
 10
17142.98519999999
 20
362141.5329
 10
17142.5044999998
 20
362142.4129000008
 10
17142.02300000004
 20
362143.2926000003
 10
17141.54079999961
 20
362144.1718000006
 10
17141.0577999996
 20
362145.0505999997
 10
17140.57409999985
 20
362145.9289999996
 10
17140.08970000036
 20
362146.8070000001
 10
17139.60470000002
 20
362147.6846999992
 10
17139.11899999995
 20
362148.5620000008
 10
17138.63269999996
 20
362149.4388999995
 10
17138.14580000005
 20
362150.3156000004
 10
17137.65840000007
 20
362151.1919
 10
17137.17040000018
 20
362152.068
 10
17136.68200000003
 20
362152.9437000007
 10
17136.19299999997
 20
362153.8191999999
 10
17135.70349999983
 20
362154.6943999995
 10
17135.2137000002
 20
362155.5693999995
 10
17134.72339999955
 20
362156.4441
 10
17134.23269999958
 20
362157.3187000006
 10
17133.74170000013
 20
362158.193
 10
17133.25030000042
 20
362159.0670999996
 10
17132.75860000029
 20
362159.9410999995
 10
17132.26659999974
 20
362160.8148999996
 10
17131.7742999997
 20
362161.6885000002
 10
17131.2818
 20
362162.5620000009
 10
17130.7890999997
 20
362163.4353999998
 10
17130.29619999975
 20
362164.3085999992
 10
17129.80310000013
 20
362165.1818000004
 10
17129.30979999993
 20
362166.0549
 10
17128.81649999972
 20
362166.9278999995
 10
17128.32299999986
 20
362167.8008999992
 10
17127.82949999999
 20
362168.673800001
 10
17127.3359000003
 20
362169.5467000008
 10
17126.84229999967
 20
362170.4196000006
 10
17067.59300000034
 20
362275.1948000007
 10
17067.0867999997
 20
362276.0900999997
 10
17066.58079999964
 20
362276.9857000001
 10
17066.07529999967
 20
362277.8815000002
 10
17065.57070000004
 20
362278.7776999995
 10
17065.0669999998
 20
362279.6744999997
 10
17064.56469999999
 20
362280.5721000005
 10
17064.06400000024
 20
362281.4705999997
 10
17063.56510000024
 20
362282.3701000009
 10
17063.06840000022
 20
362283.2707000003
 10
17062.57400000002
 20
362284.172700001
 10
17062.08229999989
 20
362285.0760999993
 10
17061.59350000042
 20
362285.9811000004
 10
17061.10790000018
 20
362286.8879000004
 10
17060.62579999957
 20
362287.7963999994
 10
17060.14740000013
 20
362288.7070000004
 10
17059.67300000041
 20
362289.6195999999
 10
17059.20289999991
 20
362290.5344999992
 10
17058.73739999998
 20
362291.4517000001
 10
17058.27680000011
 20
362292.3714000005
 10
17057.82129999995
 20
362293.2936000005
 10
17057.37119999994
 20
362294.2184999995
 10
17056.92679999955
 20
362295.1460999996
 10
17056.48849999997
 20
362296.0766000003
 10
17056.05640000012
 20
362297.0099999998
 10
17055.63100000005
 20
362297.9464999996
 10
17055.21239999961
 20
362298.8859999999
 10
17054.80109999981
 20
362299.8287000005
 10
17054.39719999954
 20
362300.7747000009
 10
17054.00109999999
 20
362301.7238999997
 10
17053.61309999972
 20
362302.6765000001
 10
17053.23359999992
 20
362303.6325000003
 10
17052.8627000004
 20
362304.5919000003
 10
17052.50090000033
 20
362305.5547000002
 10
17052.14850000013
 20
362306.5209999997
 10
17051.80570000037
 20
362307.4908000007
 10
17049.44529999979
 20
362315.2894000001
 10
17047.72759999987
 20
362323.2542000003
 10
17046.6640999997
 20
362331.3324999996
 10
17046.26169999968
 20
362339.4704999999
 10
17046.52329999953
 20
362347.6142999996
 10
17047.44689999986
 20
362355.7096999995
 10
17049.02660000045
 20
362363.7030999996
1001
AcMap_E615D161-C9D7-11d3-839F-0060B0FB6B57
1071
        1
1071
       16
  0
LWPOLYLINE
  5
C0D
330
1F
100
AcDbEntity
  8
Straßenverlauf_ACHS
100
AcDbPolyline
 90
        9
 70
     0
 43
0.0
 10
16962.68589999992
 20
362329.274700001
 10
16960.34420000017
 20
362322.705600001
 10
16959.90519999992
 20
362321.0984000005
 10
16959.71410000045
 20
362319.4431999997
 10
16959.7751000002
 20
362317.7782000006
 10
16960.0867999997
 20
362316.1415999998
 10
16960.64219999965
 20
362314.5706999991
 10
16961.42839999962
 20
362313.1018000003
 10
16977.59949999954
 20
362287.7186999992
1001
AcMap_E615D161-C9D7-11d3-839F-0060B0FB6B57
1071
        1
1071
       16
  0
LWPOLYLINE
  5
C0E
330
1F
100
AcDbEntity
  8
Straßenverlauf_ACHS
100
AcDbPolyline
 90
       17
 70
     0
 43
0.0
 10
16962.68589999992
 20
362329.274700001
 10
16966.61429999955
 20
362328.2254000009
 10
16970.66079999972
 20
362327.8268999998
 10
16974.71850000042
 20
362328.0895000007
 10
16978.67989999987
 20
362329.0065000001
 10
16982.44020000007
 20
362330.5535000004
 10
16985.90000000037
 20
362332.6896000002
 10
16988.96779999975
 20
362335.3583000004
 10
17010.89209999982
 20
362357.8131000009
 10
17014.20770000014
 20
362360.7420000006
 10
17017.91810000036
 20
362363.1514999997
 10
17021.94240000006
 20
362364.9890999999
 10
17026.19319999963
 20
362366.2149000001
 10
17030.57809999958
 20
362366.8022000007
 10
17035.00160000007
 20
362366.7381999996
 10
17039.36770000029
 20
362366.0243999996
 10
17049.02660000045
 20
362363.7030999996
1001
AcMap_E615D161-C9D7-11d3-839F-0060B0FB6B57
1071
        1
1071
       16
  0
LWPOLYLINE
  5
C0F
330
1F
100
AcDbEntity
  8
Straßenverlauf_ACHS
100
AcDbPolyline
 90
        3
 70
     0
 43
0.0
 10
16962.68589999992
 20
362329.274700001
 10
16962.44350000005
 20
362329.3626000006
 10
16906.20610000007
 20
362350.0653000009
1001
AcMap_E615D161-C9D7-11d3-839F-0060B0FB6B57
1071
        1
1071
       16
  0
LWPOLYLINE
  5
C10
330
1F
100
AcDbEntity
  8
Straßenverlauf_ACHS
100
AcDbPolyline
 90
      415
 70
     0
 43
0.0
 10
17049.02660000045
 20
362363.7030999996
 10
17051.16889999993
 20
362371.2880000006
 10
17053.90199999977
 20
362378.6807000004
 10
17057.20870000031
 20
362385.8352000006
 10
17061.06869999971
 20
362392.7070000004
 10
17065.4578999998
 20
362399.2534999997
 10
17070.34900000039
 20
362405.4339000006
 10
17075.71160000004
 20
362411.2100000009
 10
17076.42379999999
 20
362411.9119000007
 10
17077.14279999956
 20
362412.6068999991
 10
17077.86840000003
 20
362413.2949999999
 10
17078.60020000022
 20
362413.9765000008
 10
17079.33810000028
 20
362414.6514999997
 10
17080.08169999998
 20
362415.3200000004
 10
17080.83090000041
 20
362415.9824000001
 10
17081.58540000021
 20
362416.6386999991
 10
17082.34499999974
 20
362417.2891000006
 10
17083.10940000042
 20
362417.9338000007
 10
17083.87849999964
 20
362418.5730000008
 10
17084.65199999977
 20
362419.2068000008
 10
17085.42970000021
 20
362419.8354000002
 10
17086.21140000038
 20
362420.4590000007
 10
17086.99689999968
 20
362421.0778999999
 10
17087.78600000031
 20
362421.6921999995
 10
17088.57849999983
 20
362422.3019999992
 10
17089.37420000043
 20
362422.9077000003
 10
17090.17289999965
 20
362423.5094000008
 10
17090.97449999954
 20
362424.1073000003
 10
17091.77869999967
 20
362424.7017000001
 10
17092.58540000021
 20
362425.2927000001
 10
17093.39429999981
 20
362425.8805
 10
17094.20540000032
 20
362426.4653999992
 10
17095.01850000024
 20
362427.047700001
 10
17095.83330000006
 20
362427.6273999997
 10
17096.64969999995
 20
362428.2049000003
 10
17097.46750000026
 20
362428.7803000007
 10
17098.28670000005
 20
362429.3539000005
 10
17099.10690000001
 20
362429.9258999992
 10
17099.92810000013
 20
362430.4966000002
 10
17100.75009999983
 20
362431.0660999995
 10
17101.57270000037
 20
362431.6346000005
 10
17102.39580000005
 20
362432.2026000005
 10
17103.21920000017
 20
362432.7699999996
 10
17104.04279999994
 20
362433.3372000009
 10
17107.89190000016
 20
362435.988
 10
17108.73089999985
 20
362436.5658
 10
17109.56969999988
 20
362437.1437999997
 10
17110.40840000007
 20
362437.7221000008
 10
17111.24660000019
 20
362438.3010000009
 10
17112.08440000005
 20
362438.8805999998
 10
17112.92150000017
 20
362439.4611000009
 10
17113.75789999962
 20
362440.0427000001
 10
17114.59350000042
 20
362440.6253999993
 10
17115.4280000003
 20
362441.2095999998
 10
17116.26150000002
 20
362441.7953999993
 10
17117.09370000008
 20
362442.3829999995
 10
17117.92449999973
 20
362442.9725000002
 10
17118.75380000006
 20
362443.5640999992
 10
17119.58150000032
 20
362444.1579999999
 10
17120.40739999991
 20
362444.7543000002
 10
17121.23139999993
 20
362445.3532999996
 10
17122.05339999962
 20
362445.9550000001
 10
17122.87330000009
 20
362446.5596999992
 10
17123.69079999998
 20
362447.1675000004
 10
17124.50580000039
 20
362447.7785999999
 10
17125.31830000039
 20
362448.3932000007
 10
17126.12799999956
 20
362449.0112999995
 10
17126.93489999976
 20
362449.6333000009
 10
17127.73859999981
 20
362450.2590999995
 10
17128.53920000046
 20
362450.8890000004
 10
17129.33650000021
 20
362451.5231999998
 10
17130.13030000031
 20
362452.1616999992
 10
17130.92030000034
 20
362452.8048000001
 10
17131.70660000015
 20
362453.4525000007
 10
17132.48890000023
 20
362454.1051000003
 10
17133.26699999999
 20
362454.7625999991
 10
17134.04069999978
 20
362455.4252000005
 10
17134.80999999959
 20
362456.0930000003
 10
17135.57459999993
 20
362456.7662000005
 10
17136.33430000022
 20
362457.4449000005
 10
17137.08889999985
 20
362458.1292000004
 10
17137.83839999977
 20
362458.8191999998
 10
17144.8387000002
 20
362465.8301999998
 10
17151.28479999956
 20
362473.3540000003
 10
17157.13910000026
 20
362481.3468999993
 10
17162.36770000029
 20
362489.7623999994
 10
17166.9402999999
 20
362498.5515999999
 10
17170.83019999973
 20
362507.6635999997
 10
17174.01489999983
 20
362517.0452999994
 10
17176.47589999996
 20
362526.6423000005
 10
17178.19880000036
 20
362536.3989000004
 10
17178.33370000031
 20
362537.4086000007
 10
17178.46090000029
 20
362538.4193999991
 10
17178.58059999998
 20
362539.4309999999
 10
17178.69299999997
 20
362540.4434999992
 10
17178.79829999991
 20
362541.4568000008
 10
17178.89670000039
 20
362542.4706999995
 10
17178.98849999998
 20
362543.4853000008
 10
17179.07390000019
 20
362544.5003999993
 10
17179.15299999993
 20
362545.5160000008
 10
17179.22599999979
 20
362546.5320999995
 10
17179.29330000002
 20
362547.5485999994
 10
17179.35500000044
 20
362548.5654000007
 10
17179.4112999998
 20
362549.5825999994
 10
17179.46239999961
 20
362550.5999999997
 10
17179.50850000046
 20
362551.6176999994
 10
17179.54989999998
 20
362552.6356000007
 10
17179.5867999997
 20
362553.6535999998
 10
17179.6194000002
 20
362554.6718000006
 10
17179.64790000021
 20
362555.6900999993
 10
17179.67250000033
 20
362556.7084999997
 10
17179.69340000022
 20
362557.7269999999
 10
17179.7109000003
 20
362558.7456
 10
17179.72510000039
 20
362559.7642000001
 10
17179.73629999999
 20
362560.7828000002
 10
17179.74480000045
 20
362561.8015000001
 10
17179.75059999991
 20
362562.8202
 10
17179.75399999972
 20
362563.8388999999
 10
17179.75530000031
 20
362564.8575999998
 10
17179.75470000039
 20
362565.8762999997
 10
17179.75229999982
 20
362566.8949999996
 10
17179.74839999992
 20
362567.9136999995
 10
17179.7433000002
 20
362568.9323999994
 10
17179.73699999973
 20
362569.9510999993
 10
17179.72989999968
 20
362570.9697999992
 10
17179.7220999999
 20
362571.9885000009
 10
17179.71389999985
 20
362573.0072000008
 10
17179.70550000015
 20
362574.0258000009
 10
17178.8646999998
 20
362675.4044000004
 10
17178.8563000001
 20
362676.4167999998
 10
17178.84769999981
 20
362677.4293000009
 10
17178.83889999986
 20
362678.4418000002
 10
17178.82969999965
 20
362679.4541999996
 10
17178.8200000003
 20
362680.4667000007
 10
17178.8097000001
 20
362681.4791000001
 10
17178.79860000033
 20
362682.4915999994
 10
17178.78660000022
 20
362683.5040000007
 10
17178.77359999995
 20
362684.5164000001
 10
17178.75939999986
 20
362685.5287999995
 10
17178.74390000012
 20
362686.5412000008
 10
17178.72699999995
 20
362687.5535000004
 10
17178.70859999955
 20
362688.5658999999
 10
17178.68850000016
 20
362689.5781999994
 10
17178.66669999994
 20
362690.5903999992
 10
17178.64290000032
 20
362691.6027000007
 10
17178.61699999962
 20
362692.6148000006
 10
17178.58899999969
 20
362693.6269000005
 10
17178.55869999993
 20
362694.6390000005
 10
17178.52589999977
 20
362695.6510000006
 10
17178.49060000013
 20
362696.6627999991
 10
17178.45260000042
 20
362697.6745999995
 10
17178.41179999988
 20
362698.6863000002
 10
17178.36799999978
 20
362699.6978999991
 10
17178.32110000029
 20
362700.7093000003
 10
17178.27109999954
 20
362701.7204999999
 10
17178.21769999992
 20
362702.7315999996
 10
17178.16089999955
 20
362703.7424999997
 10
17178.10049999971
 20
362704.7532000002
 10
17178.03639999963
 20
362705.7636999991
 10
17177.96839999966
 20
362706.7739000004
 10
17177.8964999998
 20
362707.7839000002
 10
17177.82050000038
 20
362708.7935000007
 10
17177.74029999971
 20
362709.8027999998
 10
17177.6557
 20
362710.8117999993
 10
17177.56670000031
 20
362711.8203999997
 10
17177.47300000023
 20
362712.8285000008
 10
17177.37469999958
 20
362713.8362000007
 10
17177.2714999998
 20
362714.8434999995
 10
17177.16330000013
 20
362715.8501999993
 10
17176.09779999964
 20
362723.9952000007
 10
17174.6986999996
 20
362732.0895000007
 10
17174.50329999998
 20
362733.0830000006
 10
17174.3030000003
 20
362734.0755000003
 10
17174.09800000023
 20
362735.0669999998
 10
17173.88819999993
 20
362736.0574999992
 10
17173.67399999965
 20
362737.0471000001
 10
17173.45540000033
 20
362738.0357000009
 10
17173.23259999975
 20
362739.0233999994
 10
17173.0055999998
 20
362740.0100999996
 10
17172.77460000012
 20
362740.9958999996
 10
17172.53980000037
 20
362741.9807999991
 10
17172.30119999963
 20
362742.9648000002
 10
17172.05900000036
 20
362743.9478999991
 10
17171.81340000033
 20
362744.9301999994
 10
17171.56429999973
 20
362745.9115999993
 10
17171.31209999975
 20
362746.8921000008
 10
17171.05669999961
 20
362747.8718999997
 10
17170.79839999974
 20
362748.8509
 10
17170.53720000014
 20
362749.8290999998
 10
17170.27329999953
 20
362750.8066000007
 10
17170.00679999962
 20
362751.7833999992
 10
17169.73790000006
 20
362752.7595000007
 10
17169.46650000009
 20
362753.7349999994
 10
17169.19299999997
 20
362754.7098999992
 10
17168.91739999968
 20
362755.6841000002
 10
17168.6398
 20
362756.6578000002
 10
17168.36029999982
 20
362757.6309999991
 10
17168.07909999974
 20
362758.6037000008
 10
17167.79640000034
 20
362759.5758999996
 10
17167.51209999993
 20
362760.547700001
 10
17167.22649999987
 20
362761.5189999994
 10
17166.93969999998
 20
362762.4901000001
 10
17166.65170000028
 20
362763.4607999996
 10
17166.36280000023
 20
362764.4311999996
 10
17166.07299999986
 20
362765.4013000001
 10
17165.78249999974
 20
362766.3712000009
 10
17165.49139999971
 20
362767.3410000001
 10
17165.19969999976
 20
362768.3105999995
 10
17164.90780000016
 20
362769.2799999993
 10
17164.6155000003
 20
362770.2495000009
 10
17164.32320000045
 20
362771.2188000009
 10
17163.0708999997
 20
362775.3706000001
 10
17162.77759999968
 20
362776.3432
 10
17162.48440000042
 20
362777.3158999998
 10
17162.19149999972
 20
362778.2885999997
 10
17161.89910000004
 20
362779.2614999992
 10
17161.60740000009
 20
362780.2346000001
 10
17161.31639999989
 20
362781.2079000007
 10
17161.02639999985
 20
362782.181500001
 10
17160.73739999998
 20
362783.1554000005
 10
17160.44979999959
 20
362784.1296999995
 10
17160.16349999979
 20
362785.1043999996
 10
17159.87880000006
 20
362786.0796000008
 10
17159.59580000024
 20
362787.0551999994
 10
17159.31479999982
 20
362788.0314000007
 10
17159.03569999989
 20
362789.0081999991
 10
17158.75889999978
 20
362789.9857000001
 10
17158.48450000025
 20
362790.9638000001
 10
17158.21250000037
 20
362791.9426000007
 10
17157.94330000039
 20
362792.9221000001
 10
17157.67690000031
 20
362793.9024000001
 10
17157.41349999979
 20
362794.8836000003
 10
17157.15330000035
 20
362795.8654999994
 10
17156.89630000014
 20
362796.8484000005
 10
17156.64290000032
 20
362797.8321000003
 10
17156.39319999981
 20
362798.8168000002
 10
17156.14719999954
 20
362799.8025000002
 10
17155.90519999992
 20
362800.7891000006
 10
17155.66739999968
 20
362801.7767999992
 10
17155.43389999959
 20
362802.7654
 10
17155.20480000041
 20
362803.7551000007
 10
17154.98029999993
 20
362804.7458999996
 10
17154.76070000045
 20
362805.7377000004
 10
17154.54600000009
 20
362806.7306999993
 10
17154.33640000038
 20
362807.7247000002
 10
17154.13219999987
 20
362808.7197999992
 10
17153.93340000044
 20
362809.716
 10
17153.74019999988
 20
362810.7134000007
 10
17153.55279999971
 20
362811.7117999997
 10
17153.37139999959
 20
362812.7114000004
 10
17153.19610000029
 20
362813.7119999994
 10
17153.0270999996
 20
362814.7137000002
 10
17152.86450000014
 20
362815.7164999992
 10
17152.70859999955
 20
362816.7203000002
 10
17151.62469999958
 20
362825.6557999999
 10
17151.07870000042
 20
362834.6401000005
 10
17151.07259999961
 20
362843.6411000006
 10
17151.6063000001
 20
362852.6261999998
 10
17151.70029999967
 20
362853.6378000006
 10
17151.80109999981
 20
362854.6486000009
 10
17151.90830000024
 20
362855.6588000004
 10
17152.02190000005
 20
362856.6682999991
 10
17152.14169999957
 20
362857.6771000009
 10
17152.26750000007
 20
362858.6852000002
 10
17152.39910000004
 20
362859.6925000009
 10
17152.53639999963
 20
362860.6989999991
 10
17152.67929999996
 20
362861.7048000005
 10
17152.82749999966
 20
362862.7097999994
 10
17152.98080000002
 20
362863.7139999997
 10
17153.13920000009
 20
362864.7174999994
 10
17153.30250000022
 20
362865.7201000005
 10
17153.47039999999
 20
362866.7219999992
 10
17153.64279999956
 20
362867.7232000008
 10
17153.81969999987
 20
362868.7235000003
 10
17154.00069999974
 20
362869.7232000008
 10
17154.18570000026
 20
362870.7219999991
 10
17154.37459999975
 20
362871.7202000004
 10
17154.5672000004
 20
362872.7175999992
 10
17154.76329999976
 20
362873.7144000009
 10
17154.96279999986
 20
362874.7105000001
 10
17155.16550000012
 20
362875.7059000005
 10
17155.37129999976
 20
362876.7007
 10
17155.57990000024
 20
362877.6950000003
 10
17155.79129999969
 20
362878.6886
 10
17156.00530000031
 20
362879.6817000006
 10
17156.22159999981
 20
362880.6743000001
 10
17156.44020000007
 20
362881.6663000006
 10
17156.66079999972
 20
362882.6579
 10
17156.8833999997
 20
362883.6491000001
 10
17157.10780000035
 20
362884.6399000007
 10
17157.33370000031
 20
362885.6304000001
 10
17157.56109999958
 20
362886.6205000002
 10
17157.78969999961
 20
362887.6103000008
 10
17158.0195000004
 20
362888.5998
 10
17158.25019999966
 20
362889.5890999995
 10
17158.48170000035
 20
362890.5782999993
 10
17158.71389999986
 20
362891.5672999993
 10
17158.94649999961
 20
362892.5560999997
 10
17159.17949999962
 20
362893.545
 10
17159.41260000039
 20
362894.5337000005
 10
17165.26180000044
 20
362919.3401999995
 10
17165.49260000046
 20
362920.3192999997
 10
17165.72319999989
 20
362921.2984999996
 10
17165.95330000017
 20
362922.2776999995
 10
17166.18269999977
 20
362923.2572000008
 10
17166.41119999997
 20
362924.2368000001
 10
17166.63850000035
 20
362925.2168000006
 10
17166.86440000031
 20
362926.1970000007
 10
17167.08870000019
 20
362927.1776999999
 10
17167.31099999975
 20
362928.1587000005
 10
17167.53129999991
 20
362929.1403000002
 10
17167.74920000043
 20
362930.1223000009
 10
17167.96449999977
 20
362931.1050000005
 10
17168.17700000014
 20
362932.0881999992
 10
17168.38650000002
 20
362933.0721000004
 10
17168.59260000009
 20
362934.0567000006
 10
17168.79519999958
 20
362935.0420999993
 10
17168.99399999995
 20
362936.0282000006
 10
17169.18879999965
 20
362937.0151000004
 10
17169.37930000014
 20
362938.0028000009
 10
17169.56539999973
 20
362938.9913999997
 10
17169.74670000002
 20
362939.9809000008
 10
17169.92300000041
 20
362940.9713000003
 10
17170.09410000033
 20
362941.9626000002
 10
17170.25980000011
 20
362942.9548000004
 10
17170.41970000043
 20
362943.9480000008
 10
17170.5736999996
 20
362944.9420999997
 10
17170.72149999998
 20
362945.9371000007
 10
17170.86290000006
 20
362946.9331000001
 10
17170.99749999959
 20
362947.9299999997
 10
17171.12530000042
 20
362948.9277999998
 10
17171.24579999968
 20
362949.9265000001
 10
17171.35900000017
 20
362950.926000001
 10
17171.46449999977
 20
362951.9264000002
 10
17171.56209999975
 20
362952.9276000001
 10
17171.65149999968
 20
362953.9296000004
 10
17171.73249999992
 20
362954.9322999995
 10
17171.80489999987
 20
362955.9355999995
 10
17171.86840000003
 20
362956.9396000002
 10
17171.92269999999
 20
362957.9441
 10
17171.96769999992
 20
362958.9489999991
 10
17172.00299999956
 20
362959.9542999994
 10
17172.02840000018
 20
362960.9598999992
 10
17172.01169999968
 20
362965.7243000008
 10
17171.76809999998
 20
362970.4824000001
 10
17171.68769999966
 20
362971.4850999993
 10
17171.59750000015
 20
362972.4869999998
 10
17171.49770000018
 20
362973.4879999999
 10
17171.38860000018
 20
362974.4879999999
 10
17171.27029999997
 20
362975.4869999997
 10
17171.14319999981
 20
362976.4848999996
 10
17171.0075000003
 20
362977.4815999996
 10
17170.86349999997
 20
362978.4771999997
 10
17170.71140000038
 20
362979.4715999999
 10
17170.55140000023
 20
362980.4647000004
 10
17170.38379999995
 20
362981.4565999993
 10
17170.20880000014
 20
362982.4472000003
 10
17170.02670000028
 20
362983.4365999997
 10
17169.83779999986
 20
362984.4245999996
 10
17169.64219999965
 20
362985.4113999996
 10
17169.44020000007
 20
362986.3968000002
 10
17169.23220000043
 20
362987.3809999992
 10
17169.01819999981
 20
362988.3640000001
 10
17168.79860000033
 20
362989.3456999995
 10
17168.57359999977
 20
362990.3260999993
 10
17168.34339999966
 20
362991.3054000009
 10
17168.10830000043
 20
362992.2835000009
 10
17167.86849999986
 20
362993.2603999991
 10
17167.62430000026
 20
362994.2363000009
 10
17167.37579999957
 20
362995.2111000009
 10
17167.12339999992
 20
362996.1848000009
 10
17166.86730000004
 20
362997.1576000006
 10
17166.60769999958
 20
362998.1294999998
 10
17166.34480000008
 20
362999.1005000007
 10
17166.07890000008
 20
363000.0706999992
 10
17165.81020000018
 20
363001.0401000009
 10
17165.53890000004
 20
363002.0088
 10
17165.26539999992
 20
363002.9768000003
 10
17164.9896999998
 20
363003.9442999996
 10
17164.71219999995
 20
363004.9112
 10
17164.43310000002
 20
363005.8775999994
 10
17164.15259999968
 20
363006.8436999991
 10
17163.87090000044
 20
363007.8093999997
 10
17163.58829999994
 20
363008.7748000008
 10
17163.3049999997
 20
363009.7401
 10
17163.02130000014
 20
363010.7051999998
 10
17162.73730000015
 20
363011.6701999996
 10
17141.75820000004
 20
363082.9514000006
 10
17141.47009999957
 20
363083.9308000002
 10
17141.1827999996
 20
363084.9102999996
 10
17140.89719999954
 20
363085.8904
 10
17140.61419999972
 20
363086.8712000009
 10
17140.33440000005
 20
363087.8530000001
 10
17140.05889999959
 20
363088.8358999994
 10
17139.78830000013
 20
363089.8202
 10
17139.52359999995
 20
363090.8061999996
 10
17139.26570000034
 20
363091.7939
 10
17139.01530000008
 20
363092.7835000008
 10
17138.77329999953
 20
363093.7752000001
 10
17138.54059999995
 20
363094.769200001
 10
17138.3180999998
 20
363095.7654999998
 10
17138.10670000035
 20
363096.7642000001
 10
17137.90710000042
 20
363097.7653000001
 10
17137.72030000016
 20
363098.7688999996
 10
17137.54719999991
 20
363099.7749000006
 10
17137.38870000001
 20
363100.7833999992
 10
17137.24560000002
 20
363101.7940999996
 10
17137.11890000012
 20
363102.8070000001
 10
17137.00939999986
 20
363103.8220000006
 10
17136.91810000036
 20
363104.8387000002
 10
17136.84580000024
 20
363105.8570000008
 10
17136.79339999985
 20
363106.8763999995
 10
17136.87299999967
 20
363112.4301999994
 10
17137.56819999963
 20
363117.9409999996
 10
17138.8702999996
 20
363123.3406000007
1001
AcMap_E615D161-C9D7-11d3-839F-0060B0FB6B57
1071
        1
1071
       16
  0
LWPOLYLINE
  5
C11
330
1F
100
AcDbEntity
  8
Straßenverlauf_ACHS
100
AcDbPolyline
 90
       11
 70
     0
 43
0.0
 10
17138.8702999996
 20
363123.3406000007
 10
17133.24789999984
 20
363123.3483000007
 10
17126.29160000011
 20
363123.7200000007
 10
17119.41160000022
 20
363124.8120000009
 10
17112.68209999986
 20
363126.612400001
 10
17106.17590000015
 20
363129.1019000001
 10
17099.96339999977
 20
363132.2533999998
 10
17094.11160000041
 20
363136.0329999998
 10
17088.68400000036
 20
363140.3997000009
 10
17083.73909999989
 20
363145.3063999992
 10
17075.94209999963
 20
363153.8925999999
1001
AcMap_E615D161-C9D7-11d3-839F-0060B0FB6B57
1071
        1
1071
       16
  0
LWPOLYLINE
  5
C12
330
1F
100
AcDbEntity
  8
Straßenverlauf_ACHS
100
AcDbPolyline
 90
       27
 70
     0
 43
0.0
 10
17138.8702999996
 20
363123.3406000007
 10
17139.9093000004
 20
363126.4265000001
 10
17140.2759999996
 20
363127.3792000003
 10
17140.6612999998
 20
363128.3245000001
 10
17141.06410000007
 20
363129.2624999993
 10
17141.48369999975
 20
363130.1930999998
 10
17141.91899999976
 20
363131.1164999996
 10
17142.36919999961
 20
363132.0326000005
 10
17142.83339999989
 20
363132.9418000002
 10
17143.31060000043
 20
363133.8442000002
 10
17143.80009999964
 20
363134.7400000002
 10
17144.30099999997
 20
363135.6294999998
 10
17144.8125
 20
363136.5130000003
 10
17145.33370000031
 20
363137.3906999994
 10
17145.8638000004
 20
363138.2631000001
 10
17146.4020999996
 20
363139.1305
 10
17146.94770000036
 20
363139.9933000003
 10
17147.5
 20
363140.8518000003
 10
17148.05800000019
 20
363141.7065999992
 10
17148.6211000001
 20
363142.5581000001
 10
17149.18859999999
 20
363143.4067000002
 10
17149.75970000028
 20
363144.2528000009
 10
17150.33359999955
 20
363145.0969999992
 10
17150.90979999956
 20
363145.9397
 10
17151.48730000015
 20
363146.7815000006
 10
17152.06549999956
 20
363147.6228
 10
17167.05910000019
 20
363169.4291999993
1001
AcMap_E615D161-C9D7-11d3-839F-0060B0FB6B57
1071
        1
1071
       16
  0
LWPOLYLINE
  5
C13
330
1F
100
AcDbEntity
  8
Straßenverlauf_ACHS
100
AcDbPolyline
 90
        9
 70
     0
 43
0.0
 10
17260.67939999979
 20
363157.0233999994
 10
17258.9785000002
 20
363157.5302000009
 10
17242.16100000031
 20
363162.1447999999
 10
17231.39960000012
 20
363165.2510000002
 10
17220.88190000038
 20
363169.1024999991
 10
17210.65940000024
 20
363173.6804000009
 10
17200.78230000008
 20
363178.9623000007
 10
17191.29879999999
 20
363184.9222
 10
17182.2555999998
 20
363191.5309999995
1001
AcMap_E615D161-C9D7-11d3-839F-0060B0FB6B57
1071
        1
1071
       16
  0
LWPOLYLINE
  5
C14
330
1F
100
AcDbEntity
  8
Straßenverlauf_ACHS
100
AcDbPolyline
 90
       13
 70
     0
 43
0.0
 10
17167.05910000019
 20
363169.4291999993
 10
17172.22190000024
 20
363165.8794
 10
17173.04160000011
 20
363165.2197999992
 10
17173.75320000015
 20
363164.4449000005
 10
17174.34059999976
 20
363163.5720000006
 10
17174.79059999995
 20
363162.6208999995
 10
17175.09289999958
 20
363161.6131999996
 10
17179.03569999989
 20
363143.6634
 10
17179.3228000002
 20
363142.7194999997
 10
17179.75480000023
 20
363141.8325999995
 10
17180.32100000046
 20
363141.0245999993
 10
17181.0072999997
 20
363140.3158999999
 10
17181.61230000015
 20
363139.7826000005
1001
AcMap_E615D161-C9D7-11d3-839F-0060B0FB6B57
1071
        1
1071
       16
  0
LINE
  5
C15
330
1F
100
AcDbEntity
  8
Straßenverlauf_ACHS
100
AcDbLine
 10
17167.05910000019
 20
363169.4291999993
 30
0.0
 11
17182.2555999998
 21
363191.5309999995
 31
0.0
1001
AcMap_E615D161-C9D7-11d3-839F-0060B0FB6B57
1071
        1
1071
       16
  0
LWPOLYLINE
  5
C16
330
1F
100
AcDbEntity
  8
Straßenverlauf_ACHS
100
AcDbPolyline
 90
        7
 70
     0
 43
0.0
 10
17182.2555999998
 20
363191.5309999995
 10
17176.77219999954
 20
363196.0409999993
 10
17171.49430000037
 20
363200.7898999993
 10
17166.99940000009
 20
363205.5037999992
 10
17163.0418999996
 20
363210.6772000007
 10
17159.66849999968
 20
363216.2489999998
 10
17156.91899999976
 20
363222.1536999997
1001
AcMap_E615D161-C9D7-11d3-839F-0060B0FB6B57
1071
        1
1071
       16
  0
LINE
  5
C17
330
1F
100
AcDbEntity
  8
Straßenverlauf_ACHS
100
AcDbLine
 10
17156.91899999976
 20
363222.1536999997
 30
0.0
 11
17122.78959999978
 21
363221.5420999993
 31
0.0
1001
AcMap_E615D161-C9D7-11d3-839F-0060B0FB6B57
1071
        1
1071
       16
  0
LWPOLYLINE
  5
C18
330
1F
100
AcDbEntity
  8
Straßenverlauf_ACHS
100
AcDbPolyline
 90
       10
 70
     0
 43
0.0
 10
17156.91899999976
 20
363222.1536999997
 10
17155.71800000034
 20
363225.4186000004
 10
17154.38729999959
 20
363230.5789000001
 10
17153.80140000023
 20
363235.8758000005
 10
17153.97240000032
 20
363241.2021999993
 10
17154.89659999963
 20
363246.4507
 10
17156.55549999978
 20
363251.5151000005
 10
17158.91550000012
 20
363256.2931999993
 10
17161.92899999954
 20
363260.6885000002
 10
17169.63719999976
 20
363270.3757000007
1001
AcMap_E615D161-C9D7-11d3-839F-0060B0FB6B57
1071
        1
1071
       16
  0
LWPOLYLINE
  5
C19
330
1F
100
AcDbEntity
  8
Straßenverlauf_FBRD
100
AcDbPolyline
 90
        8
 70
     0
 43
0.0
 10
17169.80829999968
 20
362079.9840999991
 10
17161.91189999971
 20
362097.2301000003
 10
17153.60709999967
 20
362114.2832999993
 10
17151.55950000044
 20
362116.0371000004
 10
17149.28189999983
 20
362117.4794999995
 10
17146.82110000029
 20
362118.5808000007
 10
17144.22790000029
 20
362119.3182999995
 10
17141.5558000002
 20
362119.6766999997
1001
AcMap_E615D161-C9D7-11d3-839F-0060B0FB6B57
1071
        1
1071
       17
  0
LWPOLYLINE
  5
C1A
330
1F
100
AcDbEntity
  8
Straßenverlauf_FBRD
100
AcDbPolyline
 90
       16
 70
     0
 43
0.0
 10
17175.75
 20
362082.6195000001
 10
17174.24590000044
 20
362085.9897000008
 10
17173.79289999977
 20
362087.2863999997
 10
17173.56830000039
 20
362088.6414000001
 10
17173.57890000008
 20
362090.0150000006
 10
17173.82419999968
 20
362091.3663999998
 10
17174.29719999991
 20
362092.6559999996
 10
17174.98369999975
 20
362093.8455999997
 10
17175.8635999998
 20
362094.9002999999
 10
17176.91100000031
 20
362095.7888999991
 10
17178.09489999991
 20
362096.4853000008
 10
17179.38049999997
 20
362096.9689000007
 10
17180.72989999968
 20
362097.2254000008
 10
17184.1978000002
 20
362097.2777999994
 10
17187.62260000035
 20
362096.7302000001
 10
17190.90130000003
 20
362095.5991999991
1001
AcMap_E615D161-C9D7-11d3-839F-0060B0FB6B57
1071
        1
1071
       17
  0
LWPOLYLINE
  5
C1B
330
1F
100
AcDbEntity
  8
Straßenverlauf_FBRD
100
AcDbPolyline
 90
       50
 70
     0
 43
0.0
 10
17163.56280000042
 20
362112.3179000001
 10
17163.56120000034
 20
362112.3156000004
 10
17163.52180000022
 20
362112.2381999996
 10
17163.49639999959
 20
362112.1552000009
 10
17163.48579999991
 20
362112.0690000001
 10
17163.49019999988
 20
362111.9823000003
 10
17163.50960000045
 20
362111.8976000007
 10
17163.54330000002
 20
362111.8176000007
 10
17163.59030000027
 20
362111.7445999999
 10
17166.60690000001
 20
362108.1092000008
 10
17168.18699999992
 20
362106.5742000006
 10
17169.9748999998
 20
362105.2871000003
 10
17171.93200000003
 20
362104.2758000009
 10
17174.01620000042
 20
362103.5621000007
 10
17176.18240000028
 20
362103.1612999998
 10
17176.2695000004
 20
362103.1593999993
 10
17176.35570000019
 20
362103.1725999993
 10
17176.43819999974
 20
362103.2006000002
 10
17176.51460000034
 20
362103.2424999997
 10
17176.58260000031
 20
362103.2970000003
 10
17176.64010000042
 20
362103.3625000008
 10
17176.68539999984
 20
362103.4370000009
 10
17176.71700000018
 20
362103.5182000008
 10
17176.73400000017
 20
362103.6037000008
 10
17176.73589999973
 20
362103.6908
 10
17176.72269999981
 20
362103.7770000008
 10
17176.69469999987
 20
362103.8595000003
 10
17176.65280000027
 20
362103.9359000009
 10
17176.59829999972
 20
362104.0039000008
 10
17176.53280000016
 20
362104.0614
 10
17176.45830000005
 20
362104.1066999995
 10
17176.37710000016
 20
362104.1382999998
 10
17176.29160000011
 20
362104.1553000007
 10
17174.26979999989
 20
362104.5294000004
 10
17172.32459999993
 20
362105.1954999995
 10
17170.49799999967
 20
362106.1393999998
 10
17168.82930000033
 20
362107.3406000007
 10
17167.35450000036
 20
362108.7732999995
 10
17164.38100000005
 20
362112.3568999991
 10
17164.32189999986
 20
362112.4209000003
 10
17164.25250000041
 20
362112.4736000002
 10
17164.17499999981
 20
362112.5135999993
 10
17164.09179999959
 20
362112.5394000002
 10
17164.00540000014
 20
362112.5504000001
 10
17163.91830000002
 20
362112.5462999996
 10
17163.83330000005
 20
362112.5271000006
 10
17163.75289999973
 20
362112.4934
 10
17163.67960000038
 20
362112.4463
 10
17163.61560000013
 20
362112.3871999998
 10
17163.56280000042
 20
362112.3179000001
1001
AcMap_E615D161-C9D7-11d3-839F-0060B0FB6B57
1071
        1
1071
       17
  0
LINE
  5
C1C
330
1F
100
AcDbEntity
  8
Straßenverlauf_FBRD
100
AcDbLine
 10
17165.28689999971
 20
362115.3092999999
 30
0.0
 11
17163.56280000042
 21
362112.3179000001
 31
0.0
1001
AcMap_E615D161-C9D7-11d3-839F-0060B0FB6B57
1071
        1
1071
       17
  0
LWPOLYLINE
  5
C1D
330
1F
100
AcDbEntity
  8
Straßenverlauf_FBRD
100
AcDbPolyline
 90
       21
 70
     0
 43
0.0
 10
17165.28689999971
 20
362115.3092999999
 10
17169.22350000031
 20
362110.4337000009
 10
17170.43489999976
 20
362109.2568999995
 10
17171.80559999961
 20
362108.2700999994
 10
17173.30609999969
 20
362107.4947999995
 10
17174.90390000026
 20
362106.9475999996
 10
17176.56469999999
 20
362106.6403999999
 10
17177.04090000037
 20
362106.5485999994
 10
17177.4961000001
 20
362106.3813000005
 10
17177.91839999985
 20
362106.1428999994
 10
17178.29669999983
 20
362105.8395000007
 10
17178.62119999993
 20
362105.4791000001
 10
17178.8833999997
 20
362105.0712000002
 10
17179.07650000043
 20
362104.6262999997
 10
17179.27109999954
 20
362104.1786000002
 10
17179.53579999972
 20
362103.7683000006
 10
17179.86349999998
 20
362103.4064000007
 10
17180.24550000019
 20
362103.1024999992
 10
17180.67179999966
 20
362102.8644999992
 10
17181.13109999988
 20
362102.6988999993
 10
17181.61110000033
 20
362102.6098999996
1001
AcMap_E615D161-C9D7-11d3-839F-0060B0FB6B57
1071
        1
1071
       17
  0
LWPOLYLINE
  5
C1E
330
1F
100
AcDbEntity
  8
Straßenverlauf_FBRD
100
AcDbPolyline
 90
       11
 70
     0
 43
0.0
 10
17162.23010000027
 20
362119.8664999996
 10
17162.74149999954
 20
362119.9694999996
 10
17163.22730000038
 20
362120.1596000009
 10
17163.67289999965
 20
362120.4309000001
 10
17167.15000000037
 20
362123.3035000004
 10
17170.28170000016
 20
362126.5492000003
 10
17172.33490000013
 20
362124.5220999997
 10
17171.32529999967
 20
362123.4993999992
 10
17168.38960000034
 20
362120.1180000007
 10
17165.90959999989
 20
362116.3893999998
 10
17165.28689999971
 20
362115.3092999999
1001
AcMap_E615D161-C9D7-11d3-839F-0060B0FB6B57
1071
        1
1071
       17
  0
LWPOLYLINE
  5
C1F
330
1F
100
AcDbEntity
  8
Straßenverlauf_FBRD
100
AcDbPolyline
 90
      119
 70
     0
 43
0.0
 10
17162.23010000027
 20
362119.8664999996
 10
17159.73340000026
 20
362124.3176000007
 10
17154.65050000045
 20
362134.0899000001
 10
17154.41390000004
 20
362134.5369000007
 10
17154.17659999989
 20
362134.9846000001
 10
17153.93900000024
 20
362135.4321999997
 10
17153.70120000001
 20
362135.8795999996
 10
17153.46310000028
 20
362136.3268
 10
17153.22479999997
 20
362136.7738000006
 10
17152.98620000016
 20
362137.2205999997
 10
17152.74739999976
 20
362137.6673000008
 10
17152.5083999997
 20
362138.1137000006
 10
17152.26919999998
 20
362138.5600000006
 10
17152.02969999984
 20
362139.0062000007
 10
17151.79000000004
 20
362139.4520999994
 10
17151.54999999981
 20
362139.8979000002
 10
17151.30989999976
 20
362140.3434999995
 10
17151.06950000022
 20
362140.7888999991
 10
17150.82899999991
 20
362141.2342000008
 10
17150.58820000011
 20
362141.6793000009
 10
17150.34719999973
 20
362142.1241999995
 10
17150.10599999968
 20
362142.5690000002
 10
17149.8646999998
 20
362143.0135999993
 10
17149.62310000043
 20
362143.4581000004
 10
17149.38129999954
 20
362143.9023000002
 10
17149.13939999975
 20
362144.3465
 10
17148.89719999954
 20
362144.7905000002
 10
17148.65490000043
 20
362145.2343000007
 10
17148.41239999979
 20
362145.6779999994
 10
17148.16970000043
 20
362146.1215000004
 10
17147.92690000031
 20
362146.5648999997
 10
17147.68389999959
 20
362147.0080999993
 10
17147.44070000015
 20
362147.4511999991
 10
17147.19739999994
 20
362147.894200001
 10
17146.95390000008
 20
362148.3369999994
 10
17146.71019999962
 20
362148.7796
 10
17146.46640000026
 20
362149.2222000007
 10
17146.22240000032
 20
362149.6645999998
 10
17145.97829999961
 20
362150.1067999993
 10
17145.7341
 20
362150.5489000008
 10
17145.4896999998
 20
362150.9909000006
 10
17145.24370000046
 20
362151.4353999998
 10
17144.99760000035
 20
362151.8797999993
 10
17144.75129999965
 20
362152.3239999991
 10
17144.50499999989
 20
362152.7681000009
 10
17144.25850000046
 20
362153.2120999992
 10
17144.01180000044
 20
362153.6558999997
 10
17143.76510000042
 20
362154.0996000003
 10
17143.51819999981
 20
362154.5431999993
 10
17143.27120000031
 20
362154.9867000002
 10
17143.02419999987
 20
362155.4300999996
 10
17142.77699999977
 20
362155.8734000009
 10
17142.52969999984
 20
362156.3165000007
 10
17142.28230000008
 20
362156.7595000006
 10
17142.03479999956
 20
362157.2025000006
 10
17141.78720000013
 20
362157.645300001
 10
17141.53949999995
 20
362158.0879999996
 10
17141.29169999994
 20
362158.5306000002
 10
17141.04389999993
 20
362158.9730999992
 10
17140.79229999985
 20
362159.4220000003
 10
17140.54069999978
 20
362159.8707999997
 10
17140.28899999987
 20
362160.3193999995
 10
17140.03720000014
 20
362160.7679999993
 10
17139.78529999964
 20
362161.2164999992
 10
17139.53340000007
 20
362161.6648999993
 10
17139.28139999974
 20
362162.1130999998
 10
17139.02940000035
 20
362162.5613000002
 10
17138.77730000019
 20
362163.0094000008
 10
17138.5251000002
 20
362163.4574999996
 10
17138.27290000021
 20
362163.9054000006
 10
17138.02060000039
 20
362164.3532999996
 10
17137.76829999964
 20
362164.8010000009
 10
17137.51599999983
 20
362165.2487000004
 10
17137.26360000018
 20
362165.6962999999
 10
17137.0111999996
 20
362166.1438999996
 10
17136.75870000012
 20
362166.5912999996
 10
17136.50629999954
 20
362167.0386999995
 10
17136.25370000023
 20
362167.4860999994
 10
17136.00119999982
 20
362167.9332999998
 10
17135.74870000034
 20
362168.3805
 10
17135.4961000001
 20
362168.8276000005
 10
17135.24359999969
 20
362169.2747000009
 10
17134.99100000039
 20
362169.7216999997
 10
17134.73840000015
 20
362170.1686000005
 10
17134.4857999999
 20
362170.6154999994
 10
17134.23319999967
 20
362171.0623000004
 10
17133.98060000036
 20
362171.5090999995
 10
17133.72809999995
 20
362171.9558000006
 10
17133.47549999971
 20
362172.4024999999
 10
17133.22300000023
 20
362172.8490999994
 10
17132.97039999999
 20
362173.2957000006
 10
17132.71789999958
 20
362173.7422000002
 10
17083.64599999971
 20
362260.5199999996
 10
17077.5549999997
 20
362271.2910999992
 10
17072.53990000021
 20
362280.8649000004
 10
17068.14989999961
 20
362290.7409000005
 10
17064.4029000001
 20
362300.8784999997
 10
17061.31460000016
 20
362311.2356000003
 10
17058.89759999979
 20
362321.7697000001
 10
17058.62320000026
 20
362323.1704999991
 10
17057.47180000041
 20
362330.7697000001
 10
17056.97809999995
 20
362338.4397999998
 10
17057.14580000005
 20
362346.1239999998
 10
17057.97360000014
 20
362353.7653000001
 10
17059.45550000016
 20
362361.3070000001
 10
17061.58029999956
 20
362368.6933999993
 10
17064.33249999955
 20
362375.8697999996
 10
17067.69149999972
 20
362382.7829
 10
17067.81929999962
 20
362383.0719000008
 10
17067.89989999961
 20
362383.3774999995
 10
17067.93149999995
 20
362383.6919
 10
17067.91299999971
 20
362384.0074000005
 10
17067.84520000033
 20
362384.3160999995
 10
17067.72950000036
 20
362384.610200001
 10
17067.56900000013
 20
362384.8824000005
 10
17067.36760000046
 20
362385.1259000004
 10
17067.13040000014
 20
362385.3346999996
 10
17066.86319999955
 20
362385.5034999997
 10
17065.57390000019
 20
362386.1820000001
1001
AcMap_E615D161-C9D7-11d3-839F-0060B0FB6B57
1071
        1
1071
       17
  0
LWPOLYLINE
  5
C20
330
1F
100
AcDbEntity
  8
Straßenverlauf_FBRD
100
AcDbPolyline
 90
      218
 70
     0
 43
0.0
 10
17134.58189999964
 20
362124.2815000005
 10
17137.80520000029
 20
362124.0742000007
 10
17141.01989999972
 20
362124.3883999996
 10
17144.14199999999
 20
362125.216
 10
17144.61139999982
 20
362125.4289999995
 10
17145.0373999998
 20
362125.7192000002
 10
17145.40739999991
 20
362126.0779999998
 10
17145.71059999987
 20
362126.4947999995
 10
17145.93790000025
 20
362126.9573999998
 10
17146.08260000031
 20
362127.4520999995
 10
17146.14059999957
 20
362127.9642999992
 10
17146.11000000033
 20
362128.4788000006
 10
17145.99179999996
 20
362128.9804999996
 10
17145.78949999995
 20
362129.4546000008
 10
17145.57689999975
 20
362129.8563999999
 10
17145.34300000034
 20
362130.2975999993
 10
17145.10890000034
 20
362130.7387000006
 10
17144.87440000009
 20
362131.1797000002
 10
17144.63970000017
 20
362131.6206
 10
17144.40479999967
 20
362132.0613000002
 10
17144.16949999984
 20
362132.5020000004
 10
17143.93400000036
 20
362132.9425000008
 10
17143.69820000045
 20
362133.3828999996
 10
17143.46219999995
 20
362133.8232000005
 10
17143.22589999996
 20
362134.2633999996
 10
17142.98940000031
 20
362134.703400001
 10
17142.75260000024
 20
362135.1434000005
 10
17142.51559999957
 20
362135.5832000002
 10
17142.27830000035
 20
362136.023
 10
17142.04079999961
 20
362136.4626000002
 10
17141.8030000003
 20
362136.9022000004
 10
17141.56500000041
 20
362137.3416000009
 10
17141.32679999992
 20
362137.7809999995
 10
17141.08829999994
 20
362138.2202000004
 10
17140.84970000014
 20
362138.6592999995
 10
17140.61079999991
 20
362139.0984000005
 10
17140.37160000018
 20
362139.5373999998
 10
17140.1322999997
 20
362139.9761999994
 10
17139.89279999956
 20
362140.4149999992
 10
17139.65299999993
 20
362140.8537000008
 10
17139.41309999954
 20
362141.2923000008
 10
17139.17289999965
 20
362141.7307999991
 10
17138.93250000011
 20
362142.1691999994
 10
17138.6919999998
 20
362142.6075999998
 10
17138.45120000001
 20
362143.0458000005
 10
17138.21030000038
 20
362143.4839999993
 10
17137.96910000034
 20
362143.9221000001
 10
17137.72780000046
 20
362144.360200001
 10
17137.48629999999
 20
362144.7981000003
 10
17137.24459999986
 20
362145.2359999996
 10
17137.0027999999
 20
362145.6738000009
 10
17136.76080000028
 20
362146.1116000004
 10
17136.51860000007
 20
362146.5493000001
 10
17136.2762000002
 20
362146.9868999999
 10
17136.03369999956
 20
362147.4244
 10
17135.7910000002
 20
362147.8618999999
 10
17135.54810000025
 20
362148.2993000001
 10
17135.30510000046
 20
362148.7367000002
 10
17135.06199999992
 20
362149.1740000006
 10
17134.81869999971
 20
362149.6113000009
 10
17134.57529999967
 20
362150.0484999996
 10
17134.33169999998
 20
362150.4856000003
 10
17134.08789999969
 20
362150.9227000009
 10
17133.84410000033
 20
362151.3596999999
 10
17133.60010000039
 20
362151.7967000008
 10
17133.35599999968
 20
362152.2336999998
 10
17133.11170000024
 20
362152.6706000008
 10
17132.86739999987
 20
362153.1074000002
 10
17132.62289999984
 20
362153.5442999993
 10
17132.37829999998
 20
362153.9810000007
 10
17132.13350000046
 20
362154.4178
 10
17131.88870000001
 20
362154.8544999995
 10
17131.64379999973
 20
362155.2910999991
 10
17131.39869999978
 20
362155.7278000004
 10
17131.15359999984
 20
362156.1644000002
 10
17130.90830000024
 20
362156.6009
 10
17130.66299999971
 20
362157.0374999997
 10
17130.41750000044
 20
362157.4739999995
 10
17130.17200000025
 20
362157.9104999993
 10
17129.92640000023
 20
362158.3469999992
 10
17129.68070000037
 20
362158.7833999992
 10
17129.43489999976
 20
362159.2199000009
 10
17129.18900000024
 20
362159.6563000009
 10
17128.9430999998
 20
362160.0927000009
 10
17128.69710000045
 20
362160.5289999992
 10
17128.45100000035
 20
362160.9653999992
 10
17128.20490000024
 20
362161.4017999992
 10
17127.95870000031
 20
362161.8380999994
 10
17127.71239999961
 20
362162.2744999994
 10
17127.46609999984
 20
362162.7107999996
 10
17127.21970000025
 20
362163.1470999997
 10
17126.97329999972
 20
362163.5833999999
 10
17126.72680000029
 20
362164.0198
 10
17126.48029999994
 20
362164.4561000001
 10
17126.23369999975
 20
362164.8924000002
 10
17125.98709999956
 20
362165.3288000003
 10
17125.7405000003
 20
362165.7651000005
 10
17125.49380000029
 20
362166.2015000005
 10
17125.24710000027
 20
362166.6378000006
 10
17125.00040000025
 20
362167.0742000006
 10
17124.75370000023
 20
362167.5106000007
 10
17124.50690000038
 20
362167.9470000007
 10
17124.2600999996
 20
362168.3834000007
 10
17124.01329999976
 20
362168.8198000007
 10
17064.76400000043
 20
362273.5950000007
 10
17064.51439999975
 20
362274.0364999995
 10
17064.26470000017
 20
362274.4781999998
 10
17064.01489999983
 20
362274.9200999998
 10
17063.76510000042
 20
362275.3622999993
 10
17063.51539999992
 20
362275.8047000002
 10
17063.26559999958
 20
362276.2475000005
 10
17063.01599999983
 20
362276.6905000005
 10
17062.76640000008
 20
362277.1338999998
 10
17062.51699999999
 20
362277.5776000004
 10
17062.26779999956
 20
362278.0217000004
 10
17062.0186999999
 20
362278.4661999997
 10
17061.76989999972
 20
362278.9110000004
 10
17061.52139999997
 20
362279.3563000001
 10
17061.2731999997
 20
362279.8019999992
 10
17061.02529999986
 20
362280.2481999994
 10
17060.77770000044
 20
362280.6948000007
 10
17060.53060000017
 20
362281.1418999993
 10
17060.28390000015
 20
362281.5896000005
 10
17060.03770000022
 20
362282.0376999993
 10
17059.7918999996
 20
362282.4864000008
 10
17059.54669999983
 20
362282.9355999996
 10
17059.30209999997
 20
362283.3853999991
 10
17059.05800000019
 20
362283.8357999996
 10
17058.81460000016
 20
362284.2868000009
 10
17058.57180000003
 20
362284.7383999992
 10
17058.32980000041
 20
362285.1907000002
 10
17058.08839999977
 20
362285.6436000001
 10
17057.8479000004
 20
362286.0972000007
 10
17057.60809999984
 20
362286.5514000003
 10
17057.36919999961
 20
362287.0064000004
 10
17057.13109999988
 20
362287.4620999992
 10
17056.89389999956
 20
362287.9185000007
 10
17056.65770000033
 20
362288.3757000007
 10
17056.42250000033
 20
362288.8335999995
 10
17056.18819999974
 20
362289.2923000009
 10
17055.95500000007
 20
362289.7518000007
 10
17055.7229000004
 20
362290.2120999992
 10
17055.49189999979
 20
362290.6732000001
 10
17055.2620000001
 20
362291.1350999996
 10
17055.03330000024
 20
362291.5978999995
 10
17054.8058000002
 20
362292.0615999997
 10
17054.57959999982
 20
362292.5261000004
 10
17054.35470000002
 20
362292.9914999995
 10
17054.13119999971
 20
362293.4578000009
 10
17053.90890000015
 20
362293.9250000007
 10
17053.68809999991
 20
362294.3932000008
 10
17053.46879999991
 20
362294.8621999994
 10
17053.25090000033
 20
362295.3322999999
 10
17053.03450000007
 20
362295.8032000009
 10
17052.81969999987
 20
362296.2752000001
 10
17052.60639999993
 20
362296.7480999995
 10
17052.39479999989
 20
362297.2219999991
 10
17052.18489999976
 20
362297.6969000009
 10
17051.97670000046
 20
362298.1728000008
 10
17051.77020000014
 20
362298.6497000009
 10
17051.56549999956
 20
362299.1275999993
 10
17051.36259999964
 20
362299.6065999996
 10
17051.16160000022
 20
362300.0866
 10
17050.96250000037
 20
362300.5676000007
 10
17050.76530000009
 20
362301.0496999994
 10
17050.57010000013
 20
362301.5328000002
 10
17050.37689999956
 20
362302.0170000009
 10
17050.18580000009
 20
362302.5022999998
 10
17049.99679999985
 20
362302.9887000006
 10
17049.80989999976
 20
362303.4760999997
 10
17049.62530000042
 20
362303.9646000006
 10
17049.44280000031
 20
362304.4541999996
 10
17049.26260000001
 20
362304.9448000007
 10
17049.08469999954
 20
362305.4365999997
 10
17048.90919999964
 20
362305.9294000007
 10
17048.73599999957
 20
362306.4233
 10
17046.38100000005
 20
362314.1599000003
 10
17044.63879999984
 20
362322.0571999997
 10
17043.51989999972
 20
362330.0665000007
 10
17043.03139999974
 20
362338.1389000007
 10
17042.7229000004
 20
362344.1423000004
 10
17042.05429999996
 20
362350.1162999999
 10
17041.0279000001
 20
362356.0394000001
 10
17040.5728000002
 20
362357.6032999996
 10
17039.86990000028
 20
362359.0724999998
 10
17038.93790000025
 20
362360.4081999995
 10
17037.8013000004
 20
362361.5748999995
 10
17036.4905000003
 20
362362.5415000003
 10
17035.04009999987
 20
362363.2826000005
 10
17033.48869999964
 20
362363.7784000002
 10
17031.87729999982
 20
362364.0157999993
 10
17030.24880000017
 20
362363.9883999992
 10
17026.11720000021
 20
362363.2866999991
 10
17022.12380000017
 20
362362.0161000006
 10
17018.34630000032
 20
362360.2014000006
 10
17014.85859999992
 20
362357.8781000003
 10
17011.72869999986
 20
362355.0913999994
 10
16990.75659999996
 20
362333.6118000001
 10
16987.54289999977
 20
362330.7954999991
 10
16983.93159999978
 20
362328.5110999998
 10
16980.0100999996
 20
362326.8136999999
 10
16975.87299999967
 20
362325.7443000003
 10
16971.62009999994
 20
362325.3287000004
 10
16970.32459999993
 20
362325.1973000002
 10
16969.06749999989
 20
362324.8574000001
 10
16967.8822999997
 20
362324.3180999998
 10
16966.8002000004
 20
362323.5935999993
 10
16965.84999999963
 20
362322.7031999994
 10
16965.0569000002
 20
362321.6703999993
 10
16964.44180000014
 20
362320.5227000005
 10
16964.02099999972
 20
362319.2903000005
 10
16963.8058000002
 20
362318.0059999992
 10
16963.80179999955
 20
362316.7039000001
 10
16964.00899999961
 20
362315.4182999992
 10
16964.42210000008
 20
362314.1832999997
 10
16965.03010000009
 20
362313.0318000001
 10
16972.56599999964
 20
362301.2029
 10
16976.58899999969
 20
362294.8882999998
1001
AcMap_E615D161-C9D7-11d3-839F-0060B0FB6B57
1071
        1
1071
       17
  0
LWPOLYLINE
  5
C21
330
1F
100
AcDbEntity
  8
Straßenverlauf_FBRD
100
AcDbPolyline
 90
        9
 70
     0
 43
0.0
 10
17155.35259999987
 20
362125.1911999993
 10
17156.34819999989
 20
362123.6479000002
 10
17157.56769999955
 20
362122.2745999992
 10
17158.98240000009
 20
362121.1033999994
 10
17160.55929999985
 20
362120.1619000006
 10
17160.95669999998
 20
362119.9985000007
 10
17161.37339999992
 20
362119.8936000001
 10
17161.80080000031
 20
362119.8493000008
 10
17162.23010000027
 20
362119.8664999996
1001
AcMap_E615D161-C9D7-11d3-839F-0060B0FB6B57
1071
        1
1071
       17
  0
LWPOLYLINE
  5
C22
330
1F
100
AcDbEntity
  8
Straßenverlauf_FBRD
100
AcDbPolyline
 90
      126
 70
     0
 43
0.0
 10
17155.35259999987
 20
362125.1911999993
 10
17155.40429999959
 20
362125.1243999992
 10
17155.4665000001
 20
362125.0671999995
 10
17155.5373999998
 20
362125.0214000009
 10
17155.61500000022
 20
362124.9880999997
 10
17155.69710000045
 20
362124.9682999998
 10
17155.78139999974
 20
362124.9627
 10
17155.86539999954
 20
362124.9713000003
 10
17155.94680000003
 20
362124.9940000009
 10
17156.0231999997
 20
362125.0299999994
 10
17156.09240000043
 20
362125.0782999993
 10
17156.15249999985
 20
362125.1377000008
 10
17156.20179999992
 20
362125.2062999997
 10
17156.2388000004
 20
362125.2821999993
 10
17156.26260000001
 20
362125.3631999996
 10
17156.2723000003
 20
362125.4471000005
 10
17156.26779999956
 20
362125.5315000006
 10
17156.24909999966
 20
362125.6138000004
 10
17156.21690000035
 20
362125.6919
 10
17152.44049999956
 20
362132.9211999998
 10
17152.20430000033
 20
362133.3674999998
 10
17151.96769999992
 20
362133.8137999997
 10
17151.73080000002
 20
362134.2600999997
 10
17151.49370000045
 20
362134.7061000001
 10
17151.25629999954
 20
362135.1520000008
 10
17151.0186999999
 20
362135.5976999999
 10
17150.78089999966
 20
362136.0431999993
 10
17150.54270000011
 20
362136.4886000008
 10
17150.30439999979
 20
362136.9338000008
 10
17150.06579999998
 20
362137.3787999992
 10
17149.82699999958
 20
362137.8236999996
 10
17149.58789999969
 20
362138.2684000005
 10
17149.34860000014
 20
362138.7129999995
 10
17149.1091
 20
362139.1574000008
 10
17148.8694000002
 20
362139.6017000005
 10
17148.62949999981
 20
362140.0458000004
 10
17148.38929999992
 20
362140.4898000006
 10
17148.14890000038
 20
362140.9335999992
 10
17147.90830000024
 20
362141.3772999999
 10
17147.66760000028
 20
362141.8208000008
 10
17147.42659999989
 20
362142.2642000001
 10
17147.18539999984
 20
362142.7073999998
 10
17146.94400000013
 20
362143.1504999995
 10
17146.70239999983
 20
362143.5934999996
 10
17146.46059999987
 20
362144.0362999999
 10
17146.21870000008
 20
362144.4790000003
 10
17145.9765999997
 20
362144.9214999993
 10
17145.73419999983
 20
362145.3640000001
 10
17145.49170000013
 20
362145.8061999996
 10
17145.24909999966
 20
362146.2484000009
 10
17145.00619999971
 20
362146.6904000007
 10
17144.76319999993
 20
362147.1323000007
 10
17144.52010000031
 20
362147.5741000008
 10
17144.27670000028
 20
362148.0157999993
 10
17144.03320000041
 20
362148.4573
 10
17143.78959999978
 20
362148.8987000007
 10
17143.54580000043
 20
362149.3399999998
 10
17143.30179999955
 20
362149.7811999992
 10
17143.05630000029
 20
362150.2248999998
 10
17142.81060000043
 20
362150.6685000007
 10
17142.56479999982
 20
362151.1119
 10
17142.31879999954
 20
362151.5552999992
 10
17142.07270000037
 20
362151.9985000007
 10
17141.82650000043
 20
362152.4416000005
 10
17141.58019999973
 20
362152.8847000003
 10
17141.33370000031
 20
362153.3276000004
 10
17141.08710000012
 20
362153.7704000008
 10
17140.8404000001
 20
362154.2130999994
 10
17140.59350000042
 20
362154.6557
 10
17140.34659999981
 20
362155.0983000007
 10
17140.09949999954
 20
362155.5406999998
 10
17139.85240000021
 20
362155.9829999991
 10
17139.60510000027
 20
362156.4253000002
 10
17139.35769999958
 20
362156.8673999999
 10
17139.11029999982
 20
362157.3094999995
 10
17138.8627000004
 20
362157.7513999995
 10
17138.61149999965
 20
362158.1997999996
 10
17138.36010000016
 20
362158.6480000001
 10
17138.10869999975
 20
362159.0962000006
 10
17137.85720000043
 20
362159.5442999993
 10
17137.60560000036
 20
362159.9923000001
 10
17137.35390000045
 20
362160.4403000008
 10
17137.10209999978
 20
362160.8881000001
 10
17136.85030000005
 20
362161.3358999994
 10
17136.59839999955
 20
362161.7836000007
 10
17136.34649999998
 20
362162.2313000001
 10
17136.09449999966
 20
362162.6787999999
 10
17135.84240000043
 20
362163.1262999997
 10
17135.59030000027
 20
362163.5737999995
 10
17135.33810000028
 20
362164.0210999995
 10
17135.0859000003
 20
362164.4684999996
 10
17134.83370000031
 20
362164.9156999998
 10
17134.58139999956
 20
362165.3629000001
 10
17134.32899999991
 20
362165.8100000006
 10
17134.07670000009
 20
362166.2570999991
 10
17133.82430000044
 20
362166.7041999996
 10
17133.57180000003
 20
362167.1511000004
 10
17133.31940000038
 20
362167.5980999992
 10
17133.06689999997
 20
362168.0449999999
 10
17132.81439999956
 20
362168.4918000009
 10
17132.56190000009
 20
362168.9386
 10
17132.30939999968
 20
362169.3852999993
 10
17132.0569000002
 20
362169.8321000002
 10
17131.80439999979
 20
362170.2786999997
 10
17131.55179999955
 20
362170.7254000008
 10
17131.29930000007
 20
362171.1720000003
 10
17131.04679999966
 20
362171.6184999999
 10
17130.79430000018
 20
362172.0650999993
 10
17130.54179999977
 20
362172.5116000008
 10
17081.46989999991
 20
362259.2894000002
 10
17075.37889999989
 20
362270.0604999997
 10
17070.28930000029
 20
362279.7765999995
 10
17065.8339999998
 20
362289.7994
 10
17062.03139999974
 20
362300.0875000004
 10
17058.89709999971
 20
362310.5986000002
 10
17056.44419999979
 20
362321.2892000005
 10
17056.16980000026
 20
362322.6899999995
 10
17054.99969999958
 20
362330.3770000003
 10
17054.48440000042
 20
362338.1355000008
 10
17054.62739999965
 20
362345.9098000005
 10
17055.42779999971
 20
362353.6439999994
 10
17056.87990000006
 20
362361.2828000002
 10
17058.97319999989
 20
362368.7712999993
 10
17061.69269999955
 20
362376.0558000002
 10
17065.01889999956
 20
362383.0840000007
 10
17064.13389999978
 20
362383.5496999994
1001
AcMap_E615D161-C9D7-11d3-839F-0060B0FB6B57
1071
        1
1071
       17
  0
LWPOLYLINE
  5
C23
330
1F
100
AcDbEntity
  8
Straßenverlauf_FBRD
100
AcDbPolyline
 90
      109
 70
     0
 43
0.0
 10
17155.35259999987
 20
362125.1911999993
 10
17155.32820000034
 20
362125.2334000003
 10
17155.24170000013
 20
362125.4010000006
 10
17151.55649999995
 20
362132.4537000005
 10
17151.32100000046
 20
362132.8987000008
 10
17151.08519999962
 20
362133.3433999997
 10
17150.84920000005
 20
362133.7881000005
 10
17150.61299999989
 20
362134.2324999999
 10
17150.37640000041
 20
362134.6767999996
 10
17150.13970000017
 20
362135.1208999995
 10
17149.90259999968
 20
362135.5648999997
 10
17149.66540000029
 20
362136.0087000002
 10
17149.42779999971
 20
362136.4524000008
 10
17149.19010000024
 20
362136.8958999999
 10
17148.95210000034
 20
362137.3391999994
 10
17148.71389999985
 20
362137.7824000009
 10
17148.47539999988
 20
362138.2255000007
 10
17148.23680000007
 20
362138.6684000008
 10
17147.99780000001
 20
362139.1110999994
 10
17147.75870000012
 20
362139.5537000001
 10
17147.51939999964
 20
362139.9962000009
 10
17147.27979999967
 20
362140.4385000002
 10
17147.04009999987
 20
362140.8806999997
 10
17146.80009999964
 20
362141.3226999994
 10
17146.55989999976
 20
362141.7646999993
 10
17146.31950000021
 20
362142.2063999996
 10
17146.07899999991
 20
362142.6480999999
 10
17145.83820000011
 20
362143.0896000005
 10
17145.59719999973
 20
362143.5309999995
 10
17145.35610000044
 20
362143.9722000007
 10
17145.1146999998
 20
362144.4133000002
 10
17144.87320000026
 20
362144.8542999998
 10
17144.63150000013
 20
362145.2951999997
 10
17144.38960000034
 20
362145.7358999997
 10
17144.14759999979
 20
362146.1765999999
 10
17143.90529999975
 20
362146.6171000004
 10
17143.66299999971
 20
362147.0574999992
 10
17143.42040000017
 20
362147.4978000001
 10
17143.17769999988
 20
362147.9378999993
 10
17142.93479999993
 20
362148.3780000005
 10
17142.69180000014
 20
362148.8179000002
 10
17142.44859999977
 20
362149.2577
 10
17142.20529999956
 20
362149.6973999999
 10
17141.9617999997
 20
362150.1370999999
 10
17141.7182
 20
362150.5766000003
 10
17141.47449999954
 20
362151.0160000008
 10
17141.23060000036
 20
362151.4552999996
 10
17140.98660000041
 20
362151.8945000004
 10
17140.74239999987
 20
362152.3335999996
 10
17140.49810000043
 20
362152.7726000007
 10
17140.25370000023
 20
362153.2115000003
 10
17140.0092000002
 20
362153.6502999999
 10
17139.76460000034
 20
362154.0890999995
 10
17139.51979999989
 20
362154.5276999996
 10
17139.27500000037
 20
362154.9662999996
 10
17139.03000000026
 20
362155.4046999999
 10
17138.78490000032
 20
362155.8431000002
 10
17138.53969999961
 20
362156.2814000007
 10
17138.29449999984
 20
362156.7195999995
 10
17138.04910000041
 20
362157.1578000002
 10
17137.80360000022
 20
362157.5957999993
 10
17137.55810000002
 20
362158.0338000003
 10
17137.31240000017
 20
362158.4716999997
 10
17137.06670000031
 20
362158.9096000008
 10
17136.8208999997
 20
362159.3473000005
 10
17136.57500000018
 20
362159.7850000002
 10
17136.32909999974
 20
362160.2226999999
 10
17136.08299999963
 20
362160.6601999999
 10
17135.83690000046
 20
362161.0976999998
 10
17135.59080000035
 20
362161.5351999999
 10
17135.34460000042
 20
362161.9725000002
 10
17135.09829999972
 20
362162.4099000003
 10
17134.85190000012
 20
362162.8471000008
 10
17134.60549999959
 20
362163.2842999995
 10
17134.3591
 20
362163.7215
 10
17134.11259999964
 20
362164.1586000007
 10
17133.86610000022
 20
362164.5955999997
 10
17133.61950000003
 20
362165.0326000005
 10
17133.37289999984
 20
362165.4695999995
 10
17133.12629999965
 20
362165.9065000005
 10
17132.87959999964
 20
362166.3432999998
 10
17132.63289999962
 20
362166.7800999992
 10
17132.3861999996
 20
362167.2169000003
 10
17132.13939999975
 20
362167.6536999997
 10
17131.8925999999
 20
362168.0903999992
 10
17131.64580000005
 20
362168.5270000007
 10
17131.39900000021
 20
362168.9637000002
 10
17131.15220000036
 20
362169.4002999999
 10
17130.90539999958
 20
362169.8368999996
 10
17130.65859999973
 20
362170.2733999994
 10
17130.41179999988
 20
362170.7098999993
 10
17130.16500000003
 20
362171.1464000009
 10
17129.91810000036
 20
362171.5829000008
 10
17129.67129999958
 20
362172.0193000007
 10
17074.5083999997
 20
362269.5682999995
 10
17069.38900000043
 20
362279.3411999997
 10
17064.90759999957
 20
362289.422700001
 10
17061.08270000014
 20
362299.7710999996
 10
17057.93010000046
 20
362310.3436999992
 10
17055.46279999986
 20
362321.0968999993
 10
17055.18850000016
 20
362322.4978
 10
17054.00569999963
 20
362330.2686000001
 10
17053.48469999991
 20
362338.1115000006
 10
17053.62930000014
 20
362345.9704999998
 10
17054.43840000033
 20
362353.7890000008
 10
17055.90629999991
 20
362361.5109999999
 10
17058.02240000013
 20
362369.0811000001
 10
17060.7714999998
 20
362376.4449000005
 10
17064.13389999978
 20
362383.5496999994
1001
AcMap_E615D161-C9D7-11d3-839F-0060B0FB6B57
1071
        1
1071
       17
  0
LINE
  5
C24
330
1F
100
AcDbEntity
  8
Straßenverlauf_FBRD
100
AcDbLine
 10
16975.06929999962
 20
362286.1066999995
 30
0.0
 11
16961.33210000023
 21
362307.6696000006
 31
0.0
1001
AcMap_E615D161-C9D7-11d3-839F-0060B0FB6B57
1071
        1
1071
       17
  0
LINE
  5
C25
330
1F
100
AcDbEntity
  8
Straßenverlauf_FBRD
100
AcDbLine
 10
16961.33210000023
 20
362307.6696000006
 30
0.0
 11
16961.24569999985
 21
362307.8050999995
 31
0.0
1001
AcMap_E615D161-C9D7-11d3-839F-0060B0FB6B57
1071
        1
1071
       17
  0
LWPOLYLINE
  5
C26
330
1F
100
AcDbEntity
  8
Straßenverlauf_FBRD
100
AcDbPolyline
 90
        8
 70
     0
 43
0.0
 10
16953.06450000033
 20
362308.3054000009
 10
16954.20849999971
 20
362308.8124000002
 10
16955.42019999958
 20
362309.125
 10
16956.66669999994
 20
362309.2347999997
 10
16957.91440000012
 20
362309.1388000008
 10
16959.12939999997
 20
362308.8397000004
 10
16960.2790000001
 20
362308.3454999998
 10
16961.33210000023
 20
362307.6696000006
1001
AcMap_E615D161-C9D7-11d3-839F-0060B0FB6B57
1071
        1
1071
       17
  0
LWPOLYLINE
  5
C27
330
1F
100
AcDbEntity
  8
Straßenverlauf_FBRD
100
AcDbPolyline
 90
       22
 70
     0
 43
0.0
 10
16950.96549999993
 20
362313.3296000008
 10
16952.18369999993
 20
362314.6900999993
 10
16953.97130000032
 20
362317.0076000002
 10
16955.40149999968
 20
362319.5612000003
 10
16955.85749999992
 20
362320.7902000006
 10
16956.10670000035
 20
362322.0770999994
 10
16956.14240000024
 20
362323.3873999995
 10
16955.96360000036
 20
362324.6860000007
 10
16955.57519999985
 20
362325.9378999993
 10
16954.98749999981
 20
362327.1096000002
 10
16954.21640000026
 20
362328.1696000006
 10
16953.28249999974
 20
362329.0895000007
 10
16951.00069999974
 20
362330.7371999994
 10
16949.82479999959
 20
362331.3379999995
 10
16948.5661000004
 20
362331.7371999994
 10
16947.25879999995
 20
362331.9239000008
 10
16945.93869999982
 20
362331.8929999992
 10
16944.64159999974
 20
362331.645300001
 10
16943.4029000001
 20
362331.1876999997
 10
16942.2564000003
 20
362330.5325000007
 10
16941.23330000043
 20
362329.6976999995
 10
16940.84929999988
 20
362329.3276000005
1001
AcMap_E615D161-C9D7-11d3-839F-0060B0FB6B57
1071
        1
1071
       17
  0
LWPOLYLINE
  5
C28
330
1F
100
AcDbEntity
  8
Straßenverlauf_FBRD
100
AcDbPolyline
 90
       19
 70
     0
 43
0.0
 10
16933.37119999993
 20
362334.7263999991
 10
16935.25210000015
 20
362336.0250000004
 10
16935.47709999978
 20
362336.1534000002
 10
16935.72070000041
 20
362336.2414999995
 10
16935.97580000013
 20
362336.2868000008
 10
16936.23479999974
 20
362336.2877999991
 10
16936.49029999971
 20
362336.2446999998
 10
16936.73460000008
 20
362336.1586000007
 10
16936.9606999997
 20
362336.0320999995
 10
16937.16179999988
 20
362335.8688999992
 10
16937.33220000006
 20
362335.673800001
 10
16937.46679999958
 20
362335.4525000006
 10
16937.56170000042
 20
362335.2114000004
 10
16937.61400000006
 20
362334.9576999993
 10
16937.62229999993
 20
362334.6987999994
 10
16937.58629999962
 20
362334.4421999995
 10
16937.50710000004
 20
362334.1955999993
 10
16937.38690000027
 20
362333.9660999999
 10
16936.8228000002
 20
362333.0821000003
1001
AcMap_E615D161-C9D7-11d3-839F-0060B0FB6B57
1071
        1
1071
       17
  0
LWPOLYLINE
  5
C29
330
1F
100
AcDbEntity
  8
Straßenverlauf_FBRD
100
AcDbPolyline
 90
       21
 70
     0
 43
0.0
 10
16929.04860000033
 20
362336.5595999994
 10
16929.1847000001
 20
362336.8735000007
 10
16929.26520000025
 20
362337.2060000003
 10
16929.28799999971
 20
362337.5473999996
 10
16929.25219999999
 20
362337.8875999991
 10
16929.15890000015
 20
362338.2168000006
 10
16929.01090000011
 20
362338.5252000001
 10
16928.8125
 20
362338.8038999998
 10
16928.56950000021
 20
362339.0448000003
 10
16928.2890999997
 20
362339.240700001
 10
16927.97929999977
 20
362339.3859000002
 10
16926.06940000039
 20
362340.0889999997
 10
16925.75050000008
 20
362340.1772000008
 10
16925.42129999958
 20
362340.2116999999
 10
16925.09109999984
 20
362340.1914000009
 10
16924.76860000007
 20
362340.1169000008
 10
16924.46289999969
 20
362339.9902999997
 10
16924.18219999969
 20
362339.8148999997
 10
16923.93429999985
 20
362339.5957999993
 10
16923.72589999996
 20
362339.3387000002
 10
16923.56280000042
 20
362339.0507999995
1001
AcMap_E615D161-C9D7-11d3-839F-0060B0FB6B57
1071
        1
1071
       17
  0
LWPOLYLINE
  5
C2A
330
1F
100
AcDbEntity
  8
Straßenverlauf_FBRD
100
AcDbPolyline
 90
       11
 70
     0
 43
0.0
 10
16918.45660000015
 20
362340.8701000009
 10
16918.52799999993
 20
362341.1993000005
 10
16918.54330000002
 20
362341.5358000007
 10
16918.50219999999
 20
362341.8701000009
 10
16918.4057
 20
362342.1929000001
 10
16918.25669999979
 20
362342.4949999992
 10
16918.05920000002
 20
362342.7678999994
 10
16917.8189000003
 20
362343.0039000009
 10
16917.54250000045
 20
362343.1964999996
 10
16917.23780000023
 20
362343.3400999997
 10
16905.34240000043
 20
362347.7192000002
1001
AcMap_E615D161-C9D7-11d3-839F-0060B0FB6B57
1071
        1
1071
       17
  0
LWPOLYLINE
  5
C2B
330
1F
100
AcDbEntity
  8
Straßenverlauf_FBRD
100
AcDbPolyline
 90
       17
 70
     0
 43
0.0
 10
16906.88650000002
 20
362351.9134999998
 10
16918.96509999968
 20
362348.0322999992
 10
16940.61830000021
 20
362340.0611000005
 10
16949.40050000045
 20
362337.1325000003
 10
16958.34659999981
 20
362334.7512999997
 10
16967.42250000033
 20
362332.9265000001
 10
16971.08469999954
 20
362332.6050000005
 10
16974.75129999965
 20
362332.8712000009
 10
16978.32859999966
 20
362333.7181000002
 10
16981.72539999988
 20
362335.1240999997
 10
16984.85470000002
 20
362337.0534000006
 10
16990.06410000007
 20
362341.0961000007
 10
16995.04349999968
 20
362345.4189
 10
16999.77799999993
 20
362350.0086000003
 10
17018.03789999988
 20
362368.7104000003
 10
17019.94809999969
 20
362370.4582000003
 10
17022.04270000011
 20
362371.9803
1001
AcMap_E615D161-C9D7-11d3-839F-0060B0FB6B57
1071
        1
1071
       17
  0
LWPOLYLINE
  5
C2C
330
1F
100
AcDbEntity
  8
Straßenverlauf_FBRD
100
AcDbPolyline
 90
        3
 70
     0
 43
0.0
 10
17022.04270000011
 20
362371.9803
 10
17024.60769999959
 20
362373.4090999999
 10
17027.33389999997
 20
362374.4993999992
1001
AcMap_E615D161-C9D7-11d3-839F-0060B0FB6B57
1071
        1
1071
       17
  0
LWPOLYLINE
  5
C2D
330
1F
100
AcDbEntity
  8
Straßenverlauf_FBRD
100
AcDbPolyline
 90
      107
 70
     0
 43
0.0
 10
17022.04270000011
 20
362371.9803
 10
17027.02290000021
 20
362378.0673999991
 10
17030.91069999989
 20
362378.8991000001
 10
17034.87909999955
 20
362379.1396999993
 10
17038.83889999985
 20
362378.784
 10
17040.10379999969
 20
362378.67
 10
17041.37170000002
 20
362378.7456999999
 10
17042.61400000006
 20
362379.0095000007
 10
17043.80329999979
 20
362379.4554999992
 10
17044.91270000022
 20
362380.0736999996
 10
17045.91770000011
 20
362380.8502999992
 10
17047.43450000044
 20
362382.4077000004
 10
17048.73340000026
 20
362384.1510000005
 10
17049.79179999977
 20
362386.0500000008
 10
17054.09130000044
 20
362394.1949000005
 10
17059.07679999992
 20
362401.9389999993
 10
17064.71129999961
 20
362409.2244000007
 10
17070.95280000008
 20
362415.9970999994
 10
17071.32870000042
 20
362416.3694000002
 10
17071.70930000022
 20
362416.7425999996
 10
17072.09140000026
 20
362417.1137000006
 10
17072.47479999996
 20
362417.4825999998
 10
17072.85969999991
 20
362417.8493000009
 10
17073.24600000027
 20
362418.2139999997
 10
17073.63350000046
 20
362418.5765000004
 10
17074.02240000013
 20
362418.9370000009
 10
17074.41249999962
 20
362419.2953999993
 10
17074.80379999988
 20
362419.6517999993
 10
17075.19629999995
 20
362420.0062000006
 10
17075.58999999985
 20
362420.3586
 10
17075.98479999974
 20
362420.7091000006
 10
17076.3805999998
 20
362421.0576000009
 10
17076.77749999985
 20
362421.4042000007
 10
17077.17540000006
 20
362421.7489999999
 10
17077.57430000044
 20
362422.0918000006
 10
17077.97420000005
 20
362422.4329000004
 10
17078.375
 20
362422.7721999996
 10
17078.77660000045
 20
362423.1096000001
 10
17079.1791000003
 20
362423.4453999996
 10
17079.58249999955
 20
362423.7793000006
 10
17079.98660000041
 20
362424.1116000005
 10
17080.39149999991
 20
362424.4422999993
 10
17080.79710000008
 20
362424.7711999994
 10
17081.20349999983
 20
362425.0986000002
 10
17081.61050000041
 20
362425.4243999999
 10
17082.01809999998
 20
362425.7485000007
 10
17082.42640000023
 20
362426.0712000002
 10
17082.83530000038
 20
362426.3924000003
 10
17083.24480000045
 20
362426.7119999994
 10
17083.65469999984
 20
362427.0302000009
 10
17084.06520000007
 20
362427.3469999991
 10
17084.47620000038
 20
362427.6623999998
 10
17084.88760000002
 20
362427.9763999992
 10
17085.29949999973
 20
362428.2891000007
 10
17085.7117999997
 20
362428.6005000007
 10
17086.12440000009
 20
362428.9104999994
 10
17086.53749999963
 20
362429.2193999998
 10
17086.95079999976
 20
362429.5270000008
 10
17087.36440000031
 20
362429.8333000001
 10
17087.77840000018
 20
362430.1385999993
 10
17088.19259999972
 20
362430.4427000005
 10
17088.60699999984
 20
362430.7456
 10
17089.02159999963
 20
362431.0474999994
 10
17089.4364
 20
362431.3484000005
 10
17089.85140000004
 20
362431.6481999998
 10
17090.26649999991
 20
362431.9470000007
 10
17090.68180000037
 20
362432.2448999994
 10
17091.0970999999
 20
362432.5417999998
 10
17091.51250000019
 20
362432.8377999999
 10
17091.92789999954
 20
362433.1328999996
 10
17092.34339999966
 20
362433.4272000008
 10
17092.75889999978
 20
362433.7206999995
 10
17093.1743999999
 20
362434.0133999996
 10
17093.58980000019
 20
362434.3052999992
 10
17094.00509999972
 20
362434.5965
 10
17094.41899999976
 20
362434.886
 10
17094.83430000022
 20
362435.1758999992
 10
17095.24949999992
 20
362435.4650999997
 10
17095.66449999995
 20
362435.7536999993
 10
17096.07930000033
 20
362436.0417999998
 10
17096.49399999995
 20
362436.3292999994
 10
17096.9084999999
 20
362436.6162000001
 10
17097.32270000037
 20
362436.9026999995
 10
17097.73670000024
 20
362437.1886999998
 10
17098.15039999969
 20
362437.4741999992
 10
17098.56379999965
 20
362437.7594000009
 10
17098.97699999995
 20
362438.0441999995
 10
17099.3898
 20
362438.3286000006
 10
17099.8021999998
 20
362438.6127000004
 10
17100.21430000011
 20
362438.8965000008
 10
17104.06340000033
 20
362441.5471999999
 10
17105.95880000014
 20
362442.8524999991
 10
17115.21100000013
 20
362449.5593999997
 10
17124.12839999981
 20
362456.7052999996
 10
17132.69020000007
 20
362464.2737000007
 10
17132.73680000007
 20
362464.3169
 10
17139.33330000005
 20
362470.9234999996
 10
17145.40739999991
 20
362478.0132
 10
17150.92399999965
 20
362485.5449000001
 10
17155.85099999979
 20
362493.4748999999
 10
17160.15979999956
 20
362501.7569999993
 10
17163.82529999967
 20
362510.3432999998
 10
17166.82629999984
 20
362519.1838000007
 10
17169.14520000014
 20
362528.2270999998
 10
17170.76879999973
 20
362537.4208000005
 10
17170.77740000002
 20
362537.4836999998
 10
17171.43109999969
 20
362542.6582999993
1001
AcMap_E615D161-C9D7-11d3-839F-0060B0FB6B57
1071
        1
1071
       17
  0
LWPOLYLINE
  5
C2E
330
1F
100
AcDbEntity
  8
Straßenverlauf_FBRD
100
AcDbPolyline
 90
      111
 70
     0
 43
0.0
 10
17027.33389999997
 20
362374.4993999992
 10
17030.91720000002
 20
362375.3626000006
 10
17034.59240000043
 20
362375.6423000005
 10
17038.26510000042
 20
362375.3313999996
 10
17040.05090000014
 20
362375.1703999993
 10
17041.84080000035
 20
362375.2773000002
 10
17043.59480000008
 20
362375.6498000008
 10
17045.27369999978
 20
362376.2794000004
 10
17046.83999999985
 20
362377.1521000005
 10
17048.25879999995
 20
362378.2485000007
 10
17050.09729999956
 20
362380.1362999995
 10
17051.67169999983
 20
362382.2493999992
 10
17052.95459999982
 20
362384.5512000006
 10
17057.2061999999
 20
362392.3694000002
 10
17062.05439999979
 20
362399.8323999997
 10
17067.46949999966
 20
362406.8947000001
 10
17073.4188000001
 20
362413.5133999996
 10
17073.78560000006
 20
362413.8765999992
 10
17074.15390000027
 20
362414.2378000003
 10
17074.52379999961
 20
362414.5971000009
 10
17074.89529999997
 20
362414.9543999993
 10
17075.26829999965
 20
362415.3099000007
 10
17075.64279999956
 20
362415.6634
 10
17076.0186999999
 20
362416.0151000005
 10
17076.39609999954
 20
362416.3649000004
 10
17076.77489999961
 20
362416.7128999997
 10
17077.15490000043
 20
362417.0590000004
 10
17077.53639999963
 20
362417.4034000002
 10
17077.91909999959
 20
362417.7459999994
 10
17078.3030000003
 20
362418.0868999996
 10
17078.68819999974
 20
362418.4260000009
 10
17079.07459999993
 20
362418.7634999994
 10
17079.46210000012
 20
362419.0991999991
 10
17079.85080000013
 20
362419.4332999997
 10
17080.24060000013
 20
362419.7657999993
 10
17080.6314000003
 20
362420.0965999999
 10
17081.02329999953
 20
362420.4258999993
 10
17081.41619999986
 20
362420.7535999995
 10
17081.81010000035
 20
362421.0797000007
 10
17082.20490000024
 20
362421.4044000004
 10
17082.6007000003
 20
362421.7276000008
 10
17082.99729999993
 20
362422.0493000001
 10
17083.39489999972
 20
362422.3695000001
 10
17083.79320000019
 20
362422.6884000004
 10
17084.19240000006
 20
362423.0057999995
 10
17084.59240000043
 20
362423.3219000009
 10
17084.99320000037
 20
362423.6367000006
 10
17085.39470000006
 20
362423.9502000008
 10
17085.79690000042
 20
362424.2623999994
 10
17086.19979999959
 20
362424.5733000003
 10
17086.60329999961
 20
362424.8829999995
 10
17087.0075000003
 20
362425.1914000009
 10
17087.41229999997
 20
362425.4988000002
 10
17087.81769999955
 20
362425.8048999999
 10
17088.22369999997
 20
362426.1099999994
 10
17088.63019999955
 20
362426.4138999991
 10
17089.03720000014
 20
362426.7168000005
 10
17089.44469999987
 20
362427.0186000001
 10
17089.85259999987
 20
362427.3194999993
 10
17090.26099999994
 20
362427.6193000004
 10
17090.66990000009
 20
362427.9181999993
 10
17091.07909999974
 20
362428.2160999999
 10
17091.48869999964
 20
362428.5131999999
 10
17091.89869999979
 20
362428.8093999997
 10
17092.30889999959
 20
362429.1046999991
 10
17092.71949999966
 20
362429.3992999997
 10
17093.13040000014
 20
362429.693
 10
17093.54160000011
 20
362429.9859999996
 10
17093.95289999991
 20
362430.2782000005
 10
17094.36450000014
 20
362430.5698000006
 10
17094.77639999986
 20
362430.8606000003
 10
17095.18829999957
 20
362431.1509000007
 10
17095.60049999971
 20
362431.4405000005
 10
17096.01279999968
 20
362431.7294999995
 10
17096.4252000004
 20
362432.0179999993
 10
17096.83770000003
 20
362432.3059
 10
17097.25019999966
 20
362432.5932999999
 10
17097.66280000005
 20
362432.8803000003
 10
17098.07550000027
 20
362433.1667999998
 10
17098.48819999955
 20
362433.4528999999
 10
17098.90079999994
 20
362433.7386000008
 10
17099.31350000016
 20
362434.0240000002
 10
17099.72599999979
 20
362434.3090000003
 10
17100.13860000018
 20
362434.5938000009
 10
17100.55099999998
 20
362434.8782000002
 10
17100.96329999994
 20
362435.1623999999
 10
17101.37550000008
 20
362435.4463999998
 10
17101.78760000039
 20
362435.7302000002
 10
17102.1995000001
 20
362436.0139000006
 10
17106.04860000033
 20
362438.6645999998
 10
17107.9439000003
 20
362439.9699000008
 10
17117.33299999963
 20
362446.7760000005
 10
17126.38239999954
 20
362454.0276999996
 10
17135.07100000046
 20
362461.7081000004
 10
17135.1174999997
 20
362461.7512999997
 10
17141.90240000002
 20
362468.5465999991
 10
17148.1501000002
 20
362475.8388999999
 10
17153.82440000027
 20
362483.5857999995
 10
17158.89209999982
 20
362491.7423999999
 10
17163.32400000002
 20
362500.2611999996
 10
17167.09420000016
 20
362509.0928000008
 10
17170.18090000003
 20
362518.1857999992
 10
17172.56620000023
 20
362527.4875000008
 10
17174.23610000033
 20
362536.9439000003
 10
17174.24480000045
 20
362537.0067999997
 10
17174.41339999996
 20
362538.2568999995
 10
17174.44749999977
 20
362538.8379999995
 10
17174.39690000005
 20
362539.4179999997
 10
17174.26260000001
 20
362539.9844000005
 10
17174.04750000033
 20
362540.5253999997
 10
17173.75619999971
 20
362541.0294000004
1001
AcMap_E615D161-C9D7-11d3-839F-0060B0FB6B57
1071
        1
1071
       17
  0
LWPOLYLINE
  5
C2F
330
1F
100
AcDbEntity
  8
Straßenverlauf_FBRD
100
AcDbPolyline
 90
       16
 70
     0
 43
0.0
 10
17027.33389999997
 20
362374.4993999992
 10
17028.45550000015
 20
362375.8703000006
 10
17031.74820000026
 20
362376.4848999996
 10
17035.09449999966
 20
362376.6349999999
 10
17038.42899999954
 20
362376.3178000003
 10
17040.06599999964
 20
362376.1701999996
 10
17041.70669999998
 20
362376.2683000006
 10
17043.31450000033
 20
362376.6096999999
 10
17044.8535000002
 20
362377.1867999994
 10
17046.28930000029
 20
362377.9868999999
 10
17047.58990000002
 20
362378.9919000007
 10
17049.33650000021
 20
362380.7852999997
 10
17050.83210000023
 20
362382.7927000002
 10
17052.05090000015
 20
362384.9793999996
 10
17054.00119999982
 20
362388.8816
 10
17054.88609999977
 20
362388.4158999994
1001
AcMap_E615D161-C9D7-11d3-839F-0060B0FB6B57
1071
        1
1071
       17
  0
LINE
  5
C30
330
1F
100
AcDbEntity
  8
Straßenverlauf_FBRD
100
AcDbLine
 10
17064.13389999978
 20
362383.5496999994
 30
0.0
 11
17065.57390000019
 21
362386.1820000001
 31
0.0
1001
AcMap_E615D161-C9D7-11d3-839F-0060B0FB6B57
1071
        1
1071
       17
  0
LINE
  5
C31
330
1F
100
AcDbEntity
  8
Straßenverlauf_FBRD
100
AcDbLine
 10
17060.61620000005
 20
362385.4006999992
 30
0.0
 11
17058.40380000043
 21
362386.5648999997
 31
0.0
1001
AcMap_E615D161-C9D7-11d3-839F-0060B0FB6B57
1071
        1
1071
       17
  0
LINE
  5
C32
330
1F
100
AcDbEntity
  8
Straßenverlauf_FBRD
100
AcDbLine
 10
17060.61620000005
 20
362385.4006999992
 30
0.0
 11
17062.05439999979
 21
362388.0339000002
 31
0.0
1001
AcMap_E615D161-C9D7-11d3-839F-0060B0FB6B57
1071
        1
1071
       17
  0
LWPOLYLINE
  5
C33
330
1F
100
AcDbEntity
  8
Straßenverlauf_FBRD
100
AcDbPolyline
 90
       15
 70
     0
 43
0.0
 10
17065.57390000019
 20
362386.1820000001
 10
17067.80310000013
 20
362389.9002
 10
17070.20359999966
 20
362393.5101999995
 10
17071.00970000028
 20
362394.6632000003
 10
17073.33169999998
 20
362397.8957000003
 10
17073.96939999983
 20
362398.6276999992
 10
17074.71690000035
 20
362399.2473000009
 10
17075.55439999979
 20
362399.7381999996
 10
17076.46019999962
 20
362400.0876000002
 10
17077.41050000023
 20
362400.2863999996
 10
17078.38040000014
 20
362400.3292999994
 10
17083.63049999997
 20
362399.7369999997
 10
17088.73170000035
 20
362398.3613000009
 10
17093.56769999955
 20
362396.2333000005
 10
17094.61139999982
 20
362395.6764000002
1001
AcMap_E615D161-C9D7-11d3-839F-0060B0FB6B57
1071
        1
1071
       17
  0
LWPOLYLINE
  5
C34
330
1F
100
AcDbEntity
  8
Straßenverlauf_FBRD
100
AcDbPolyline
 90
       22
 70
     0
 43
0.0
 10
17058.40380000043
 20
362386.5648999997
 10
17056.1333999997
 20
362381.9656000007
 10
17056.06259999983
 20
362381.7717000004
 10
17056.02469999995
 20
362381.5687000007
 10
17056.02070000022
 20
362381.3622999993
 10
17056.05069999955
 20
362381.1580999997
 10
17056.11400000006
 20
362380.9616000001
 10
17056.2087000003
 20
362380.7782000006
 10
17056.33229999989
 20
362380.6128000003
 10
17056.48149999976
 20
362380.4701000005
 10
17056.6520999996
 20
362380.3539000005
 10
17056.83949999977
 20
362380.2673000005
 10
17057.03859999962
 20
362380.2127999999
 10
17057.24399999995
 20
362380.1917000004
 10
17057.45000000018
 20
362380.2048000005
 10
17057.65110000037
 20
362380.2515999992
 10
17057.84169999976
 20
362380.3308000006
 10
17058.01669999957
 20
362380.4404000007
 10
17058.17119999975
 20
362380.5771999993
 10
17058.30119999964
 20
362380.7377000004
 10
17058.4029000001
 20
362380.9173000008
 10
17060.61620000005
 20
362385.4006999992
1001
AcMap_E615D161-C9D7-11d3-839F-0060B0FB6B57
1071
        1
1071
       17
  0
LWPOLYLINE
  5
C35
330
1F
100
AcDbEntity
  8
Straßenverlauf_FBRD
100
AcDbPolyline
 90
       21
 70
     0
 43
0.0
 10
17062.05439999979
 20
362388.0339000002
 10
17064.63040000014
 20
362392.3192999997
 10
17064.73099999968
 20
362392.5125999991
 10
17064.79650000017
 20
362392.7204000001
 10
17064.82490000035
 20
362392.9364
 10
17064.8152999999
 20
362393.1541000009
 10
17064.76809999998
 20
362393.366800001
 10
17064.6847000001
 20
362393.5680999998
 10
17064.56759999972
 20
362393.7519000005
 10
17064.42040000017
 20
362393.9124999996
 10
17064.24749999959
 20
362394.0450999998
 10
17064.05420000013
 20
362394.1457000003
 10
17063.84640000015
 20
362394.2112000007
 10
17063.63040000014
 20
362394.2396000009
 10
17063.41270000022
 20
362394.2300000005
 10
17063.20000000018
 20
362394.1828000005
 10
17062.99870000034
 20
362394.0994000007
 10
17062.81489999965
 20
362393.9823000003
 10
17062.65429999959
 20
362393.8351000008
 10
17062.52170000039
 20
362393.6622000002
 10
17059.84100000001
 20
362389.1986999996
1001
AcMap_E615D161-C9D7-11d3-839F-0060B0FB6B57
1071
        1
1071
       17
  0
LINE
  5
C36
330
1F
100
AcDbEntity
  8
Straßenverlauf_FBRD
100
AcDbLine
 10
17059.84100000001
 20
362389.1986999996
 30
0.0
 11
17058.40380000043
 21
362386.5648999997
 31
0.0
1001
AcMap_E615D161-C9D7-11d3-839F-0060B0FB6B57
1071
        1
1071
       17
  0
LINE
  5
C37
330
1F
100
AcDbEntity
  8
Straßenverlauf_FBRD
100
AcDbLine
 10
17059.84100000001
 20
362389.1986999996
 30
0.0
 11
17062.05439999979
 21
362388.0339000002
 31
0.0
1001
AcMap_E615D161-C9D7-11d3-839F-0060B0FB6B57
1071
        1
1071
       17
  0
LWPOLYLINE
  5
C38
330
1F
100
AcDbEntity
  8
Straßenverlauf_FBRD
100
AcDbPolyline
 90
       95
 70
     0
 43
0.0
 10
17056.3217000002
 20
362391.0505
 10
17055.4364
 20
362391.5164000001
 10
17059.16050000023
 20
362397.6249000002
 10
17063.29480000026
 20
362403.4636000004
 10
17067.81989999953
 20
362409.0050000008
 10
17072.71430000011
 20
362414.2229999993
 10
17073.08359999955
 20
362414.5888000001
 10
17073.45540000033
 20
362414.9535000008
 10
17073.82880000025
 20
362415.3160999995
 10
17074.20380000025
 20
362415.6767999996
 10
17074.5800999999
 20
362416.0353999995
 10
17074.95799999963
 20
362416.3921000008
 10
17075.33729999978
 20
362416.7468999997
 10
17075.71789999958
 20
362417.0998
 10
17076.0998999998
 20
362417.4506999999
 10
17076.48319999966
 20
362417.7997999993
 10
17076.86780000012
 20
362418.1470999997
 10
17077.2536000004
 20
362418.4924999998
 10
17077.64070000034
 20
362418.8361000009
 10
17078.02890000027
 20
362419.1778999996
 10
17078.41830000002
 20
362419.5179999992
 10
17078.80879999976
 20
362419.8563000001
 10
17079.20040000044
 20
362420.1929000002
 10
17079.59300000034
 20
362420.5277999994
 10
17079.98670000024
 20
362420.8610999994
 10
17080.3814000003
 20
362421.1927000005
 10
17080.77699999977
 20
362421.5227000006
 10
17081.17360000033
 20
362421.8510999997
 10
17081.57110000029
 20
362422.1778999995
 10
17081.96949999966
 20
362422.5032000002
 10
17082.36870000046
 20
362422.8269999996
 10
17082.76879999973
 20
362423.1492999997
 10
17083.16959999967
 20
362423.4701000005
 10
17083.57120000012
 20
362423.7895
 10
17083.97360000014
 20
362424.1075
 10
17084.37669999991
 20
362424.4240000006
 10
17084.78039999958
 20
362424.7392999996
 10
17085.18479999993
 20
362425.0532000009
 10
17085.58990000002
 20
362425.3658000008
 10
17085.99560000002
 20
362425.6771000009
 10
17086.40189999994
 20
362425.9871999994
 10
17086.80869999993
 20
362426.2960000001
 10
17087.21600000001
 20
362426.6035999991
 10
17087.6239
 20
362426.9101
 10
17088.03230000008
 20
362427.2155000009
 10
17088.4411000004
 20
362427.5197000001
 10
17088.85030000005
 20
362427.8227999993
 10
17089.25999999977
 20
362428.1249000002
 10
17089.66999999992
 20
362428.426000001
 10
17090.08050000015
 20
362428.7259999999
 10
17090.49120000005
 20
362429.0251000002
 10
17090.90230000019
 20
362429.3232000005
 10
17091.31369999982
 20
362429.6205000002
 10
17091.72539999988
 20
362429.9167999998
 10
17092.13729999959
 20
362430.2123000008
 10
17092.54949999973
 20
362430.5068999995
 10
17092.9617999997
 20
362430.8007999994
 10
17093.37440000009
 20
362431.0939000007
 10
17093.78710000031
 20
362431.3861999996
 10
17094.19990000036
 20
362431.6777999997
 10
17094.61290000006
 20
362431.9686999992
 10
17095.0259999996
 20
362432.2589999997
 10
17095.4391999999
 20
362432.5485999995
 10
17095.85199999995
 20
362432.8374000006
 10
17096.26530000008
 20
362433.1259000004
 10
17096.67860000022
 20
362433.4137999993
 10
17097.09190000035
 20
362433.7013000008
 10
17097.50519999955
 20
362433.9881999996
 10
17097.91839999985
 20
362434.2747000009
 10
17098.33160000015
 20
362434.5607999992
 10
17098.74469999969
 20
362434.8465
 10
17099.15770000033
 20
362435.1317999997
 10
17099.57050000038
 20
362435.4167
 10
17099.98319999967
 20
362435.7014000006
 10
17100.39580000005
 20
362435.9857999999
 10
17100.80819999985
 20
362436.2698999997
 10
17101.22030000016
 20
362436.5537999999
 10
17101.6322999997
 20
362436.8375000004
 10
17105.48139999993
 20
362439.4881999996
 10
17107.3766999999
 20
362440.7935000006
 10
17116.72670000046
 20
362447.5712000002
 10
17125.73840000015
 20
362454.7927000001
 10
17134.39080000017
 20
362462.4410999995
 10
17134.43730000034
 20
362462.4843000006
 10
17141.16839999985
 20
362469.2257000003
 10
17147.36649999954
 20
362476.4601000008
 10
17152.99569999985
 20
362484.1455000006
 10
17158.0231999997
 20
362492.2372999993
 10
17162.41990000009
 20
362500.6885000002
 10
17166.16029999964
 20
362509.4499999993
 10
17169.22250000015
 20
362518.4708999992
 10
17171.58880000003
 20
362527.6987999995
 10
17173.24550000019
 20
362537.0800999999
 10
17173.25409999955
 20
362537.1431000009
 10
17173.75619999971
 20
362541.0294000004
1001
AcMap_E615D161-C9D7-11d3-839F-0060B0FB6B57
1071
        1
1071
       17
  0
LWPOLYLINE
  5
C39
330
1F
100
AcDbEntity
  8
Straßenverlauf_FBRD
100
AcDbPolyline
 90
       22
 70
     0
 43
0.0
 10
17096.26379999984
 20
362398.0831000004
 10
17096.25679999962
 20
362398.0877999999
 10
17092.70799999963
 20
362400.2617000007
 10
17088.95260000042
 20
362402.0551999994
 10
17085.03120000008
 20
362403.4486999996
 10
17084.40589999966
 20
362403.6937000007
 10
17083.83040000032
 20
362404.0398999993
 10
17083.32100000046
 20
362404.4773999993
 10
17082.89190000016
 20
362404.9941000007
 10
17082.55530000012
 20
362405.5752000008
 10
17082.32060000021
 20
362406.2043999992
 10
17082.19460000004
 20
362406.8640999999
 10
17082.18070000037
 20
362407.5354999993
 10
17082.27929999958
 20
362408.1997999996
 10
17082.4877000004
 20
362408.8383000009
 10
17082.79989999998
 20
362409.4328000005
 10
17083.20720000006
 20
362409.9668000005
 10
17089.83660000004
 20
362416.8538000006
 10
17096.05319999996
 20
362422.6064999998
 10
17102.57290000003
 20
362428.0132999998
 10
17109.37640000041
 20
362433.0582999997
 10
17109.87689999956
 20
362433.4083999992
1001
AcMap_E615D161-C9D7-11d3-839F-0060B0FB6B57
1071
        1
1071
       17
  0
LINE
  5
C3A
330
1F
100
AcDbEntity
  8
Straßenverlauf_FBRD
100
AcDbLine
 10
17109.73519999999
 20
362433.3113000002
 30
0.0
 11
17109.87689999956
 21
362433.4083999992
 31
0.0
1001
AcMap_E615D161-C9D7-11d3-839F-0060B0FB6B57
1071
        1
1071
       17
  0
LWPOLYLINE
  5
C3B
330
1F
100
AcDbEntity
  8
Straßenverlauf_FBRD
100
AcDbPolyline
 90
       91
 70
     0
 43
0.0
 10
17109.87689999956
 20
362433.4083999992
 10
17110.37980000023
 20
362433.7552000005
 10
17110.56329999957
 20
362433.8816
 10
17110.97750000003
 20
362434.1668999996
 10
17111.39180000033
 20
362434.4524000008
 10
17111.80620000046
 20
362434.7380999998
 10
17112.22059999965
 20
362435.0240000003
 10
17112.6350999996
 20
362435.3101000004
 10
17113.04970000032
 20
362435.5965
 10
17113.46420000028
 20
362435.8830999993
 10
17113.87880000006
 20
362436.17
 10
17114.29330000002
 20
362436.4572999999
 10
17114.70779999997
 20
362436.7447999996
 10
17115.12229999993
 20
362437.0327000003
 10
17115.53670000005
 20
362437.3210000005
 10
17115.95110000018
 20
362437.6096999999
 10
17116.36529999971
 20
362437.8987000007
 10
17116.77950000018
 20
362438.1883000005
 10
17117.19350000005
 20
362438.4782999996
 10
17117.60749999992
 20
362438.7687
 10
17118.02120000031
 20
362439.0596999992
 10
17118.43479999993
 20
362439.3511999995
 10
17118.84829999972
 20
362439.6432000008
 10
17119.26150000002
 20
362439.9357999992
 10
17119.67449999973
 20
362440.2290000003
 10
17120.08729999978
 20
362440.5228000004
 10
17120.49990000017
 20
362440.8171999995
 10
17120.9121000003
 20
362441.1122999993
 10
17121.32419999968
 20
362441.4079999998
 10
17121.73589999974
 20
362441.7045000009
 10
17122.1473000003
 20
362442.0015999991
 10
17122.55840000044
 20
362442.2994999998
 10
17122.96910000033
 20
362442.5980999992
 10
17123.3794999998
 20
362442.8976000007
 10
17123.78959999978
 20
362443.1977999993
 10
17124.19919999968
 20
362443.4988000003
 10
17124.60840000026
 20
362443.8006999996
 10
17125.01719999965
 20
362444.1033999995
 10
17125.42559999972
 20
362444.4069999997
 10
17125.83339999989
 20
362444.7115000002
 10
17126.24079999979
 20
362445.0168999992
 10
17126.64780000038
 20
362445.3233000003
 10
17127.05420000013
 20
362445.6305999999
 10
17127.45999999996
 20
362445.9388999995
 10
17127.86529999971
 20
362446.2481999993
 10
17128.27010000031
 20
362446.5584999994
 10
17128.67420000024
 20
362446.8698999994
 10
17129.07780000008
 20
362447.1822999995
 10
17129.48070000019
 20
362447.4957999997
 10
17129.88300000038
 20
362447.8103999999
 10
17130.2845999999
 20
362448.1261999998
 10
17130.68549999967
 20
362448.443
 10
17131.08579999953
 20
362448.761
 10
17131.48529999982
 20
362449.0801999998
 10
17131.88399999961
 20
362449.4005999994
 10
17132.28199999966
 20
362449.7222000007
 10
17132.67920000013
 20
362450.0450999998
 10
17133.0756000001
 20
362450.3691000008
 10
17133.47119999956
 20
362450.6944999993
 10
17133.86600000039
 20
362451.0210999996
 10
17134.25980000011
 20
362451.3490999993
 10
17134.65280000027
 20
362451.6784000006
 10
17135.04490000009
 20
362452.0089999997
 10
17135.43609999958
 20
362452.3410000001
 10
17135.82629999984
 20
362452.6743
 10
17136.21549999993
 20
362453.0090999995
 10
17136.60369999986
 20
362453.3452000004
 10
17136.99089999962
 20
362453.6828000006
 10
17137.37710000016
 20
362454.0218000002
 10
17137.76209999993
 20
362454.3622999992
 10
17138.14620000031
 20
362454.7042999994
 10
17138.52909999993
 20
362455.0478000008
 10
17138.91079999972
 20
362455.3927999996
 10
17139.29140000045
 20
362455.7392999996
 10
17139.67080000043
 20
362456.0873000007
 10
17140.04899999965
 20
362456.4368999992
 10
17147.17640000023
 20
362463.5713999998
 10
17153.74380000028
 20
362471.2245000005
 10
17159.71360000037
 20
362479.3522999995
 10
17165.05159999989
 20
362487.9083999991
 10
17169.72719999961
 20
362496.8435999993
 10
17170.24210000038
 20
362497.7237
 10
17170.89850000012
 20
362498.5039000009
 10
17171.67760000005
 20
362499.1616999992
 10
17172.55680000037
 20
362499.6780999993
 10
17173.51070000045
 20
362500.0381000005
 10
17174.51190000027
 20
362500.2314999998
 10
17175.53129999991
 20
362500.2524999995
 10
17176.53949999995
 20
362500.1006000005
 10
17177.5075000003
 20
362499.7802000009
 10
17181.55260000005
 20
362498.0472999997
1001
AcMap_E615D161-C9D7-11d3-839F-0060B0FB6B57
1071
        1
1071
       17
  0
LWPOLYLINE
  5
C3C
330
1F
100
AcDbEntity
  8
Straßenverlauf_FBRD
100
AcDbPolyline
 90
        6
 70
     0
 43
0.0
 10
17173.75619999971
 20
362541.0294000004
 10
17173.39630000014
 20
362541.4840999991
 10
17172.97449999954
 20
362541.8820999991
 10
17172.49949999992
 20
362542.2148000002
 10
17171.98139999993
 20
362542.4754000008
 10
17171.43109999969
 20
362542.6582999993
1001
AcMap_E615D161-C9D7-11d3-839F-0060B0FB6B57
1071
        1
1071
       17
  0
LWPOLYLINE
  5
C3D
330
1F
100
AcDbEntity
  8
Straßenverlauf_FBRD
100
AcDbPolyline
 90
        7
 70
     0
 43
0.0
 10
17171.43109999969
 20
362542.6582999993
 10
17170.76159999985
 20
362542.7686999999
 10
17170.08310000039
 20
362542.7643999998
 10
17169.41509999986
 20
362542.6454000007
 10
17168.77680000011
 20
362542.4153000004
 10
17168.18659999966
 20
362542.080600001
 10
17165.77369999978
 20
362540.4268999994
1001
AcMap_E615D161-C9D7-11d3-839F-0060B0FB6B57
1071
        1
1071
       17
  0
LWPOLYLINE
  5
C3E
330
1F
100
AcDbEntity
  8
Straßenverlauf_FBRD
100
AcDbPolyline
 90
        3
 70
     0
 43
0.0
 10
17172.33499999996
 20
362552.2118999996
 10
17171.93850000016
 20
362551.9255999998
 10
17166.5689000003
 20
362548.2519000005
1001
AcMap_E615D161-C9D7-11d3-839F-0060B0FB6B57
1071
        1
1071
       17
  0
LWPOLYLINE
  5
C3F
330
1F
100
AcDbEntity
  8
Straßenverlauf_FBRD
100
AcDbPolyline
 90
        6
 70
     0
 43
0.0
 10
17172.33499999996
 20
362552.2118999996
 10
17172.85520000011
 20
362561.9337000009
 10
17172.97479999996
 20
362571.6686000005
 10
17172.76929999981
 20
362596.4517999999
 10
17172.74149999954
 20
362599.8081
 10
17172.31190000009
 20
362651.6060000007
1001
AcMap_E615D161-C9D7-11d3-839F-0060B0FB6B57
1071
        1
1071
       17
  0
LWPOLYLINE
  5
C40
330
1F
100
AcDbEntity
  8
Straßenverlauf_FBRD
100
AcDbPolyline
 90
        4
 70
     0
 43
0.0
 10
17175.0521999998
 20
362555.3637000006
 10
17174.29669999983
 20
362554.1896000001
 10
17173.38509999961
 20
362553.1320999991
 10
17172.33499999996
 20
362552.2118999996
1001
AcMap_E615D161-C9D7-11d3-839F-0060B0FB6B57
1071
        1
1071
       17
  0
LWPOLYLINE
  5
C41
330
1F
100
AcDbEntity
  8
Straßenverlauf_FBRD
100
AcDbPolyline
 90
        6
 70
     0
 43
0.0
 10
17175.0521999998
 20
362555.3637000006
 10
17175.4029000001
 20
362563.5229000002
 10
17175.47470000013
 20
362571.6894000005
 10
17175.26919999998
 20
362596.4725000001
 10
17175.2413999997
 20
362599.8289000001
 10
17174.82639999967
 20
362649.8571000006
1001
AcMap_E615D161-C9D7-11d3-839F-0060B0FB6B57
1071
        1
1071
       17
  0
LWPOLYLINE
  5
C42
330
1F
100
AcDbEntity
  8
Straßenverlauf_FBRD
100
AcDbPolyline
 90
       11
 70
     0
 43
0.0
 10
17175.0521999998
 20
362555.3637000006
 10
17175.68450000044
 20
362556.7603999992
 10
17176.09590000007
 20
362558.237400001
 10
17176.27670000028
 20
362559.7599
 10
17176.47470000013
 20
362571.6976999995
 10
17176.26919999998
 20
362596.4807999991
 10
17175.85130000021
 20
362646.8654999994
 10
17175.78010000009
 20
362647.6658999994
 10
17175.58160000015
 20
362648.4444999993
 10
17175.26090000011
 20
362649.1811999996
 10
17174.82639999967
 20
362649.8571000006
1001
AcMap_E615D161-C9D7-11d3-839F-0060B0FB6B57
1071
        1
1071
       17
  0
LWPOLYLINE
  5
C43
330
1F
100
AcDbEntity
  8
Straßenverlauf_FBRD
100
AcDbPolyline
 90
       98
 70
     0
 43
0.0
 10
17190.51090000011
 20
362627.6830000002
 10
17184.15170000028
 20
362622.8332000002
 10
17183.69089999981
 20
362622.4218000006
 10
17183.29899999965
 20
362621.9442999996
 10
17182.98519999999
 20
362621.4121000003
 10
17182.75710000004
 20
362620.8379999996
 10
17182.62009999994
 20
362620.2357000001
 10
17182.57749999966
 20
362619.6194000002
 10
17182.76889999956
 20
362596.5347000007
 10
17182.95540000033
 20
362574.0527999997
 10
17182.95959999971
 20
362573.5502000004
 10
17182.9637000002
 20
362573.0473999996
 10
17182.96779999975
 20
362572.5443999991
 10
17182.97180000041
 20
362572.0413000006
 10
17182.9757000003
 20
362571.5380000007
 10
17182.97950000036
 20
362571.0344999992
 10
17182.98309999983
 20
362570.5308999997
 10
17182.98660000041
 20
362570.0270000007
 10
17182.98979999963
 20
362569.5230999999
 10
17182.99280000012
 20
362569.0188999996
 10
17182.99560000002
 20
362568.5145999995
 10
17182.99799999967
 20
362568.0100999996
 10
17183.00019999966
 20
362567.5055
 10
17183.00200000033
 20
362567.0006000009
 10
17183.00349999964
 20
362566.4956999999
 10
17183.0044999998
 20
362565.9904999994
 10
17183.00519999955
 20
362565.485200001
 10
17183.00540000014
 20
362564.9796999991
 10
17183.00509999972
 20
362564.4739999995
 10
17183.00430000014
 20
362563.9682
 10
17183.00299999956
 20
362563.4622000009
 10
17183.00119999982
 20
362562.9560000002
 10
17182.99880000017
 20
362562.4496999998
 10
17182.99579999968
 20
362561.9431999997
 10
17182.99220000021
 20
362561.4364999999
 10
17182.98790000006
 20
362560.9297000003
 10
17182.98290000018
 20
362560.4228000008
 10
17182.97719999961
 20
362559.9156
 10
17182.97080000024
 20
362559.4082999994
 10
17182.96360000036
 20
362558.9009000008
 10
17182.95569999981
 20
362558.3932000008
 10
17182.94689999986
 20
362557.8855000008
 10
17182.93730000034
 20
362557.3775999993
 10
17182.92679999955
 20
362556.8695000001
 10
17182.91540000029
 20
362556.3613000009
 10
17182.90309999976
 20
362555.8529000003
 10
17182.88989999983
 20
362555.3443999999
 10
17182.87559999991
 20
362554.8357999996
 10
17182.86039999965
 20
362554.3269999996
 10
17182.84420000016
 20
362553.8180999998
 10
17182.82689999975
 20
362553.3090000004
 10
17182.80850000027
 20
362552.7997999993
 10
17182.78899999987
 20
362552.2905000001
 10
17182.76840000041
 20
362551.7810999993
 10
17182.74660000019
 20
362551.2715000008
 10
17182.72360000014
 20
362550.7619000003
 10
17182.69940000027
 20
362550.2521000002
 10
17182.67389999982
 20
362549.7422000002
 10
17182.64719999954
 20
362549.2322000005
 10
17182.61919999961
 20
362548.7221000009
 10
17182.58990000002
 20
362548.2118999995
 10
17182.55920000002
 20
362547.7017000001
 10
17182.5270999996
 20
362547.1912999991
 10
17182.49370000046
 20
362546.6809000001
 10
17182.45880000014
 20
362546.1703999993
 10
17182.42239999957
 20
362545.6598000005
 10
17182.38449999969
 20
362545.1491999999
 10
17182.34520000033
 20
362544.6384999995
 10
17182.30429999996
 20
362544.1278000009
 10
17182.26180000044
 20
362543.6170000006
 10
17182.21779999975
 20
362543.1062000003
 10
17182.17210000008
 20
362542.5954
 10
17182.12480000034
 20
362542.0844999999
 10
17182.07579999976
 20
362541.5736999996
 10
17182.0251000002
 20
362541.0627999996
 10
17181.97259999998
 20
362540.5519999993
 10
17181.91839999985
 20
362540.0410999991
 10
17181.86249999981
 20
362539.5303000007
 10
17181.80470000021
 20
362539.0195000004
 10
17181.74509999994
 20
362538.5088
 10
17181.6836000001
 20
362537.9980999996
 10
17181.62019999977
 20
362537.4875000008
 10
17181.55489999987
 20
362536.9769000002
 10
17181.4877000004
 20
362536.4663999994
 10
17181.41849999968
 20
362535.9561000002
 10
17179.91770000011
 20
362527.2116999999
 10
17177.83829999994
 20
362518.5866000001
 10
17175.18960000016
 20
362510.1188999992
 10
17174.93919999991
 20
362509.1502000001
 10
17174.85319999978
 20
362508.1534000002
 10
17174.93410000018
 20
362507.1561999992
 10
17175.17949999962
 20
362506.1862000003
 10
17175.58270000014
 20
362505.2706000004
 10
17176.1325000003
 20
362504.4345999994
 10
17176.81350000016
 20
362503.7017000001
 10
17177.60690000001
 20
362503.0921
 10
17178.4905000003
 20
362502.6228
 10
17183.07679999992
 20
362500.6579999999
1001
AcMap_E615D161-C9D7-11d3-839F-0060B0FB6B57
1071
        1
1071
       17
  0
LWPOLYLINE
  5
C44
330
1F
100
AcDbEntity
  8
Straßenverlauf_FBRD
100
AcDbPolyline
 90
       18
 70
     0
 43
0.0
 10
17121.79289999976
 20
362627.8436999992
 10
17123.39230000041
 20
362627.5861000009
 10
17125.01229999959
 20
362627.5901999996
 10
17126.61039999965
 20
362627.8557999992
 10
17128.14460000023
 20
362628.3759000003
 10
17129.57469999976
 20
362629.1369000003
 10
17130.86319999955
 20
362630.1188999992
 10
17132.71750000026
 20
362631.5969999992
 10
17134.73369999975
 20
362632.8453000002
 10
17153.14900000021
 20
362642.7872000002
 10
17164.59520000033
 20
362649.3674999997
 10
17165.88949999958
 20
362650.0373
 10
17168.7516999999
 20
362651.3617000003
 10
17169.43400000036
 20
362651.6188999993
 10
17170.1464999998
 20
362651.7740000002
 10
17170.8739
 20
362651.8239999991
 10
17171.60089999996
 20
362651.7675000001
 10
17172.31190000009
 20
362651.6060000007
1001
AcMap_E615D161-C9D7-11d3-839F-0060B0FB6B57
1071
        1
1071
       17
  0
LWPOLYLINE
  5
C45
330
1F
100
AcDbEntity
  8
Straßenverlauf_FBRD
100
AcDbPolyline
 90
       12
 70
     0
 43
0.0
 10
17116.63970000017
 20
362630.9534000009
 10
17119.97699999995
 20
362630.9833000005
 10
17123.29069999978
 20
362631.3805999998
 10
17126.54050000012
 20
362632.1405999996
 10
17127.71129999961
 20
362632.5643000007
 10
17128.82039999962
 20
362633.1302000005
 10
17129.85059999954
 20
362633.8296000008
 10
17133.07100000046
 20
362635.9251000006
 10
17151.44510000013
 20
362645.8447999992
 10
17162.85080000013
 20
362652.4017999992
 10
17164.41970000043
 20
362653.2137000002
 10
17172.24299999978
 20
362656.8337999992
1001
AcMap_E615D161-C9D7-11d3-839F-0060B0FB6B57
1071
        1
1071
       17
  0
LWPOLYLINE
  5
C46
330
1F
100
AcDbEntity
  8
Straßenverlauf_FBRD
100
AcDbPolyline
 90
      108
 70
     0
 43
0.0
 10
17190.4486999996
 20
362635.1812999994
 10
17188.85790000018
 20
362633.9681000002
 10
17188.28369999956
 20
362633.6030000002
 10
17187.65600000042
 20
362633.3405000009
 10
17186.99280000012
 20
362633.1882000007
 10
17186.31350000016
 20
362633.1504999996
 10
17185.63750000019
 20
362633.2283999995
 10
17184.98460000008
 20
362633.4198000003
 10
17184.37349999975
 20
362633.7192000002
 10
17183.82210000045
 20
362634.1176999994
 10
17183.34609999973
 20
362634.6040000003
 10
17182.95940000005
 20
362635.1637999993
 10
17182.67329999991
 20
362635.7811999992
 10
17182.49590000044
 20
362636.4379999992
 10
17182.43240000028
 20
362637.1154999994
 10
17182.11459999997
 20
362675.4312999994
 10
17182.11039999965
 20
362675.9313999992
 10
17182.1063000001
 20
362676.4315000009
 10
17182.10209999978
 20
362676.9317000006
 10
17182.09779999964
 20
362677.4320999999
 10
17182.09350000042
 20
362677.9324999992
 10
17182.08910000045
 20
362678.4330000003
 10
17182.08469999954
 20
362678.9337000009
 10
17182.0800999999
 20
362679.4343999997
 10
17182.07540000044
 20
362679.9352000002
 10
17182.07050000038
 20
362680.4361000006
 10
17182.06549999956
 20
362680.9372000006
 10
17182.06030000001
 20
362681.4383000005
 10
17182.0549999997
 20
362681.9395000004
 10
17182.0493999999
 20
362682.4408999998
 10
17182.04360000044
 20
362682.9422999993
 10
17182.03760000039
 20
362683.4438000005
 10
17182.03129999991
 20
362683.9453999996
 10
17182.02479999978
 20
362684.4471000005
 10
17182.01800000015
 20
362684.9488999993
 10
17182.01090000011
 20
362685.4507999997
 10
17182.00339999981
 20
362685.9528000001
 10
17181.99569999985
 20
362686.4549000003
 10
17181.98759999964
 20
362686.9571000002
 10
17181.97910000011
 20
362687.4594000001
 10
17181.97030000016
 20
362687.9617999998
 10
17181.96109999996
 20
362688.4642999992
 10
17181.95150000043
 20
362688.9668000006
 10
17181.94149999972
 20
362689.4694999997
 10
17181.93099999986
 20
362689.9722000007
 10
17181.92009999975
 20
362690.4750999995
 10
17181.90869999956
 20
362690.9780000001
 10
17181.89680000022
 20
362691.4810000006
 10
17181.88439999986
 20
362691.9840999991
 10
17181.87150000036
 20
362692.4872999992
 10
17181.85809999984
 20
362692.9905999992
 10
17181.84410000034
 20
362693.4940000009
 10
17181.82959999982
 20
362693.9974000007
 10
17181.81450000033
 20
362694.5010000002
 10
17181.79879999999
 20
362695.0045999997
 10
17181.78249999974
 20
362695.5083000009
 10
17181.76549999975
 20
362696.0121
 10
17181.74799999967
 20
362696.515900001
 10
17181.72970000002
 20
362697.0198999997
 10
17181.71079999953
 20
362697.5239000004
 10
17181.69120000023
 20
362698.0278999992
 10
17181.67090000026
 20
362698.5320999995
 10
17181.64989999961
 20
362699.0362999998
 10
17181.62820000015
 20
362699.5406
 10
17181.60560000036
 20
362700.0449999999
 10
17181.58239999972
 20
362700.5494
 10
17181.55829999968
 20
362701.0538999997
 10
17181.5334999999
 20
362701.5584999994
 10
17181.50779999979
 20
362702.0631000009
 10
17181.4813000001
 20
362702.5677000005
 10
17181.45390000008
 20
362703.0724999998
 10
17181.42569999955
 20
362703.5771999993
 10
17181.39659999963
 20
362704.0821000003
 10
17181.36670000013
 20
362704.5869999994
 10
17181.33579999953
 20
362705.0919000004
 10
17181.30389999971
 20
362705.5967999995
 10
17181.27120000031
 20
362706.1019000001
 10
17181.23749999981
 20
362706.6068999991
 10
17181.20280000009
 20
362707.1119999997
 10
17181.16710000019
 20
362707.6171000004
 10
17181.13040000014
 20
362708.1221999992
 10
17181.09269999992
 20
362708.6273999997
 10
17181.05399999954
 20
362709.1326000002
 10
17181.01420000009
 20
362709.6378000006
 10
17180.97329999972
 20
362710.1429999993
 10
17180.93140000012
 20
362710.6481999997
 10
17180.88829999976
 20
362711.1535
 10
17180.84410000034
 20
362711.6587000005
 10
17180.79879999999
 20
362712.1640000009
 10
17180.75239999965
 20
362712.6691999995
 10
17180.70480000041
 20
362713.1744999998
 10
17180.65600000042
 20
362713.6797000002
 10
17180.60599999968
 20
362714.1849000008
 10
17180.55480000004
 20
362714.6900999993
 10
17180.50239999965
 20
362715.1952
 10
17180.44880000036
 20
362715.7004000004
 10
17180.39389999956
 20
362716.2054999992
 10
17179.4271999998
 20
362723.7070000004
 10
17179.36299999989
 20
362724.6389000006
 10
17179.44409999996
 20
362725.5695999991
 10
17179.6688000001
 20
362726.4762999993
 10
17180.03149999957
 20
362727.3372000009
 10
17180.5234000003
 20
362728.1313000005
 10
17181.13260000013
 20
362728.8395000007
 10
17181.84439999983
 20
362729.4444999993
 10
17182.64140000008
 20
362729.9317000006
 10
17183.50439999997
 20
362730.2893000003
 10
17189.60170000046
 20
362732.2753999997
1001
AcMap_E615D161-C9D7-11d3-839F-0060B0FB6B57
1071
        1
1071
       17
  0
LWPOLYLINE
  5
C47
330
1F
100
AcDbEntity
  8
Straßenverlauf_FBRD
100
AcDbPolyline
 90
        5
 70
     0
 43
0.0
 10
17174.82639999967
 20
362649.8571000006
 10
17174.30819999985
 20
362650.4365999997
 10
17173.70639999956
 20
362650.9287999999
 10
17173.03550000023
 20
362651.3217999991
 10
17172.31190000009
 20
362651.6060000007
1001
AcMap_E615D161-C9D7-11d3-839F-0060B0FB6B57
1071
        1
1071
       17
  0
LWPOLYLINE
  5
C48
330
1F
100
AcDbEntity
  8
Straßenverlauf_FBRD
100
AcDbPolyline
 90
       19
 70
     0
 43
0.0
 10
17174.75059999991
 20
362659.0041000005
 10
17175.17459999956
 20
362659.7726000007
 10
17175.48199999984
 20
362660.5947999992
 10
17175.66610000003
 20
362661.4529999998
 10
17175.72300000023
 20
362662.3289000001
 10
17175.61479999963
 20
362675.3773999997
 10
17175.59889999963
 20
362677.1828000006
 10
17175.04920000024
 20
362694.9178999998
 10
17173.7134999996
 20
362712.6111999993
 10
17173.44079999998
 20
362715.3992999998
 10
17173.43580000009
 20
362715.4401999991
 10
17172.39030000008
 20
362723.4324999992
 10
17171.01740000024
 20
362731.3750999999
 10
17170.44039999973
 20
362734.1682999991
 10
17167.99920000043
 20
362745.1973999999
 10
17167.40160000045
 20
362747.1327
 10
17166.54870000016
 20
362748.9699000009
 10
17166.22140000015
 20
362749.4724000003
 10
17165.82270000037
 20
362749.9202999994
1001
AcMap_E615D161-C9D7-11d3-839F-0060B0FB6B57
1071
        1
1071
       17
  0
LWPOLYLINE
  5
C49
330
1F
100
AcDbEntity
  8
Straßenverlauf_FBRD
100
AcDbPolyline
 90
       11
 70
     0
 43
0.0
 10
17174.75059999991
 20
362659.0041000005
 10
17174.61490000039
 20
362675.3691000008
 10
17174.59900000039
 20
362677.1740000006
 10
17174.05069999955
 20
362694.8648000006
 10
17172.71829999983
 20
362712.5138000008
 10
17172.44660000037
 20
362715.2905000001
 10
17172.44240000006
 20
362715.3254000005
 10
17171.40249999985
 20
362723.2766999994
 10
17170.03689999971
 20
362731.1786000002
 10
17169.46109999996
 20
362733.966
 10
17165.82270000037
 20
362749.9202999994
1001
AcMap_E615D161-C9D7-11d3-839F-0060B0FB6B57
1071
        1
1071
       17
  0
LWPOLYLINE
  5
C4A
330
1F
100
AcDbEntity
  8
Straßenverlauf_FBRD
100
AcDbPolyline
 90
       16
 70
     0
 43
0.0
 10
17174.75059999991
 20
362659.0041000005
 10
17174.24899999983
 20
362658.3399000001
 10
17173.66029999964
 20
362657.7514999993
 10
17172.99579999968
 20
362657.2501999997
 10
17172.26840000041
 20
362656.8456999995
 10
17172.11490000039
 20
362675.3484000005
 10
17172.09910000022
 20
362677.1520000007
 10
17171.55420000013
 20
362694.7318999991
 10
17170.2302000001
 20
362712.2704000008
 10
17169.96129999962
 20
362715.0184000004
 10
17169.95889999997
 20
362715.0384999998
 10
17168.93290000036
 20
362722.8874999993
 10
17167.58550000004
 20
362730.6876999997
 10
17167.01279999967
 20
362733.4603000004
 10
17165.08710000012
 20
362742.2750000004
 10
17162.96129999961
 20
362751.0436000005
1001
AcMap_E615D161-C9D7-11d3-839F-0060B0FB6B57
1071
        1
1071
       17
  0
LWPOLYLINE
  5
C4B
330
1F
100
AcDbEntity
  8
Straßenverlauf_FBRD
100
AcDbPolyline
 90
        6
 70
     0
 43
0.0
 10
17158.75899999961
 20
362749.0841000006
 10
17160.92260000016
 20
362750.4364
 10
17161.48340000026
 20
362750.7280000001
 10
17162.08310000039
 20
362750.9276000001
 10
17162.70669999998
 20
362751.0303000007
 10
17162.96129999961
 20
362751.0436000005
1001
AcMap_E615D161-C9D7-11d3-839F-0060B0FB6B57
1071
        1
1071
       17
  0
LWPOLYLINE
  5
C4C
330
1F
100
AcDbEntity
  8
Straßenverlauf_FBRD
100
AcDbPolyline
 90
        6
 70
     0
 43
0.0
 10
17162.96129999961
 20
362751.0436000005
 10
17163.59059999976
 20
362751.0066999998
 10
17164.20629999973
 20
362750.8714000005
 10
17164.79310000036
 20
362750.6410000008
 10
17165.33640000038
 20
362750.3213999998
 10
17165.82270000037
 20
362749.9202999994
1001
AcMap_E615D161-C9D7-11d3-839F-0060B0FB6B57
1071
        1
1071
       17
  0
LWPOLYLINE
  5
C4D
330
1F
100
AcDbEntity
  8
Straßenverlauf_FBRD
100
AcDbPolyline
 90
        4
 70
     0
 43
0.0
 10
17157.21910000034
 20
362755.1972000004
 10
17160.49010000005
 20
362757.2414999995
 10
17160.97869999986
 20
362757.581700001
 10
17161.19089999981
 20
362757.7535999995
1001
AcMap_E615D161-C9D7-11d3-839F-0060B0FB6B57
1071
        1
1071
       17
  0
LWPOLYLINE
  5
C4E
330
1F
100
AcDbEntity
  8
Straßenverlauf_FBRD
100
AcDbPolyline
 90
        5
 70
     0
 43
0.0
 10
17161.19089999981
 20
362757.7535999995
 10
17161.78949999995
 20
362758.3377
 10
17162.30109999981
 20
362758.9993999992
 10
17162.71569999959
 20
362759.7258000001
 10
17163.02520000003
 20
362760.5028000008
1001
AcMap_E615D161-C9D7-11d3-839F-0060B0FB6B57
1071
        1
1071
       17
  0
LWPOLYLINE
  5
C4F
330
1F
100
AcDbEntity
  8
Straßenverlauf_FBRD
100
AcDbPolyline
 90
       88
 70
     0
 43
0.0
 10
17161.19089999981
 20
362757.7535999995
 10
17158.3786000004
 20
362767.5495999996
 10
17157.86019999999
 20
362769.2714000009
 10
17156.60840000026
 20
362773.4213999995
 10
17156.4634999996
 20
362773.9021000006
 10
17156.31840000022
 20
362774.3829999995
 10
17156.17339999974
 20
362774.8640999999
 10
17156.02830000035
 20
362775.3455999997
 10
17155.88320000004
 20
362775.8272999991
 10
17155.73819999955
 20
362776.3092999999
 10
17155.59310000017
 20
362776.7916000002
 10
17155.44809999969
 20
362777.2741000001
 10
17155.30329999979
 20
362777.7569999993
 10
17155.15840000007
 20
362778.2401999999
 10
17155.01379999984
 20
362778.7237
 10
17154.86919999961
 20
362779.2074999996
 10
17154.72479999997
 20
362779.6917000003
 10
17154.58059999998
 20
362780.1761000008
 10
17154.43649999983
 20
362780.6609000006
 10
17154.29270000011
 20
362781.1460999995
 10
17154.14910000004
 20
362781.6315000001
 10
17154.00580000039
 20
362782.1173999999
 10
17153.8627000004
 20
362782.6035999991
 10
17153.71989999991
 20
362783.0900999998
 10
17153.57739999983
 20
362783.5770999995
 10
17153.43530000001
 20
362784.0643000007
 10
17153.29339999985
 20
362784.5519999993
 10
17153.15199999977
 20
362785.0401000009
 10
17153.01099999994
 20
362785.5285000001
 10
17152.86980000045
 20
362786.0190999992
 10
17152.72960000019
 20
362786.5084000007
 10
17152.58980000019
 20
362786.9980999995
 10
17152.45050000027
 20
362787.4881999995
 10
17152.31159999967
 20
362787.9787000008
 10
17152.17329999991
 20
362788.4696999994
 10
17152.03550000023
 20
362788.9611000009
 10
17151.89829999953
 20
362789.4529
 10
17151.76159999985
 20
362789.9451000001
 10
17151.62550000008
 20
362790.4377999995
 10
17151.49000000022
 20
362790.9309
 10
17151.35520000011
 20
362791.4244999998
 10
17151.22090000007
 20
362791.9185000006
 10
17151.08739999961
 20
362792.4130000007
 10
17150.95459999982
 20
362792.9079
 10
17150.82239999994
 20
362793.4033000004
 10
17150.69099999964
 20
362793.8991999999
 10
17150.56039999984
 20
362794.3955000006
 10
17150.43049999978
 20
362794.8924000003
 10
17150.30140000023
 20
362795.3896999993
 10
17150.17310000025
 20
362795.8874999992
 10
17150.04569999966
 20
362796.3857000005
 10
17149.91909999959
 20
362796.8845000007
 10
17149.79339999985
 20
362797.3838
 10
17149.66860000044
 20
362797.8836000004
 10
17149.54480000026
 20
362798.3838
 10
17149.42179999966
 20
362798.8846000004
 10
17149.29980000015
 20
362799.3859000002
 10
17149.17889999971
 20
362799.8877000008
 10
17149.05889999959
 20
362800.3900000006
 10
17148.93989999965
 20
362800.8927999996
 10
17148.82199999969
 20
362801.3961999994
 10
17148.70519999973
 20
362801.9001000002
 10
17148.58939999994
 20
362802.4044000004
 10
17148.47479999997
 20
362802.9093999993
 10
17148.36129999999
 20
362803.4147999995
 10
17148.2489
 20
362803.9208000004
 10
17148.13779999967
 20
362804.4273000006
 10
17148.02780000027
 20
362804.9343999997
 10
17147.91909999959
 20
362805.4419999998
 10
17147.81159999966
 20
362805.9500999992
 10
17147.70529999956
 20
362806.4586999994
 10
17147.60039999988
 20
362806.9679000005
 10
17147.49670000002
 20
362807.4777000006
 10
17147.39439999964
 20
362807.9879000001
 10
17147.29349999968
 20
362808.4988000002
 10
17147.1939000003
 20
362809.0100999997
 10
17147.09580000024
 20
362809.5219999999
 10
17146.99899999983
 20
362810.0343999994
 10
17146.90369999967
 20
362810.5473999996
 10
17146.80989999976
 20
362811.0610000007
 10
17146.71750000026
 20
362811.5749999993
 10
17146.6266999999
 20
362812.0896000006
 10
17146.53739999979
 20
362812.6048000008
 10
17146.44969999976
 20
362813.1204000004
 10
17146.36349999998
 20
362813.6366000008
 10
17146.27890000026
 20
362814.1534000003
 10
17146.19600000046
 20
362814.6707000006
 10
17146.1939000003
 20
362814.6842
1001
AcMap_E615D161-C9D7-11d3-839F-0060B0FB6B57
1071
        1
1071
       17
  0
LWPOLYLINE
  5
C50
330
1F
100
AcDbEntity
  8
Straßenverlauf_FBRD
100
AcDbPolyline
 90
       86
 70
     0
 43
0.0
 10
17163.02520000003
 20
362760.5028000008
 10
17163.23159999959
 20
362761.3624000009
 10
17163.30939999968
 20
362762.2430000008
 10
17163.25700000021
 20
362763.1254999992
 10
17163.07550000027
 20
362763.9907000009
 10
17161.73000000044
 20
362768.5584999993
 10
17161.21160000004
 20
362770.2803000007
 10
17159.95930000022
 20
362774.4320999999
 10
17159.81439999956
 20
362774.9127999992
 10
17159.66940000001
 20
362775.3935000003
 10
17159.52440000046
 20
362775.8743999992
 10
17159.37939999997
 20
362776.3554999996
 10
17159.23450000025
 20
362776.8366000001
 10
17159.0895999996
 20
362777.318
 10
17158.94489999953
 20
362777.7994999997
 10
17158.8002000004
 20
362778.2810999994
 10
17158.65560000017
 20
362778.7630000003
 10
17158.51109999977
 20
362779.2449999992
 10
17158.36679999996
 20
362779.7270999998
 10
17158.22269999981
 20
362780.2094999999
 10
17158.07880000025
 20
362780.6919999998
 10
17157.93510000035
 20
362781.1747999992
 10
17157.79160000011
 20
362781.6577000004
 10
17157.64829999953
 20
362782.140900001
 10
17157.50540000014
 20
362782.6242999994
 10
17157.3627000004
 20
362783.1078999993
 10
17157.22030000016
 20
362783.5917000008
 10
17157.07830000017
 20
362784.0756999999
 10
17156.93649999983
 20
362784.5600000006
 10
17156.79519999958
 20
362785.0445000008
 10
17156.65419999975
 20
362785.5293000005
 10
17156.51370000001
 20
362786.0142999999
 10
17156.37359999958
 20
362786.4996000007
 10
17156.23390000034
 20
362786.9850999993
 10
17156.09460000042
 20
362787.4708999992
 10
17155.95590000041
 20
362787.9569000006
 10
17155.81759999972
 20
362788.4432999995
 10
17155.67989999987
 20
362788.9298999999
 10
17155.5427000001
 20
362789.4167999998
 10
17155.40610000025
 20
362789.9039999992
 10
17155.27010000031
 20
362790.3915
 10
17155.13460000045
 20
362790.8793000002
 10
17154.99980000034
 20
362791.3673999999
 10
17154.86560000013
 20
362791.8557999991
 10
17154.73209999967
 20
362792.3444999997
 10
17154.59920000005
 20
362792.8334999997
 10
17154.46710000001
 20
362793.3228999991
 10
17154.33559999987
 20
362793.8125999999
 10
17154.20490000024
 20
362794.3026
 10
17154.07500000018
 20
362794.7928999998
 10
17153.94579999987
 20
362795.2836000007
 10
17153.81749999989
 20
362795.7745999992
 10
17153.68989999965
 20
362796.2660000008
 10
17153.56319999974
 20
362796.7577
 10
17153.43740000017
 20
362797.2498000004
 10
17153.31240000017
 20
362797.7422000002
 10
17153.18829999957
 20
362798.2349999995
 10
17153.06520000007
 20
362798.7281999998
 10
17152.94299999997
 20
362799.2216999996
 10
17152.8217000002
 20
362799.7156000007
 10
17152.70150000043
 20
362800.2097999994
 10
17152.58220000006
 20
362800.704500001
 10
17152.46399999968
 20
362801.1995000001
 10
17152.34680000041
 20
362801.6949000005
 10
17152.23060000036
 20
362802.1906000004
 10
17152.11560000013
 20
362802.6867999994
 10
17152.00160000008
 20
362803.1832999997
 10
17151.88879999984
 20
362803.6802999992
 10
17151.77720000036
 20
362804.1776000001
 10
17151.66660000011
 20
362804.6753000003
 10
17151.55730000045
 20
362805.1733999998
 10
17151.44919999968
 20
362805.6719000004
 10
17151.34229999967
 20
362806.1708000004
 10
17151.23670000024
 20
362806.6700999998
 10
17151.1322999997
 20
362807.1697000005
 10
17151.02929999958
 20
362807.6698000003
 10
17150.92750000022
 20
362808.1702999994
 10
17150.82710000034
 20
362808.6711999998
 10
17150.72800000012
 20
362809.1724999995
 10
17150.63040000014
 20
362809.6742000002
 10
17150.30680000037
 20
362811.3951999992
 10
17150.1640999997
 20
362811.9487999994
 10
17149.9439000003
 20
362812.4763999991
 10
17149.65079999994
 20
362812.9671999999
 10
17149.29059999995
 20
362813.4112999998
 10
17148.87090000044
 20
362813.7993999999
1001
AcMap_E615D161-C9D7-11d3-839F-0060B0FB6B57
1071
        1
1071
       17
  0
LWPOLYLINE
  5
C51
330
1F
100
AcDbEntity
  8
Straßenverlauf_FBRD
100
AcDbPolyline
 90
       85
 70
     0
 43
0.0
 10
17163.02520000003
 20
362760.5028000008
 10
17160.77240000013
 20
362768.2701999992
 10
17160.25409999955
 20
362769.9920000006
 10
17159.00189999956
 20
362774.1433000006
 10
17158.85699999984
 20
362774.6239999999
 10
17158.71200000029
 20
362775.1048000008
 10
17158.5669999998
 20
362775.5857999996
 10
17158.42200000025
 20
362776.0669
 10
17158.27699999977
 20
362776.5483
 10
17158.13210000004
 20
362777.0297999997
 10
17157.98720000032
 20
362777.5114999991
 10
17157.84240000043
 20
362777.9934000001
 10
17157.6978000002
 20
362778.4755000007
 10
17157.55319999996
 20
362778.9579000007
 10
17157.40880000032
 20
362779.4404000006
 10
17157.26460000034
 20
362779.9232000001
 10
17157.12050000019
 20
362780.4061999992
 10
17156.9765999997
 20
362780.8894999996
 10
17156.83299999963
 20
362781.3728999999
 10
17156.68960000016
 20
362781.8566999994
 10
17156.54640000034
 20
362782.3406000008
 10
17156.40359999984
 20
362782.8248999995
 10
17156.26099999994
 20
362783.3093999997
 10
17156.11870000046
 20
362783.7940999997
 10
17155.97680000029
 20
362784.2792000007
 10
17155.83519999962
 20
362784.7644999996
 10
17155.69400000013
 20
362785.2500999998
 10
17155.55319999996
 20
362785.7358999997
 10
17155.41280000005
 20
362786.2221000009
 10
17155.27269999962
 20
362786.7091000006
 10
17155.13320000004
 20
362787.1959000007
 10
17154.99419999961
 20
362787.6830000003
 10
17154.85560000036
 20
362788.1703999993
 10
17154.71760000009
 20
362788.6580999997
 10
17154.58000000007
 20
362789.1461999994
 10
17154.4430999998
 20
362789.6346000005
 10
17154.30669999961
 20
362790.1232999992
 10
17154.17090000026
 20
362790.612400001
 10
17154.03569999989
 20
362791.1018000003
 10
17153.90110000037
 20
362791.5914999992
 10
17153.76719999965
 20
362792.0815999992
 10
17153.63399999961
 20
362792.5721000005
 10
17153.50140000041
 20
362793.0628999994
 10
17153.36959999986
 20
362793.5540999994
 10
17153.23849999998
 20
362794.0457000006
 10
17153.10809999984
 20
362794.5375999995
 10
17152.97860000003
 20
362795.0298999996
 10
17152.84979999997
 20
362795.5226000008
 10
17152.72180000041
 20
362796.0155999996
 10
17152.59460000042
 20
362796.5090999995
 10
17152.46829999983
 20
362797.0029000007
 10
17152.34289999958
 20
362797.4971999992
 10
17152.21839999966
 20
362797.9918000009
 10
17152.09480000008
 20
362798.4869
 10
17151.97209999989
 20
362798.9823000003
 10
17151.85030000005
 20
362799.4781999998
 10
17151.72960000019
 20
362799.9744000007
 10
17151.60979999974
 20
362800.4711000007
 10
17151.49110000021
 20
362800.9682
 10
17151.37339999992
 20
362801.4657000006
 10
17151.25669999979
 20
362801.9636000004
 10
17151.14120000042
 20
362802.4619999994
 10
17151.02670000028
 20
362802.9607999996
 10
17150.91339999996
 20
362803.460000001
 10
17150.80119999964
 20
362803.9595999997
 10
17150.69020000007
 20
362804.4596999995
 10
17150.58029999956
 20
362804.9602000006
 10
17150.47169999964
 20
362805.4612000008
 10
17150.36429999955
 20
362805.9625000004
 10
17150.25810000021
 20
362806.4642999992
 10
17150.15319999959
 20
362806.9666000009
 10
17150.04959999956
 20
362807.4693
 10
17149.94730000011
 20
362807.9724000004
 10
17149.84630000032
 20
362808.4759999998
 10
17149.74670000002
 20
362808.9800000005
 10
17149.64850000012
 20
362809.4844000005
 10
17149.55169999972
 20
362809.9892999996
 10
17149.45629999973
 20
362810.4946999997
 10
17149.36230000015
 20
362811.0003999994
 10
17149.26979999989
 20
362811.5066999998
 10
17149.17879999988
 20
362812.0132999998
 10
17149.08930000011
 20
362812.5204000008
 10
17149.00129999965
 20
362813.0278999992
 10
17148.9149000002
 20
362813.5359000005
 10
17148.87090000044
 20
362813.7993999999
1001
AcMap_E615D161-C9D7-11d3-839F-0060B0FB6B57
1071
        1
1071
       17
  0
LWPOLYLINE
  5
C52
330
1F
100
AcDbEntity
  8
Straßenverlauf_FBRD
100
AcDbPolyline
 90
        6
 70
     0
 43
0.0
 10
17148.87090000044
 20
362813.7993999999
 10
17148.34410000033
 20
362814.1560999993
 10
17147.76750000007
 20
362814.4247999993
 10
17147.15560000017
 20
362814.5987
 10
17146.52379999962
 20
362814.6732999999
 10
17146.1939000003
 20
362814.6842
1001
AcMap_E615D161-C9D7-11d3-839F-0060B0FB6B57
1071
        1
1071
       17
  0
LWPOLYLINE
  5
C53
330
1F
100
AcDbEntity
  8
Straßenverlauf_FBRD
100
AcDbPolyline
 90
        4
 70
     0
 43
0.0
 10
17146.1939000003
 20
362814.6842
 10
17143.06099999975
 20
362814.6333000008
 10
17139.94529999979
 20
362814.3025000002
 10
17134.48929999955
 20
362813.4748
1001
AcMap_E615D161-C9D7-11d3-839F-0060B0FB6B57
1071
        1
1071
       17
  0
LWPOLYLINE
  5
C54
330
1F
100
AcDbEntity
  8
Straßenverlauf_FBRD
100
AcDbPolyline
 90
        4
 70
     0
 43
0.0
 10
17134.03930000029
 20
362816.4408999999
 10
17137.9009999996
 20
362817.0266999994
 10
17141.78839999996
 20
362817.8444999997
 10
17145.55800000019
 20
362819.0975000002
1001
AcMap_E615D161-C9D7-11d3-839F-0060B0FB6B57
1071
        1
1071
       17
  0
LWPOLYLINE
  5
C55
330
1F
100
AcDbEntity
  8
Straßenverlauf_FBRD
100
AcDbPolyline
 90
        6
 70
     0
 43
0.0
 10
17145.55800000019
 20
362819.0975000002
 10
17146.13800000027
 20
362819.3335999995
 10
17146.64169999957
 20
362819.5869999994
 10
17147.10470000002
 20
362819.9086000007
 10
17147.51790000032
 20
362820.2921999991
 10
17147.87310000043
 20
362820.7301000003
1001
AcMap_E615D161-C9D7-11d3-839F-0060B0FB6B57
1071
        1
1071
       17
  0
LWPOLYLINE
  5
C56
330
1F
100
AcDbEntity
  8
Straßenverlauf_FBRD
100
AcDbPolyline
 90
      242
 70
     0
 43
0.0
 10
17145.55800000019
 20
362819.0975000002
 10
17144.69070000015
 20
362827.6043999996
 10
17144.28870000038
 20
362836.1459999997
 10
17144.35300000012
 20
362844.6967999992
 10
17144.88350000046
 20
362853.2314
 10
17144.93090000003
 20
362853.7507000007
 10
17144.98020000011
 20
362854.2725000009
 10
17145.03129999991
 20
362854.7938999999
 10
17145.0839999998
 20
362855.3148999997
 10
17145.13829999976
 20
362855.8354000003
 10
17145.19429999962
 20
362856.3554999996
 10
17145.25179999973
 20
362856.8750999999
 10
17145.31089999992
 20
362857.3944000006
 10
17145.37150000036
 20
362857.9131000005
 10
17145.43369999993
 20
362858.4313999992
 10
17145.49729999993
 20
362858.9493000005
 10
17145.5625
 20
362859.4667000007
 10
17145.62899999972
 20
362859.9835999999
 10
17145.69710000045
 20
362860.5001999997
 10
17145.76649999991
 20
362861.0162000005
 10
17145.83729999978
 20
362861.5318
 10
17145.90950000006
 20
362862.0469000004
 10
17145.98300000001
 20
362862.5615999997
 10
17146.0577999996
 20
362863.0757999998
 10
17146.13389999978
 20
362863.5896000006
 10
17146.21129999962
 20
362864.1029000003
 10
17146.29000000003
 20
362864.6157000009
 10
17146.36990000028
 20
362865.1281000003
 10
17146.45100000035
 20
362865.6400000006
 10
17146.53330000024
 20
362866.1514999997
 10
17146.61670000013
 20
362866.6624999997
 10
17146.70129999984
 20
362867.1730000004
 10
17146.78699999954
 20
362867.6831000001
 10
17146.87380000017
 20
362868.1927000005
 10
17146.96169999987
 20
362868.7018999997
 10
17147.05069999955
 20
362869.2105999999
 10
17147.14059999957
 20
362869.7189000007
 10
17147.23159999959
 20
362870.2267000005
 10
17147.32359999977
 20
362870.7340999991
 10
17147.41660000011
 20
362871.2411000002
 10
17147.51049999986
 20
362871.7475000005
 10
17147.60529999993
 20
362872.2535999995
 10
17147.70110000018
 20
362872.7591999993
 10
17147.79769999999
 20
362873.2642999999
 10
17147.89520000014
 20
362873.7690999992
 10
17147.99349999986
 20
362874.2732999996
 10
17148.09269999992
 20
362874.7772000004
 10
17148.19259999972
 20
362875.2806000002
 10
17148.29339999985
 20
362875.7836000007
 10
17148.39489999972
 20
362876.2862
 10
17148.49710000027
 20
362876.7884
 10
17148.60010000039
 20
362877.2901000008
 10
17148.70370000042
 20
362877.7914000005
 10
17148.80800000019
 20
362878.2923000008
 10
17148.91299999971
 20
362878.7928
 10
17149.01860000007
 20
362879.2928999998
 10
17149.12490000017
 20
362879.7926000003
 10
17149.23170000035
 20
362880.2918999996
 10
17149.33910000045
 20
362880.7907999996
 10
17149.44699999969
 20
362881.2893000004
 10
17149.55549999978
 20
362881.7874999997
 10
17149.66449999995
 20
362882.2851999998
 10
17149.77400000021
 20
362882.7826000005
 10
17149.88389999978
 20
362883.2796000001
 10
17149.99399999995
 20
362883.7744999994
 10
17150.10479999985
 20
362884.2708
 10
17150.21609999984
 20
362884.7666999996
 10
17150.32770000025
 20
362885.2622999996
 10
17150.43979999982
 20
362885.7576000001
 10
17150.55209999997
 20
362886.2523999997
 10
17150.66480000037
 20
362886.7469999995
 10
17150.77780000027
 20
362887.2412000001
 10
17150.89120000042
 20
362887.7349999994
 10
17151.0047000004
 20
362888.2284999993
 10
17151.1185999997
 20
362888.7216999997
 10
17151.23259999975
 20
362889.2146000005
 10
17151.34690000023
 20
362889.7071000003
 10
17151.46129999961
 20
362890.1993000005
 10
17151.57600000035
 20
362890.6911999993
 10
17151.69079999998
 20
362891.1828000005
 10
17151.80570000037
 20
362891.6741000004
 10
17151.92069999966
 20
362892.1651000008
 10
17152.03589999955
 20
362892.6557999998
 10
17152.15110000037
 20
362893.1461999994
 10
17152.26630000025
 20
362893.6362999995
 10
17152.38159999996
 20
362894.1261999999
 10
17152.49689999968
 20
362894.6157000009
 10
17152.61220000032
 20
362895.1050000005
 10
17152.72750000004
 20
362895.5940000005
 10
17152.84279999975
 20
362896.082800001
 10
17158.68310000002
 20
362920.852
 10
17158.77909999993
 20
362921.3029999994
 10
17158.88269999996
 20
362921.7947000004
 10
17158.98790000006
 20
362922.2895
 10
17159.09130000043
 20
362922.7764999997
 10
17159.19440000038
 20
362923.267000001
 10
17159.29899999965
 20
362923.761
 10
17159.40259999968
 20
362924.2507000007
 10
17159.50490000006
 20
362924.7357999999
 10
17159.60680000018
 20
362925.2248999998
 10
17159.71030000038
 20
362925.7179000005
 10
17159.81159999967
 20
362926.2016000003
 10
17159.91229999997
 20
362926.6896000002
 10
17160.01460000034
 20
362927.1819000003
 10
17160.11450000014
 20
362927.6643000003
 10
17160.21389999986
 20
362928.1513
 10
17160.31469999999
 20
362928.6428999994
 10
17160.41289999988
 20
362929.1239999999
 10
17160.5103000002
 20
362929.6085000001
 10
17160.60940000042
 20
362930.0990999993
 10
17160.70610000007
 20
362930.5809000005
 10
17160.80169999972
 20
362931.0647999999
 10
17160.89869999978
 20
362931.5540999994
 10
17160.99399999995
 20
362932.0384
 10
17161.08789999969
 20
362932.5189999994
 10
17161.18049999978
 20
362933.0021000002
 10
17161.2742999997
 20
362933.4899000004
 10
17161.36579999979
 20
362933.9695999995
 10
17161.45600000024
 20
362934.4520999995
 10
17161.54710000008
 20
362934.9386999999
 10
17161.63590000011
 20
362935.4176000003
 10
17161.72339999955
 20
362935.8995999992
 10
17161.81159999966
 20
362936.3850999997
 10
17161.89749999996
 20
362936.8630999998
 10
17161.98199999984
 20
362937.3445999995
 10
17162.06699999981
 20
362937.8289999999
 10
17162.15029999986
 20
362938.3096999992
 10
17162.23190000001
 20
362938.7865999993
 10
17162.31209999975
 20
362939.2674000003
 10
17162.39250000007
 20
362939.7502999995
 10
17162.47059999965
 20
362940.2265000008
 10
17162.54719999991
 20
362940.7068000008
 10
17162.62380000017
 20
362941.1886000001
 10
17162.69820000045
 20
362941.6638999992
 10
17162.77099999971
 20
362942.1436999999
 10
17162.84360000025
 20
362942.6245000008
 10
17162.91399999987
 20
362943.0989999995
 10
17162.98269999958
 20
362943.5782999993
 10
17163.05109999981
 20
362944.0579000004
 10
17163.11780000012
 20
362944.5351999998
 10
17163.18250000011
 20
362945.0086000003
 10
17163.24519999977
 20
362945.4854000006
 10
17163.30790000036
 20
362945.9653999993
 10
17163.36799999978
 20
362946.4379999992
 10
17163.42609999981
 20
362946.9140000008
 10
17163.48400000017
 20
362947.393100001
 10
17163.53940000012
 20
362947.8648000006
 10
17163.59260000009
 20
362948.3399
 10
17163.6453999998
 20
362948.8180999998
 10
17163.69579999987
 20
362949.2890000008
 10
17163.74390000012
 20
362949.7632
 10
17163.79150000028
 20
362950.2404999994
 10
17163.83669999987
 20
362950.7104000003
 10
17163.87939999997
 20
362951.1835999992
 10
17163.9216
 20
362951.6600000002
 10
17163.96160000004
 20
362952.1325000003
 10
17163.99940000009
 20
362952.6009999998
 10
17164.03469999973
 20
362953.0728999991
 10
17164.06919999979
 20
362953.5480000004
 10
17164.10120000038
 20
362954.0154999998
 10
17164.1305999998
 20
362954.486300001
 10
17164.15909999981
 20
362954.9602000006
 10
17164.18520000018
 20
362955.4265000001
 10
17164.20849999972
 20
362955.8961999994
 10
17164.23080000002
 20
362956.3688999992
 10
17164.25059999991
 20
362956.8341000006
 10
17164.2675999999
 20
362957.3025000003
 10
17164.28340000007
 20
362957.7740000002
 10
17164.29700000025
 20
362958.2414999996
 10
17164.30829999968
 20
362958.7049000003
 10
17164.31639999989
 20
362959.1714999993
 10
17164.32340000011
 20
362959.6411000007
 10
17164.32799999974
 20
362960.1031
 10
17164.32930000033
 20
362960.5681999996
 10
17164.32930000033
 20
362961.0811000001
 10
17164.31460000016
 20
362965.5138000008
 10
17164.08710000012
 20
362969.9407000002
 10
17164.05900000036
 20
362970.4528000001
 10
17164.03230000008
 20
362970.9171999991
 10
17164.00250000041
 20
362971.3782000002
 10
17163.96989999991
 20
362971.8467999995
 10
17163.93620000034
 20
362972.3123000004
 10
17163.89960000012
 20
362972.7742999997
 10
17163.86050000042
 20
362973.2403999996
 10
17163.8189000003
 20
362973.7103000004
 10
17163.77639999985
 20
362974.1771000009
 10
17163.73120000027
 20
362974.6404
 10
17163.68310000002
 20
362975.111300001
 10
17163.6342000002
 20
362975.5789000001
 10
17163.58270000014
 20
362976.0431999993
 10
17163.52830000035
 20
362976.5147999991
 10
17163.47329999972
 20
362976.9833000004
 10
17163.41569999978
 20
362977.4484000002
 10
17163.35529999994
 20
362977.9208000004
 10
17163.29430000018
 20
362978.3901000005
 10
17163.23089999985
 20
362978.8559000008
 10
17163.1651999997
 20
362979.3255000003
 10
17163.09700000006
 20
362979.7988000009
 10
17163.02850000001
 20
362980.2689999994
 10
17162.95770000014
 20
362980.7357000001
 10
17162.88410000037
 20
362981.2097999994
 10
17162.81020000018
 20
362981.6806000006
 10
17162.7341
 20
362982.148
 10
17162.65519999992
 20
362982.6226000004
 10
17162.57610000018
 20
362983.0941000004
 10
17162.49500000011
 20
362983.5621000007
 10
17162.41110000014
 20
362984.0373
 10
17162.32710000034
 20
362984.5094000008
 10
17162.24120000005
 20
362984.9780000002
 10
17162.15240000002
 20
362985.4538000003
 10
17162.06369999982
 20
362985.9265000001
 10
17161.97329999972
 20
362986.3957000003
 10
17161.8805999998
 20
362986.8685999997
 10
17161.78560000006
 20
362987.3465
 10
17161.69130000006
 20
362987.8186000008
 10
17161.59509999957
 20
362988.2885999997
 10
17161.49579999968
 20
362988.7666999996
 10
17161.3973000003
 20
362989.2397000008
 10
17161.29710000008
 20
362989.7103000004
 10
17161.1939000003
 20
362990.1886999999
 10
17161.0915000001
 20
362990.6625999995
 10
17160.98749999981
 20
362991.1337999999
 10
17160.88069999963
 20
362991.6125000008
 10
17160.77460000012
 20
362992.0873000008
 10
17160.66700000036
 20
362992.5591000002
 10
17160.55759999994
 20
362993.0344999992
 10
17160.44620000012
 20
362993.5135999993
 10
17160.33550000004
 20
362993.9896000009
 10
17160.22360000014
 20
362994.4622000009
 10
17160.10919999983
 20
362994.9417000003
 10
17159.99540000036
 20
362995.4187000003
 10
17159.88049999997
 20
362995.8920000009
 10
17159.76319999993
 20
362996.3717999999
 10
17159.6464999998
 20
362996.8498
 10
17159.5290000001
 20
362997.3237999994
 10
17159.40909999981
 20
362997.8039999996
 10
17159.28980000037
 20
362998.2829999999
 10
17159.16970000043
 20
362998.7577
 10
17159.04810000025
 20
362999.2360999994
 10
17158.9252000004
 20
362999.7170000002
 10
17158.80269999988
 20
363000.1974
 10
17158.74629999976
 20
363000.4156
1001
AcMap_E615D161-C9D7-11d3-839F-0060B0FB6B57
1071
        1
1071
       17
  0
LWPOLYLINE
  5
C57
330
1F
100
AcDbEntity
  8
Straßenverlauf_FBRD
100
AcDbPolyline
 90
      243
 70
     0
 43
0.0
 10
17147.87310000043
 20
362820.7301000003
 10
17148.16640000045
 20
362821.2199000009
 10
17148.3870000001
 20
362821.7466000002
 10
17148.53029999975
 20
362822.2992000003
 10
17148.59350000042
 20
362822.8665999994
 10
17148.57529999967
 20
362823.4373000004
 10
17147.87519999966
 20
362833.2523999997
 10
17147.80640000012
 20
362843.0921999998
 10
17148.36930000037
 20
362852.9162000008
 10
17148.41590000037
 20
362853.4268999994
 10
17148.46420000028
 20
362853.9372000005
 10
17148.51410000026
 20
362854.4473000002
 10
17148.56570000015
 20
362854.9571000003
 10
17148.61880000029
 20
362855.4666000009
 10
17148.67360000033
 20
362855.9758000001
 10
17148.72989999968
 20
362856.4846999999
 10
17148.78780000005
 20
362856.9933000002
 10
17148.84719999973
 20
362857.5015999992
 10
17148.90820000041
 20
362858.0095000007
 10
17148.97059999965
 20
362858.5172000006
 10
17149.03440000024
 20
362859.0245999992
 10
17149.09970000014
 20
362859.5316000004
 10
17149.16650000028
 20
362860.0384
 10
17149.23460000008
 20
362860.5448000003
 10
17149.3041000003
 20
362861.0508999992
 10
17149.375
 20
362861.5567000006
 10
17149.44720000028
 20
362862.0621000007
 10
17149.52070000022
 20
362862.5672999993
 10
17149.59549999982
 20
362863.0721000005
 10
17149.67150000017
 20
362863.5766000003
 10
17149.7489
 20
362864.0808000006
 10
17149.82739999983
 20
362864.5846999996
 10
17149.90720000025
 20
362865.0881999992
 10
17149.98819999955
 20
362865.5914999992
 10
17150.07029999979
 20
362866.0943999999
 10
17150.15359999984
 20
362866.5969999992
 10
17150.23799999989
 20
362867.0991999991
 10
17150.32349999994
 20
362867.6011999995
 10
17150.41009999998
 20
362868.1029000003
 10
17150.49770000018
 20
362868.6042
 10
17150.58640000038
 20
362869.1052000001
 10
17150.67609999981
 20
362869.6059000008
 10
17150.76680000033
 20
362870.1063000001
 10
17150.85850000009
 20
362870.6063999999
 10
17150.95120000001
 20
362871.1062000003
 10
17151.04480000026
 20
362871.6055999995
 10
17151.13929999992
 20
362872.1048000008
 10
17151.23479999974
 20
362872.6037000009
 10
17151.33110000007
 20
362873.1021999997
 10
17151.42819999996
 20
362873.6005000007
 10
17151.5262000002
 20
362874.0985000003
 10
17151.625
 20
362874.5962000005
 10
17151.72470000013
 20
362875.0934999995
 10
17151.82510000001
 20
362875.5907000006
 10
17151.92619999964
 20
362876.0875000004
 10
17152.02809999976
 20
362876.5840000008
 10
17152.13069999963
 20
362877.0802999996
 10
17152.23400000017
 20
362877.5763000008
 10
17152.33800000045
 20
362878.0720000007
 10
17152.44259999972
 20
362878.5673999992
 10
17152.54789999965
 20
362879.0625999999
 10
17152.65380000043
 20
362879.5574999992
 10
17152.76020000037
 20
362880.0522000008
 10
17152.86730000004
 20
362880.5465999991
 10
17152.97489999979
 20
362881.0406999998
 10
17153.08310000039
 20
362881.5347000007
 10
17153.19170000031
 20
362882.0283000004
 10
17153.30090000015
 20
362882.5217000005
 10
17153.41060000006
 20
362883.0149000008
 10
17153.52070000022
 20
362883.5078999997
 10
17153.63119999971
 20
362884.0006000009
 10
17153.74210000038
 20
362884.4931000005
 10
17153.8535000002
 20
362884.9854000006
 10
17153.96520000044
 20
362885.4773999993
 10
17154.0773
 20
362885.9693000001
 10
17154.18979999982
 20
362886.4608999994
 10
17154.30250000022
 20
362886.9522999991
 10
17154.41559999995
 20
362887.4436000008
 10
17154.52890000026
 20
362887.9345999994
 10
17154.64250000007
 20
362888.4254000001
 10
17154.75629999954
 20
362888.9160999992
 10
17154.87040000036
 20
362889.4066000004
 10
17154.98460000008
 20
362889.8969000001
 10
17155.09910000022
 20
362890.3870000002
 10
17155.21370000019
 20
362890.8769000005
 10
17155.3284
 20
362891.3666999992
 10
17155.44330000039
 20
362891.8563000001
 10
17155.55829999968
 20
362892.3457999994
 10
17155.67339999974
 20
362892.8351000008
 10
17155.78849999979
 20
362893.3243000004
 10
17155.90369999967
 20
362893.8133000005
 10
17156.01889999956
 20
362894.3022000008
 10
17156.13410000037
 20
362894.7909999993
 10
17156.24930000026
 20
362895.2796
 10
17162.09850000031
 20
362920.0859999992
 10
17162.20320000034
 20
362920.5779999998
 10
17162.3069000002
 20
362921.0701000002
 10
17162.41139999963
 20
362921.5616999995
 10
17162.51580000017
 20
362922.0530999992
 10
17162.61899999994
 20
362922.5446000006
 10
17162.72310000006
 20
362923.0357000009
 10
17162.82689999975
 20
362923.5266999994
 10
17162.93039999995
 20
362924.0175000001
 10
17163.03270000033
 20
362924.5083000009
 10
17163.13570000045
 20
362924.9988000002
 10
17163.23830000032
 20
362925.4891999997
 10
17163.3395999996
 20
362925.9795999993
 10
17163.44139999989
 20
362926.4696999994
 10
17163.54279999993
 20
362926.9596999995
 10
17163.64279999956
 20
362927.4496999998
 10
17163.7433000002
 20
362927.9395000003
 10
17163.84329999983
 20
362928.4290999994
 10
17163.94170000031
 20
362928.9188000001
 10
17164.04050000012
 20
362929.4081999995
 10
17164.13879999984
 20
362929.8973999993
 10
17164.23539999965
 20
362930.3868000004
 10
17164.33229999989
 20
362930.8759000004
 10
17164.42860000022
 20
362931.3649000005
 10
17164.52410000004
 20
362931.8538000006
 10
17164.61789999995
 20
362932.3429000005
 10
17164.71190000046
 20
362932.8315999992
 10
17164.8049999997
 20
362933.3202999998
 10
17164.89639999997
 20
362933.8091000002
 10
17164.98790000006
 20
362934.2975999993
 10
17165.07849999983
 20
362934.7860000004
 10
17165.16710000019
 20
362935.2745999992
 10
17165.25580000039
 20
362935.7629000005
 10
17165.34360000025
 20
362936.2511
 10
17165.42929999996
 20
362936.7394999992
 10
17165.51489999983
 20
362937.2276000008
 10
17165.59949999954
 20
362937.7157000006
 10
17165.68300000019
 20
362938.2037000004
 10
17165.76439999975
 20
362938.6918000002
 10
17165.84559999965
 20
362939.1797000002
 10
17165.92559999972
 20
362939.6675000005
 10
17166.00349999964
 20
362940.1555000003
 10
17166.08100000024
 20
362940.6432000008
 10
17166.15730000008
 20
362941.1308999993
 10
17166.23139999993
 20
362941.6186999995
 10
17166.3049999997
 20
362942.1063000001
 10
17166.37729999982
 20
362942.5938000009
 10
17166.44730000011
 20
362943.0813999996
 10
17166.51680000033
 20
362943.5688000005
 10
17166.58490000013
 20
362944.0560999997
 10
17166.65149999968
 20
362944.5434000008
 10
17166.71559999976
 20
362945.0307999999
 10
17166.77909999992
 20
362945.5178999994
 10
17166.84119999967
 20
362946.0050000009
 10
17166.90060000028
 20
362946.4922000003
 10
17166.95940000005
 20
362946.9791000001
 10
17167.01659999974
 20
362947.466
 10
17167.07110000029
 20
362947.9529
 10
17167.12490000017
 20
362948.4396000002
 10
17167.17700000014
 20
362948.9262000006
 10
17167.22630000021
 20
362949.4129000008
 10
17167.27489999961
 20
362949.8992999997
 10
17167.32160000037
 20
362950.3856000007
 10
17167.3655000003
 20
362950.8719999996
 10
17167.40859999973
 20
362951.3581000008
 10
17167.44969999976
 20
362951.8441000004
 10
17167.48890000023
 20
362952.3299000002
 10
17167.52520000003
 20
362952.8158
 10
17167.56049999967
 20
362953.3014000003
 10
17167.59379999991
 20
362953.7868000009
 10
17167.62399999983
 20
362954.2721999996
 10
17167.65319999959
 20
362954.7573000007
 10
17167.68039999995
 20
362955.2423000001
 10
17167.70440000016
 20
362955.7271999996
 10
17167.72719999961
 20
362956.2117999997
 10
17167.74789999984
 20
362956.6962000001
 10
17167.76539999991
 20
362957.1804000009
 10
17167.78170000017
 20
362957.6644000002
 10
17167.79580000043
 20
362958.1480999999
 10
17167.80750000011
 20
362958.6316999998
 10
17167.81599999964
 20
362959.1150000003
 10
17167.82309999969
 20
362959.5979999994
 10
17167.82789999991
 20
362960.0807000008
 10
17167.82930000033
 20
362960.5631000008
 10
17167.82930000033
 20
362961.0452999994
 10
17167.81329999957
 20
362965.6095000003
 10
17167.57990000024
 20
362970.1677999999
 10
17167.55350000038
 20
362970.6491999999
 10
17167.52579999994
 20
362971.1307999995
 10
17167.49459999986
 20
362971.6126000006
 10
17167.46109999995
 20
362972.0943999998
 10
17167.42619999964
 20
362972.5766000003
 10
17167.3881000001
 20
362973.0587000009
 10
17167.34759999998
 20
362973.5409999993
 10
17167.30489999987
 20
362974.0232999996
 10
17167.26099999994
 20
362974.5058999994
 10
17167.21380000002
 20
362974.9883999993
 10
17167.16449999995
 20
362975.4711000007
 10
17167.11409999989
 20
362975.9539000001
 10
17167.06049999967
 20
362976.4366999995
 10
17167.00480000023
 20
362976.9195000008
 10
17166.94809999969
 20
362977.4024999999
 10
17166.88829999976
 20
362977.8853999992
 10
17166.82650000043
 20
362978.3683000002
 10
17166.76379999984
 20
362978.8515000008
 10
17166.69809999969
 20
362979.3344999999
 10
17166.63040000014
 20
362979.8175000008
 10
17166.56089999992
 20
362980.3004999999
 10
17166.4905000003
 20
362980.7837000005
 10
17166.41720000002
 20
362981.2667999994
 10
17166.34219999984
 20
362981.7498000003
 10
17166.26630000025
 20
362982.2329999991
 10
17166.18769999966
 20
362982.7160999999
 10
17166.10740000009
 20
362983.1991000008
 10
17166.02639999986
 20
362983.6822999995
 10
17165.94269999955
 20
362984.1654000003
 10
17165.85730000026
 20
362984.6483999994
 10
17165.77139999997
 20
362985.1315000002
 10
17165.6827999996
 20
362985.6144999993
 10
17165.59269999992
 20
362986.0975000002
 10
17165.50210000016
 20
362986.5806000009
 10
17165.40899999998
 20
362987.0635000002
 10
17165.31439999956
 20
362987.5463999994
 10
17165.21829999983
 20
362988.0293000005
 10
17165.12179999985
 20
362988.5122999996
 10
17165.02300000004
 20
362988.9952000007
 10
17164.92279999982
 20
362989.4780000002
 10
17164.82220000028
 20
362989.9609999992
 10
17164.71939999983
 20
362990.4438000005
 10
17164.61529999971
 20
362990.9265000001
 10
17164.51090000011
 20
362991.4094999992
 10
17164.40440000035
 20
362991.8922000006
 10
17164.2966
 20
362992.3750000001
 10
17164.18869999982
 20
362992.8578999993
 10
17164.07859999966
 20
362993.3406000007
 10
17163.96750000026
 20
362993.8233000003
 10
17163.85529999993
 20
362994.3059999999
 10
17163.74299999978
 20
362994.7890000008
 10
17163.62870000023
 20
362995.2717000004
 10
17163.51350000035
 20
362995.7544999999
 10
17163.39829999953
 20
362996.2375000007
 10
17163.28110000025
 20
362996.7202000004
 10
17163.16309999954
 20
362997.2029999998
 10
17163.11649999954
 20
362997.3936999999
 10
17162.93769999966
 20
362997.9475999996
 10
17162.68039999995
 20
362998.4695999996
 10
17162.35010000039
 20
362998.9487999995
 10
17161.95370000042
 20
362999.375
 10
17161.49969999958
 20
362999.7391999997
1001
AcMap_E615D161-C9D7-11d3-839F-0060B0FB6B57
1071
        1
1071
       17
  0
LWPOLYLINE
  5
C58
330
1F
100
AcDbEntity
  8
Straßenverlauf_FBRD
100
AcDbPolyline
 90
      238
 70
     0
 43
0.0
 10
17147.87310000043
 20
362820.7301000003
 10
17146.95419999957
 20
362831.4683999997
 10
17146.78729999997
 20
362842.2446999997
 10
17147.37330000009
 20
362853.0063000005
 10
17147.42019999958
 20
362853.5194000007
 10
17147.46879999991
 20
362854.0329999998
 10
17147.51900000032
 20
362854.5462999996
 10
17147.5708999997
 20
362855.0592999999
 10
17147.62440000009
 20
362855.5720000007
 10
17147.67949999962
 20
362856.0843000002
 10
17147.73620000016
 20
362856.5962000005
 10
17147.79440000001
 20
362857.1078999993
 10
17147.85419999994
 20
362857.6191000008
 10
17147.91540000029
 20
362858.1301000007
 10
17147.97819999978
 20
362858.6406999995
 10
17148.04239999968
 20
362859.1509000008
 10
17148.10809999984
 20
362859.6608000007
 10
17148.1752000004
 20
362860.1702999995
 10
17148.24370000046
 20
362860.6795000006
 10
17148.31359999999
 20
362861.1883000005
 10
17148.38480000011
 20
362861.6966999993
 10
17148.45739999972
 20
362862.2048000004
 10
17148.53129999991
 20
362862.7126000002
 10
17148.60649999976
 20
362863.2200000007
 10
17148.68290000036
 20
362863.727
 10
17148.76059999969
 20
362864.2335999999
 10
17148.8395999996
 20
362864.7399000004
 10
17148.91970000043
 20
362865.2458999996
 10
17149.00100000016
 20
362865.7514999993
 10
17149.08349999971
 20
362866.2566999998
 10
17149.16720000002
 20
362866.7616000008
 10
17149.25200000033
 20
362867.2661000006
 10
17149.33789999969
 20
362867.7701999992
 10
17149.42480000015
 20
362868.2740000002
 10
17149.51279999968
 20
362868.7774999999
 10
17149.60190000012
 20
362869.2805000004
 10
17149.6919999998
 20
362869.7832999993
 10
17149.78309999965
 20
362870.2857000008
 10
17149.87509999983
 20
362870.7876999993
 10
17149.96810000017
 20
362871.2894000002
 10
17150.06209999975
 20
362871.7907999997
 10
17150.15699999965
 20
362872.2917999998
 10
17150.25270000007
 20
362872.7924000006
 10
17150.34939999971
 20
362873.2927000001
 10
17150.44689999986
 20
362873.7927000001
 10
17150.54519999958
 20
362874.2924000007
 10
17150.64439999964
 20
362874.7917
 10
17150.74430000037
 20
362875.2906999998
 10
17150.84499999974
 20
362875.7894000002
 10
17150.94649999961
 20
362876.2876999994
 10
17151.04860000033
 20
362876.7858000007
 10
17151.15160000045
 20
362877.2835000009
 10
17151.25509999972
 20
362877.7808999997
 10
17151.35940000042
 20
362878.2778999992
 10
17151.46430000011
 20
362878.7747000009
 10
17151.56989999953
 20
362879.2711999994
 10
17151.67599999998
 20
362879.7674000003
 10
17151.78280000016
 20
362880.2631999999
 10
17151.89010000042
 20
362880.7587999999
 10
17151.99789999984
 20
362881.2541000005
 10
17152.1063000001
 20
362881.7490999997
 10
17152.21520000044
 20
362882.2437999994
 10
17152.32459999993
 20
362882.7382999994
 10
17152.43439999968
 20
362883.2318999991
 10
17152.54470000043
 20
362883.7258000002
 10
17152.65539999958
 20
362884.2194999997
 10
17152.76659999974
 20
362884.7128999997
 10
17152.87810000032
 20
362885.2060000003
 10
17152.99010000005
 20
362885.6987999995
 10
17153.10230000038
 20
362886.1915000007
 10
17153.21490000002
 20
362886.6838000007
 10
17153.32780000008
 20
362887.1758999993
 10
17153.44099999964
 20
362887.6678
 10
17153.55449999962
 20
362888.1594999992
 10
17153.66820000019
 20
362888.6509000007
 10
17153.78220000025
 20
362889.1421000008
 10
17153.89639999997
 20
362889.6330999993
 10
17154.01070000045
 20
362890.1238000002
 10
17154.12530000042
 20
362890.6143999994
 10
17154.24000000022
 20
362891.1046999991
 10
17154.35479999985
 20
362891.5947999992
 10
17154.46980000008
 20
362892.0847999995
 10
17154.5848000003
 20
362892.5745000002
 10
17154.69990000035
 20
362893.0639999993
 10
17154.81510000024
 20
362893.5534000006
 10
17154.93030000012
 20
362894.0426000003
 10
17155.04559999984
 20
362894.5316000004
 10
17155.16079999972
 20
362895.0204000008
 10
17155.2759999996
 20
362895.5090999995
 10
17161.12270000018
 20
362920.3048999999
 10
17161.2248999998
 20
362920.7851999999
 10
17161.32849999983
 20
362921.2771000005
 10
17161.43329999968
 20
362921.7696000003
 10
17161.53739999979
 20
362922.2598000001
 10
17161.64059999957
 20
362922.7510000002
 10
17161.74480000045
 20
362923.2430000008
 10
17161.84850000031
 20
362923.7335000001
 10
17161.95170000009
 20
362924.2226999998
 10
17162.05389999971
 20
362924.7130999994
 10
17162.15699999966
 20
362925.2042999994
 10
17162.2592000002
 20
362925.6927000005
 10
17162.36039999965
 20
362926.1824999992
 10
17162.46229999978
 20
362926.6732000001
 10
17162.56329999957
 20
362927.1610000003
 10
17162.66309999954
 20
362927.6502000001
 10
17162.76370000001
 20
362928.1404
 10
17162.86319999955
 20
362928.6275999993
 10
17162.96129999961
 20
362929.1158000008
 10
17163.06020000018
 20
362929.6055999995
 10
17163.15799999982
 20
362930.0927000008
 10
17163.25430000014
 20
362930.5804999992
 10
17163.35130000021
 20
362931.0697000008
 10
17163.44730000011
 20
362931.5573999994
 10
17163.54229999985
 20
362932.0438999999
 10
17163.63580000028
 20
362932.5311999992
 10
17163.72970000002
 20
362933.0197000001
 10
17163.82239999994
 20
362933.5057999995
 10
17163.91339999996
 20
362933.9927999992
 10
17164.00480000023
 20
362934.4807999991
 10
17164.09489999991
 20
362934.9664999992
 10
17164.18319999985
 20
362935.4531999994
 10
17164.27180000022
 20
362935.9407000002
 10
17164.35900000017
 20
362936.4260000009
 10
17164.44429999962
 20
362936.9123999998
 10
17164.52979999967
 20
362937.3993999995
 10
17164.61400000006
 20
362937.8853999991
 10
17164.69699999969
 20
362938.3702000007
 10
17164.77799999993
 20
362938.8563000001
 10
17164.85900000017
 20
362939.3427000009
 10
17164.93850000016
 20
362939.8271999992
 10
17165.01599999983
 20
362940.3129999992
 10
17165.09329999983
 20
362940.7991000004
 10
17165.16899999976
 20
362941.2831999995
 10
17165.24270000029
 20
362941.7687
 10
17165.3161000004
 20
362942.2543000002
 10
17165.38779999968
 20
362942.7380999997
 10
17165.45739999972
 20
362943.2234000005
 10
17165.52660000045
 20
362943.7084999997
 10
17165.5943
 20
362944.193
 10
17165.66029999964
 20
362944.6763000004
 10
17165.72410000022
 20
362945.1607000009
 10
17165.7873999998
 20
362945.6458000001
 10
17165.8487999998
 20
362946.1286999993
 10
17165.90789999999
 20
362946.6127000004
 10
17165.96640000027
 20
362947.0974000003
 10
17166.02309999987
 20
362947.5799000003
 10
17166.07720000017
 20
362948.0635000002
 10
17166.13080000039
 20
362948.547700001
 10
17166.18240000028
 20
362949.0298999995
 10
17166.23139999993
 20
362949.5130000003
 10
17166.27960000001
 20
362949.9967999999
 10
17166.32589999959
 20
362950.4783999994
 10
17166.36950000003
 20
362950.9609999992
 10
17166.41229999997
 20
362951.4442999997
 10
17166.45309999957
 20
362951.9265000001
 10
17166.49189999979
 20
362952.4074000008
 10
17166.5279000001
 20
362952.8892000001
 10
17166.56300000008
 20
362953.3717999999
 10
17166.59590000007
 20
362953.8520999998
 10
17166.62590000033
 20
362954.3333999999
 10
17166.65490000043
 20
362954.8153000008
 10
17166.68169999961
 20
362955.2949000002
 10
17166.70550000015
 20
362955.7754999995
 10
17166.72819999978
 20
362956.2566999998
 10
17166.74870000034
 20
362956.7356000003
 10
17166.76599999983
 20
362957.2152999994
 10
17166.78220000025
 20
362957.6956999991
 10
17166.79609999992
 20
362958.1747999993
 10
17166.80769999977
 20
362958.6525999997
 10
17166.8161000004
 20
362959.1311000009
 10
17166.82320000045
 20
362959.6103000008
 10
17166.82789999991
 20
362960.0870999992
 10
17166.82930000033
 20
362960.5646000002
 10
17166.82930000033
 20
362961.0554000009
 10
17166.81359999999
 20
362965.5821000002
 10
17166.58189999964
 20
362970.1029000003
 10
17166.55510000046
 20
362970.5931000002
 10
17166.52759999968
 20
362971.0698000007
 10
17166.49689999968
 20
362971.5456000008
 10
17166.46360000036
 20
362972.0237000007
 10
17166.4291000003
 20
362972.5010000002
 10
17166.39140000008
 20
362972.9774999991
 10
17166.35130000021
 20
362973.4550999999
 10
17166.30889999959
 20
362973.9339000006
 10
17166.26539999992
 20
362974.4119000007
 10
17166.21879999991
 20
362974.8890000005
 10
17166.16980000026
 20
362975.3683000002
 10
17166.11980000045
 20
362975.8467999995
 10
17166.06680000014
 20
362976.3242000006
 10
17166.01150000002
 20
362976.8038999998
 10
17165.95529999956
 20
362977.2827000004
 10
17165.89609999954
 20
362977.7605000008
 10
17165.83469999954
 20
362978.2404999994
 10
17165.77249999996
 20
362978.7195999995
 10
17165.70739999972
 20
362979.1976999995
 10
17165.64039999991
 20
362979.6768999995
 10
17165.57120000012
 20
362980.1571999993
 10
17165.50129999965
 20
362980.6367000006
 10
17165.42879999988
 20
362981.1150000003
 10
17165.35419999994
 20
362981.5954999999
 10
17165.27890000026
 20
362982.0752000008
 10
17165.20100000035
 20
362982.5537999999
 10
17165.1211000001
 20
362983.0343999993
 10
17165.04059999995
 20
362983.5143
 10
17164.95760000031
 20
362983.9930000007
 10
17164.87270000018
 20
362984.4737999999
 10
17164.78729999997
 20
362984.9538000003
 10
17164.6995000001
 20
362985.4327000007
 10
17164.60979999974
 20
362985.9135999996
 10
17164.51970000006
 20
362986.3936999999
 10
17164.42729999963
 20
362986.8727000002
 10
17164.33330000005
 20
362987.3527000007
 10
17164.23749999981
 20
362987.8342000004
 10
17164.14169999957
 20
362988.3140999992
 10
17164.04360000044
 20
362988.7932999992
 10
17163.94369999971
 20
362989.2748000008
 10
17163.84370000008
 20
362989.7548999991
 10
17163.7416000003
 20
362990.2342000008
 10
17163.63779999968
 20
362990.7157000005
 10
17163.53399999998
 20
362991.1961000003
 10
17163.42810000013
 20
362991.6754999999
 10
17163.32060000021
 20
362992.1570999995
 10
17163.21320000011
 20
362992.6377000008
 10
17163.10390000045
 20
362993.1173000001
 10
17162.99320000037
 20
362993.5978999995
 10
17162.88129999954
 20
362994.0796000008
 10
17162.76939999964
 20
362994.5605999996
 10
17162.65589999966
 20
362995.0404000003
 10
17162.54079999961
 20
362995.5221999995
 10
17162.42599999998
 20
362996.0034999996
 10
17162.30950000044
 20
362996.4835999999
 10
17162.19170000031
 20
362996.9655000009
 10
17162.07409999985
 20
362997.4471000005
 10
17161.95500000007
 20
362997.9274000004
 10
17161.83459999971
 20
362998.4096000008
 10
17161.7145999996
 20
362998.8914999999
 10
17161.59310000017
 20
362999.3721999992
 10
17161.49969999958
 20
362999.7391999997
1001
AcMap_E615D161-C9D7-11d3-839F-0060B0FB6B57
1071
        1
1071
       17
  0
LWPOLYLINE
  5
C59
330
1F
100
AcDbEntity
  8
Straßenverlauf_FBRD
100
AcDbPolyline
 90
      189
 70
     0
 43
0.0
 10
17189.23440000042
 20
362958.1951000002
 10
17185.65579999983
 20
362960.5232999995
 10
17181.73319999967
 20
362962.2086999994
 10
17180.92140000034
 20
362962.4045000002
 10
17180.08829999994
 20
362962.4625000004
 10
17179.25719999987
 20
362962.3811000008
 10
17178.45120000001
 20
362962.1623999998
 10
17177.69290000014
 20
362961.8125999999
 10
17177.00329999998
 20
362961.3414999992
 10
17176.40180000011
 20
362960.7621999998
 10
17175.90510000009
 20
362960.0909000002
 10
17175.52699999977
 20
362959.3462000006
 10
17175.27819999959
 20
362958.5491000005
 10
17175.16550000012
 20
362957.7215999999
 10
17175.14199999999
 20
362957.2662000005
 10
17175.11280000023
 20
362956.7490999997
 10
17175.08129999973
 20
362956.2324000001
 10
17175.04750000033
 20
362955.716
 10
17175.01140000019
 20
362955.1999999993
 10
17174.97310000006
 20
362954.6843999997
 10
17174.93250000011
 20
362954.1690999996
 10
17174.8898
 20
362953.6541000009
 10
17174.84499999974
 20
362953.1395999995
 10
17174.79800000042
 20
362952.6253999993
 10
17174.74899999983
 20
362952.1116000005
 10
17174.69790000003
 20
362951.5983000007
 10
17174.64479999989
 20
362951.0853000005
 10
17174.58970000036
 20
362950.5726999994
 10
17174.53270000033
 20
362950.0604999997
 10
17174.4737999998
 20
362949.5488000009
 10
17174.41299999971
 20
362949.0373999998
 10
17174.35039999988
 20
362948.5264999997
 10
17174.28600000031
 20
362948.0160000008
 10
17174.21970000025
 20
362947.5058999993
 10
17174.15180000011
 20
362946.9963000008
 10
17174.08210000023
 20
362946.4869999998
 10
17174.01070000045
 20
362945.9781999998
 10
17173.93769999966
 20
362945.4699000009
 10
17173.86309999972
 20
362944.9618999995
 10
17173.78689999971
 20
362944.4543999993
 10
17173.70920000039
 20
362943.9474
 10
17173.62990000006
 20
362943.4407000001
 10
17173.54910000041
 20
362942.9344999996
 10
17173.46690000035
 20
362942.4287000001
 10
17173.38329999987
 20
362941.9233999997
 10
17173.29829999991
 20
362941.4185000006
 10
17173.21190000046
 20
362940.9140000009
 10
17173.12420000043
 20
362940.4099000004
 10
17173.03519999981
 20
362939.9063000009
 10
17172.94489999954
 20
362939.4031000007
 10
17172.85340000037
 20
362938.9002999999
 10
17172.76070000045
 20
362938.3979000002
 10
17172.6668999996
 20
362937.8958999999
 10
17172.57189999986
 20
362937.3944000006
 10
17172.47580000013
 20
362936.8932000008
 10
17172.3786000004
 20
362936.3925000002
 10
17172.28039999958
 20
362935.8922000006
 10
17172.18120000046
 20
362935.3922000007
 10
17172.08100000024
 20
362934.8926999997
 10
17171.97979999985
 20
362934.3935000003
 10
17171.87770000007
 20
362933.8947999999
 10
17171.77479999978
 20
362933.3964000009
 10
17171.67100000009
 20
362932.8983999994
 10
17171.56630000006
 20
362932.4006999992
 10
17171.46090000029
 20
362931.9034000002
 10
17171.35470000002
 20
362931.4065000006
 10
17171.24780000001
 20
362930.9100000002
 10
17171.14020000025
 20
362930.4137999993
 10
17171.03189999983
 20
362929.9178999998
 10
17170.92289999965
 20
362929.4223999996
 10
17170.81340000033
 20
362928.9272000008
 10
17170.70330000017
 20
362928.4322999995
 10
17170.59260000009
 20
362927.9377999996
 10
17170.48139999993
 20
362927.4436000009
 10
17170.36969999969
 20
362926.9496999998
 10
17170.2575000003
 20
362926.4561000001
 10
17170.14499999955
 20
362925.9627999999
 10
17170.03199999965
 20
362925.4696999993
 10
17169.91860000044
 20
362924.977
 10
17169.8049999997
 20
362924.4845000003
 10
17169.69099999964
 20
362923.9923999999
 10
17169.57670000009
 20
362923.5003999993
 10
17169.46219999995
 20
362923.0088
 10
17169.34740000032
 20
362922.5174000003
 10
17169.23249999992
 20
362922.0262000002
 10
17169.11739999987
 20
362921.5352999997
 10
17169.00210000016
 20
362921.0446000006
 10
17168.88680000044
 20
362920.5540999994
 10
17168.77139999997
 20
362920.0637999997
 10
17168.65589999966
 20
362919.5737999995
 10
17168.54050000012
 20
362919.0840000008
 10
17168.42499999981
 20
362918.5943
 10
17162.57579999976
 20
362893.7877999991
 10
17162.03899999987
 20
362891.5109000001
 10
17159.40259999968
 20
362879.1743999999
 10
17157.28720000013
 20
362866.7379000001
 10
17155.69649999961
 20
362854.2235000003
 10
17155.4907999998
 20
362852.2783000004
 10
17154.97090000007
 20
362843.5267999992
 10
17154.97690000012
 20
362834.7598000001
 10
17155.50870000012
 20
362826.0089999996
 10
17156.56439999956
 20
362817.3059
 10
17156.8870000001
 20
362815.3895999994
 10
17159.22869999986
 20
362803.0604999997
 10
17162.0839999998
 20
362790.8401999995
 10
17165.44790000003
 20
362778.75
 10
17166.18240000028
 20
362776.3091000002
 10
17167.4347000001
 20
362772.1572999992
 10
17167.57909999974
 20
362771.6786000002
 10
17167.72350000031
 20
362771.1996999998
 10
17167.86789999995
 20
362770.7207999993
 10
17168.01229999959
 20
362770.2416999992
 10
17168.15670000016
 20
362769.7624999993
 10
17168.30099999998
 20
362769.2832999994
 10
17168.44529999979
 20
362768.8037999999
 10
17168.58939999994
 20
362768.3243000005
 10
17168.73350000009
 20
362767.8445999996
 10
17168.87750000041
 20
362767.3648000006
 10
17169.02139999997
 20
362766.8848000001
 10
17169.16509999987
 20
362766.4047999997
 10
17169.30869999993
 20
362765.9244999998
 10
17169.45220000017
 20
362765.4441
 10
17169.59539999999
 20
362764.9635000005
 10
17169.73849999997
 20
362764.4827999994
 10
17169.88129999954
 20
362764.0019000005
 10
17170.02390000038
 20
362763.5208999999
 10
17170.16629999969
 20
362763.0395999998
 10
17170.30840000044
 20
362762.5581999999
 10
17170.45029999967
 20
362762.0766000003
 10
17170.59190000035
 20
362761.5947999992
 10
17170.73309999983
 20
362761.1129000001
 10
17170.87409999966
 20
362760.6306999997
 10
17171.01470000017
 20
362760.1482999996
 10
17171.15500000026
 20
362759.6656999998
 10
17171.29499999992
 20
362759.1829000003
 10
17171.43450000044
 20
362758.6998999995
 10
17171.5736999996
 20
362758.2167000007
 10
17171.71239999961
 20
362757.7333000004
 10
17171.85080000013
 20
362757.2496000007
 10
17171.98869999964
 20
362756.7656999995
 10
17172.12609999999
 20
362756.2816000003
 10
17172.2631000001
 20
362755.7972
 10
17172.39960000012
 20
362755.3125999999
 10
17172.53560000006
 20
362754.8278000001
 10
17172.67109999992
 20
362754.3427000009
 10
17172.8060999997
 20
362753.8574000001
 10
17172.94049999956
 20
362753.3717999999
 10
17173.07440000027
 20
362752.8859000001
 10
17173.20770000014
 20
362752.3998000008
 10
17173.3404000001
 20
362751.9134
 10
17173.47250000015
 20
362751.4267999996
 10
17173.60400000028
 20
362750.9397999999
 10
17173.73479999974
 20
362750.4526000004
 10
17173.86500000022
 20
362749.9651999996
 10
17173.99459999986
 20
362749.4773999993
 10
17174.12339999992
 20
362748.9893999995
 10
17174.25160000007
 20
362748.5010000002
 10
17174.37899999972
 20
362748.0123999994
 10
17174.50569999963
 20
362747.5234999992
 10
17174.63169999979
 20
362747.0342999995
 10
17174.75690000038
 20
362746.5448000003
 10
17174.88129999954
 20
362746.0549999997
 10
17175.00499999989
 20
362745.5648999997
 10
17175.1277999999
 20
362745.0744000003
 10
17175.24980000034
 20
362744.5836999994
 10
17175.37100000027
 20
362744.0927000009
 10
17175.49129999988
 20
362743.6012999993
 10
17175.61070000008
 20
362743.1096000001
 10
17175.72929999977
 20
362742.6176999994
 10
17175.84690000023
 20
362742.1252999995
 10
17175.96360000037
 20
362741.6327
 10
17176.07940000016
 20
362741.1397999991
 10
17176.19429999962
 20
362740.6465000008
 10
17176.30810000002
 20
362740.1528999992
 10
17176.42100000009
 20
362739.659
 10
17176.53289999999
 20
362739.1646999996
 10
17176.64379999973
 20
362738.6700999998
 10
17176.75320000015
 20
362738.1772000008
 10
17177.04860000033
 20
362737.2213000003
 10
17177.49870000034
 20
362736.3278000001
 10
17178.09109999984
 20
362735.5215000007
 10
17178.80920000002
 20
362734.8247999996
 10
17179.63310000021
 20
362734.2570999991
 10
17180.53980000038
 20
362733.8343000003
 10
17181.50430000014
 20
362733.568
 10
17182.49949999992
 20
362733.4656000007
 10
17183.49799999967
 20
362733.5300999992
 10
17184.4718000004
 20
362733.7596000005
 10
17188.67250000033
 20
362735.1279000007
1001
AcMap_E615D161-C9D7-11d3-839F-0060B0FB6B57
1071
        1
1071
       17
  0
LWPOLYLINE
  5
C5A
330
1F
100
AcDbEntity
  8
Straßenverlauf_FBRD
100
AcDbPolyline
 90
        7
 70
     0
 43
0.0
 10
17191.03129999991
 20
362960.7013000008
 10
17181.61440000031
 20
362967.9624000006
 10
17179.32239999995
 20
362970.1943999995
 10
17177.41569999978
 20
362972.7632999998
 10
17175.94290000014
 20
362975.6033999995
 10
17174.20749999955
 20
362980.3975000009
 10
17172.96939999983
 20
362985.3434999996
1001
AcMap_E615D161-C9D7-11d3-839F-0060B0FB6B57
1071
        1
1071
       17
  0
LINE
  5
C5B
330
1F
100
AcDbEntity
  8
Straßenverlauf_FBRD
100
AcDbLine
 10
17173.02780000027
 20
362985.0459000003
 30
0.0
 11
17172.96939999983
 21
362985.3434999996
 31
0.0
1001
AcMap_E615D161-C9D7-11d3-839F-0060B0FB6B57
1071
        1
1071
       17
  0
LWPOLYLINE
  5
C5C
330
1F
100
AcDbEntity
  8
Straßenverlauf_FBRD
100
AcDbPolyline
 90
       95
 70
     0
 43
0.0
 10
17172.96939999983
 20
362985.3434999996
 10
17172.96669999976
 20
362985.3570000008
 10
17172.92879999988
 20
362985.5500000008
 10
17172.82809999957
 20
362986.0536000002
 10
17172.72580000013
 20
362986.5567000006
 10
17172.62200000044
 20
362987.0592999999
 10
17172.51669999957
 20
362987.5614
 10
17172.40979999955
 20
362988.0628999993
 10
17172.30150000006
 20
362988.5639999994
 10
17172.19180000014
 20
362989.0645000003
 10
17172.08069999981
 20
362989.5645000003
 10
17171.9682
 20
362990.0639999994
 10
17171.8543999996
 20
362990.5631000009
 10
17171.73929999955
 20
362991.0615999996
 10
17171.62289999984
 20
362991.5595999994
 10
17171.50519999955
 20
362992.0570999999
 10
17171.38640000019
 20
362992.5541999992
 10
17171.26640000008
 20
362993.0506999996
 10
17171.14529999997
 20
362993.5468000006
 10
17171.02300000004
 20
362994.0424000007
 10
17170.89969999995
 20
362994.5375999995
 10
17170.77529999986
 20
362995.0322999992
 10
17170.64989999961
 20
362995.5264999997
 10
17170.52350000012
 20
362996.020300001
 10
17170.39609999955
 20
362996.5135999993
 10
17170.26790000032
 20
362997.0065000001
 10
17170.13870000001
 20
362997.4989
 10
17170.00870000012
 20
362997.9909000006
 10
17169.8777999999
 20
362998.4825
 10
17169.7461000001
 20
362998.9737
 10
17169.61369999964
 20
362999.4645000007
 10
17169.4804999996
 20
362999.9548000004
 10
17169.34659999981
 20
363000.4448000007
 10
17169.21200000029
 20
363000.9343999997
 10
17169.07679999992
 20
363001.4235999994
 10
17168.94089999981
 20
363001.9123999999
 10
17168.80449999962
 20
363002.4009000007
 10
17168.66750000044
 20
363002.8890000005
 10
17168.52990000043
 20
363003.3767000008
 10
17168.39190000016
 20
363003.8640999999
 10
17168.25339999981
 20
363004.3511999995
 10
17168.11440000031
 20
363004.8379999995
 10
17167.97510000039
 20
363005.3244000003
 10
17167.83530000038
 20
363005.8104999997
 10
17167.69519999996
 20
363006.2962999996
 10
17167.55480000004
 20
363006.7818
 10
17167.4140999997
 20
363007.2670000009
 10
17167.27309999987
 20
363007.7520000003
 10
17167.13190000039
 20
363008.2366000004
 10
17166.99039999954
 20
363008.7210000009
 10
17166.8487999998
 20
363009.2051999998
 10
17166.70710000023
 20
363009.6890999992
 10
17166.56520000007
 20
363010.1728000008
 10
17166.42320000008
 20
363010.6561999992
 10
17166.28120000008
 20
363011.1393999998
 10
17166.13920000009
 20
363011.6224000007
 10
17165.99710000027
 20
363012.1052000002
 10
17165.85510000028
 20
363012.5877999999
 10
17144.87590000033
 20
363083.8690000009
 10
17144.82930000033
 20
363084.0296000001
 10
17143.57270000037
 20
363089.1088999995
 10
17142.72860000003
 20
363094.2728000004
 10
17142.30269999988
 20
363099.4878000003
 10
17141.98900000006
 20
363107.0908000004
 10
17142.13889999967
 20
363113.0364999995
 10
17143.07500000018
 20
363118.9099000003
 10
17144.78089999966
 20
363124.6075999998
 10
17147.44249999989
 20
363131.7364000008
 10
17149.46850000042
 20
363136.5606999994
 10
17151.87600000016
 20
363141.2062999998
 10
17154.6492999997
 20
363145.6433000006
 10
17154.74359999969
 20
363145.7814000007
 10
17165.09080000035
 20
363160.8302999996
 10
17165.80119999964
 20
363161.7452000007
 10
17166.6127000004
 20
363162.5717999991
 10
17167.15739999991
 20
363162.9867000003
 10
17167.76489999983
 20
363163.3026999999
 10
17168.41739999968
 20
363163.5102999993
 10
17169.09570000041
 20
363163.6037000009
 10
17169.78010000009
 20
363163.5800000001
 10
17170.45029999967
 20
363163.4398999997
 10
17171.08690000046
 20
363163.1875999999
 10
17171.67109999992
 20
363162.8303999994
 10
17172.18580000009
 20
363162.3787999992
 10
17172.61589999962
 20
363161.8460000009
 10
17172.94890000019
 20
363161.2477000003
 10
17173.69440000038
 20
363159.3292999994
 10
17174.2388000004
 20
363157.3444999997
 10
17177.23249999992
 20
363143.7157000006
 10
17177.33579999953
 20
363143.2990000006
 10
17177.70409999974
 20
363142.2551000007
 10
17178.21289999969
 20
363141.2719999999
 10
17178.85259999986
 20
363140.3685999997
 10
17179.61079999991
 20
363139.5621000007
 10
17180.65579999983
 20
363138.5944999997
1001
AcMap_E615D161-C9D7-11d3-839F-0060B0FB6B57
1071
        1
1071
       17
  0
LWPOLYLINE
  5
C5D
330
1F
100
AcDbEntity
  8
Straßenverlauf_FBRD
100
AcDbPolyline
 90
        3
 70
     0
 43
0.0
 10
17147.3870000001
 20
362998.0640999992
 10
17158.41509999987
 20
363000.3609999996
 10
17158.74629999976
 20
363000.4156
1001
AcMap_E615D161-C9D7-11d3-839F-0060B0FB6B57
1071
        1
1071
       17
  0
LWPOLYLINE
  5
C5E
330
1F
100
AcDbEntity
  8
Straßenverlauf_FBRD
100
AcDbPolyline
 90
        6
 70
     0
 43
0.0
 10
17158.74629999976
 20
363000.4156
 10
17159.32469999976
 20
363000.4439000003
 10
17159.9012000002
 20
363000.3883999997
 10
17160.46360000036
 20
363000.2502999995
 10
17161.00019999966
 20
363000.0322999992
 10
17161.49969999958
 20
362999.7391999997
1001
AcMap_E615D161-C9D7-11d3-839F-0060B0FB6B57
1071
        1
1071
       17
  0
LWPOLYLINE
  5
C5F
330
1F
100
AcDbEntity
  8
Straßenverlauf_FBRD
100
AcDbPolyline
 90
        4
 70
     0
 43
0.0
 10
17146.16359999962
 20
363003.9381000009
 10
17156.4857999999
 20
363006.0879999996
 10
17156.84449999965
 20
363006.1801999994
 10
17157.19319999963
 20
363006.3051999993
1001
AcMap_E615D161-C9D7-11d3-839F-0060B0FB6B57
1071
        1
1071
       17
  0
LWPOLYLINE
  5
C60
330
1F
100
AcDbEntity
  8
Straßenverlauf_FBRD
100
AcDbPolyline
 90
        6
 70
     0
 43
0.0
 10
17157.19319999963
 20
363006.3051999993
 10
17157.71090000029
 20
363006.5636
 10
17158.18589999992
 20
363006.8940999993
 10
17158.60830000043
 20
363007.2895999998
 10
17158.96920000016
 20
363007.7419000008
 10
17159.26099999994
 20
363008.2414999995
1001
AcMap_E615D161-C9D7-11d3-839F-0060B0FB6B57
1071
        1
1071
       17
  0
LWPOLYLINE
  5
C61
330
1F
100
AcDbEntity
  8
Straßenverlauf_FBRD
100
AcDbPolyline
 90
       60
 70
     0
 43
0.0
 10
17157.19319999963
 20
363006.3051999993
 10
17157.15479999967
 20
363006.4483000003
 10
17157.02469999995
 20
363006.9313999992
 10
17156.89350000024
 20
363007.4177000001
 10
17156.76379999984
 20
363007.9019000009
 10
17156.63379999995
 20
363008.3830999993
 10
17156.50189999957
 20
363008.8707999997
 10
17156.37160000019
 20
363009.3561000005
 10
17156.25109999999
 20
363009.8012000006
 10
17135.28280000016
 20
363081.0456000008
 10
17135.13860000018
 20
363081.5357000009
 10
17134.99409999978
 20
363082.0271000005
 10
17134.84939999971
 20
363082.5198999998
 10
17134.70459999982
 20
363083.0142999999
 10
17134.55929999985
 20
363083.5118000005
 10
17134.41459999978
 20
363084.0095000007
 10
17134.27010000031
 20
363084.5088
 10
17134.12590000033
 20
363085.0096000005
 10
17133.98220000043
 20
363085.5121
 10
17133.83910000045
 20
363086.0163000003
 10
17133.6967000002
 20
363086.5220999997
 10
17133.5549999997
 20
363087.0296000001
 10
17133.41430000029
 20
363087.5388999991
 10
17133.27460000012
 20
363088.0499000009
 10
17133.13599999994
 20
363088.5627999995
 10
17132.99880000017
 20
363089.0774000008
 10
17132.86290000006
 20
363089.5940000006
 10
17132.7285000002
 20
363090.112400001
 10
17132.59570000041
 20
363090.6327
 10
17132.46470000036
 20
363091.1548999995
 10
17132.33559999987
 20
363091.6790999993
 10
17132.20839999989
 20
363092.2051999998
 10
17132.08349999971
 20
363092.7333000005
 10
17131.9606999997
 20
363093.2634999994
 10
17131.8404000001
 20
363093.7956000008
 10
17131.72259999998
 20
363094.3298000005
 10
17131.60740000009
 20
363094.8660000004
 10
17131.49500000011
 20
363095.4043000006
 10
17131.38559999969
 20
363095.9447000009
 10
17131.27919999976
 20
363096.4870999996
 10
17131.17599999998
 20
363097.0316000003
 10
17131.07610000018
 20
363097.5781999995
 10
17130.97970000002
 20
363098.1269000005
 10
17130.8870000001
 20
363098.6776000001
 10
17130.79789999965
 20
363099.2303999998
 10
17130.71279999986
 20
363099.7852999997
 10
17130.63169999979
 20
363100.3422999997
 10
17130.55489999987
 20
363100.9013000001
 10
17130.48230000026
 20
363101.4623000007
 10
17130.41420000046
 20
363102.0252999999
 10
17130.35080000013
 20
363102.5902999994
 10
17130.29220000002
 20
363103.1572999992
 10
17130.23840000015
 20
363103.7260999997
 10
17130.18979999982
 20
363104.2969000005
 10
17130.14639999997
 20
363104.8695999999
 10
17130.10840000026
 20
363105.4441
 10
17130.07589999959
 20
363106.0203000009
 10
17130.04949999973
 20
363106.5891999994
 10
17130.15529999975
 20
363113.1207999998
 10
17131.01099999994
 20
363119.5968999993
1001
AcMap_E615D161-C9D7-11d3-839F-0060B0FB6B57
1071
        1
1071
       17
  0
LWPOLYLINE
  5
C62
330
1F
100
AcDbEntity
  8
Straßenverlauf_FBRD
100
AcDbPolyline
 90
       56
 70
     0
 43
0.0
 10
17159.26099999994
 20
363008.2414999995
 10
17159.48230000026
 20
363008.7921999991
 10
17159.61959999986
 20
363009.3695000001
 10
17159.66999999992
 20
363009.9608999994
 10
17159.63239999954
 20
363010.5530999993
 10
17159.5075000003
 20
363011.1333000009
 10
17138.64039999991
 20
363082.0338000004
 10
17138.49619999994
 20
363082.5238000006
 10
17138.35190000012
 20
363083.0144999996
 10
17138.20760000031
 20
363083.5058999994
 10
17138.06350000016
 20
363083.9979999997
 10
17137.91959999967
 20
363084.4910000004
 10
17137.7759999996
 20
363084.9847
 10
17137.63279999979
 20
363085.4793999996
 10
17137.49019999988
 20
363085.9748
 10
17137.34829999972
 20
363086.4712000005
 10
17137.20710000023
 20
363086.9685999993
 10
17137.06670000031
 20
363087.4669000004
 10
17136.92740000039
 20
363087.9660999999
 10
17136.7890999997
 20
363088.4663999994
 10
17136.6520999996
 20
363088.9678000007
 10
17136.51640000008
 20
363089.4702000003
 10
17136.38200000021
 20
363089.9737999998
 10
17136.24930000026
 20
363090.4783999995
 10
17136.11809999961
 20
363090.9842000008
 10
17135.9888000004
 20
363091.4912000001
 10
17135.86129999999
 20
363091.9992999994
 10
17135.73579999991
 20
363092.5087000001
 10
17135.61249999981
 20
363093.019200001
 10
17135.49129999988
 20
363093.5310999993
 10
17135.37260000035
 20
363094.0441999995
 10
17135.25619999971
 20
363094.5584999994
 10
17135.14250000007
 20
363095.0742000006
 10
17135.03149999957
 20
363095.5910999999
 10
17134.92329999991
 20
363096.1094000004
 10
17134.8180999998
 20
363096.6289000009
 10
17134.71590000018
 20
363097.1498000008
 10
17134.61689999979
 20
363097.6720000003
 10
17134.52130000014
 20
363098.1954999994
 10
17134.4291000003
 20
363098.7204
 10
17134.3404000001
 20
363099.2465000004
 10
17134.25549999997
 20
363099.7740000002
 10
17134.1743999999
 20
363100.3027999997
 10
17134.09719999972
 20
363100.8328000009
 10
17134.02410000004
 20
363101.3641999997
 10
17133.95529999956
 20
363101.8967000005
 10
17133.89070000034
 20
363102.4306000006
 10
17133.83069999981
 20
363102.9656000007
 10
17133.77520000003
 20
363103.5019000005
 10
17133.72439999971
 20
363104.0393000003
 10
17133.67850000039
 20
363104.5778000001
 10
17133.63760000001
 20
363105.1173999999
 10
17133.60190000012
 20
363105.6580999997
 10
17133.57129999995
 20
363106.1997999996
 10
17133.54619999975
 20
363106.7424999997
 10
17133.53170000017
 20
363110.7476000004
1001
AcMap_E615D161-C9D7-11d3-839F-0060B0FB6B57
1071
        1
1071
       17
  0
LWPOLYLINE
  5
C63
330
1F
100
AcDbEntity
  8
Straßenverlauf_FBRD
100
AcDbPolyline
 90
       57
 70
     0
 43
0.0
 10
17159.26099999994
 20
363008.2414999995
 10
17159.1780000003
 20
363008.5515000001
 10
17159.04719999991
 20
363009.0353999995
 10
17158.91579999961
 20
363009.5212999992
 10
17158.7854000004
 20
363010.0067999997
 10
17158.65710000042
 20
363010.4807999991
 10
17137.68109999969
 20
363081.7514999993
 10
17137.53689999971
 20
363082.2414999996
 10
17137.39250000007
 20
363082.7324000001
 10
17137.24810000043
 20
363083.2241999991
 10
17137.10379999969
 20
363083.7170000002
 10
17136.95949999988
 20
363084.2112000008
 10
17136.81560000032
 20
363084.7061000001
 10
17136.67200000025
 20
363085.2020999994
 10
17136.5290000001
 20
363085.6991000008
 10
17136.38650000002
 20
363086.1972000003
 10
17136.24480000045
 20
363086.6964999996
 10
17136.10390000045
 20
363087.1969000008
 10
17135.96389999985
 20
363087.6985999998
 10
17135.82490000035
 20
363088.2014000006
 10
17135.68709999974
 20
363088.7054999992
 10
17135.55059999972
 20
363089.2109999992
 10
17135.41540000029
 20
363089.7177000008
 10
17135.28170000016
 20
363090.2257000003
 10
17135.14969999995
 20
363090.7350999993
 10
17135.01929999981
 20
363091.2458999996
 10
17134.8909
 20
363091.7579999995
 10
17134.76429999992
 20
363092.2716000006
 10
17134.63989999983
 20
363092.7866999992
 10
17134.51769999973
 20
363093.3030999992
 10
17134.39769999962
 20
363093.8211000003
 10
17134.28029999975
 20
363094.3405000009
 10
17134.16540000029
 20
363094.8615000006
 10
17134.05319999996
 20
363095.3839999996
 10
17133.94379999954
 20
363095.9079
 10
17133.83739999961
 20
363096.4333999995
 10
17133.73400000017
 20
363096.9605000001
 10
17133.63379999995
 20
363097.4890000001
 10
17133.53689999971
 20
363098.0192000009
 10
17133.44350000005
 20
363098.5507999994
 10
17133.35369999986
 20
363099.0840000008
 10
17133.2675999999
 20
363099.6186999996
 10
17133.18539999984
 20
363100.1548999996
 10
17133.10709999967
 20
363100.6927000005
 10
17133.03289999999
 20
363101.2318999991
 10
17132.96300000045
 20
363101.7726000008
 10
17132.89749999996
 20
363102.3147999999
 10
17132.83640000038
 20
363102.8584000003
 10
17132.78000000026
 20
363103.4034000002
 10
17132.72840000037
 20
363103.9497999996
 10
17132.68180000037
 20
363104.4975000005
 10
17132.64010000042
 20
363105.0465999991
 10
17132.60369999986
 20
363105.5968999993
 10
17132.5725999996
 20
363106.1484999992
 10
17132.54719999991
 20
363106.6986999996
 10
17132.53230000008
 20
363110.7816000004
 10
17132.91199999954
 20
363115.6034999993
1001
AcMap_E615D161-C9D7-11d3-839F-0060B0FB6B57
1071
        1
1071
       17
  0
LWPOLYLINE
  5
C64
330
1F
100
AcDbEntity
  8
Straßenverlauf_FBRD
100
AcDbPolyline
 90
        3
 70
     0
 43
0.0
 10
17133.53289999999
 20
363110.7826000005
 10
17133.41899999976
 20
363113.2183999997
 10
17132.91199999954
 20
363115.6034999993
1001
AcMap_E615D161-C9D7-11d3-839F-0060B0FB6B57
1071
        1
1071
       17
  0
LWPOLYLINE
  5
C65
330
1F
100
AcDbEntity
  8
Straßenverlauf_FBRD
100
AcDbPolyline
 90
        4
 70
     0
 43
0.0
 10
17132.91199999954
 20
363115.6034999993
 10
17132.26420000009
 20
363117.360200001
 10
17131.40270000044
 20
363119.0225000009
 10
17131.01099999994
 20
363119.5968999993
1001
AcMap_E615D161-C9D7-11d3-839F-0060B0FB6B57
1071
        1
1071
       17
  0
LWPOLYLINE
  5
C66
330
1F
100
AcDbEntity
  8
Straßenverlauf_FBRD
100
AcDbPolyline
 90
       15
 70
     0
 43
0.0
 10
17100.74949999992
 20
363118.5313000009
 10
17106.18599999975
 20
363122.5497999992
 10
17107.46810000017
 20
363123.3550000005
 10
17108.85699999984
 20
363123.9573999997
 10
17110.3208999997
 20
363124.3432
 10
17111.82639999967
 20
363124.5035999995
 10
17113.3387000002
 20
363124.4349000007
 10
17114.82340000011
 20
363124.1386999991
 10
17120.77550000045
 20
363122.7561000009
 10
17126.82679999992
 20
363121.9074000008
 10
17127.79360000044
 20
363121.7346999999
 10
17128.71929999999
 20
363121.4065000005
 10
17129.57909999974
 20
363120.9318000004
 10
17130.34979999997
 20
363120.3231000006
 10
17131.01099999994
 20
363119.5968999993
1001
AcMap_E615D161-C9D7-11d3-839F-0060B0FB6B57
1071
        1
1071
       17
  0
LWPOLYLINE
  5
C67
330
1F
100
AcDbEntity
  8
Straßenverlauf_FBRD
100
AcDbPolyline
 90
       18
 70
     0
 43
0.0
 10
17097.18300000019
 20
363123.3563000002
 10
17098.79860000033
 20
363124.5504999999
 10
17099.18510000035
 20
363124.8912000005
 10
17099.50760000013
 20
363125.2929999996
 10
17099.75659999996
 20
363125.7441000008
 10
17099.92480000015
 20
363126.2311000005
 10
17100.00710000004
 20
363126.7397000008
 10
17100.00119999982
 20
363127.2548999991
 10
17099.90720000025
 20
363127.7614999991
 10
17099.72790000029
 20
363128.2445999999
 10
17099.46860000025
 20
363128.6897999999
 10
17097.27859999984
 20
363131.2973999996
 10
17095.91050000023
 20
363132.5482000001
 10
17094.43250000011
 20
363133.6668999996
 10
17090.17019999958
 20
363136.8418000005
 10
17086.1660000002
 20
363140.3364000004
 10
17082.44359999988
 20
363144.1298999992
 10
17074.79989999998
 20
363152.8484000005
1001
AcMap_E615D161-C9D7-11d3-839F-0060B0FB6B57
1071
        1
1071
       17
  0
LWPOLYLINE
  5
C68
330
1F
100
AcDbEntity
  8
Straßenverlauf_FBRD
100
AcDbPolyline
 90
        3
 70
     0
 43
0.0
 10
17132.81790000014
 20
363126.5950000007
 10
17135.69259999972
 20
363127.640900001
 10
17135.85589999985
 20
363127.7193999999
1001
AcMap_E615D161-C9D7-11d3-839F-0060B0FB6B57
1071
        1
1071
       17
  0
LWPOLYLINE
  5
C69
330
1F
100
AcDbEntity
  8
Straßenverlauf_FBRD
100
AcDbPolyline
 90
       71
 70
     0
 43
0.0
 10
17132.81790000014
 20
363126.5950000007
 10
17133.58889999986
 20
363128.7960000001
 10
17133.79079999961
 20
363129.328400001
 10
17134.00079999957
 20
363129.8660000004
 10
17134.21549999993
 20
363130.4002
 10
17134.43479999993
 20
363130.9309999999
 10
17134.65840000007
 20
363131.4583999999
 10
17134.88630000036
 20
363131.9824000001
 10
17135.1183000002
 20
363132.5031000004
 10
17135.35429999977
 20
363133.0204000008
 10
17135.59399999957
 20
363133.5342999995
 10
17135.83729999978
 20
363134.045
 10
17136.08420000039
 20
363134.5524000004
 10
17136.33440000005
 20
363135.0565000009
 10
17136.58779999986
 20
363135.5574999992
 10
17136.84420000016
 20
363136.0551999994
 10
17137.10360000003
 20
363136.5497999992
 10
17137.36579999979
 20
363137.0414000005
 10
17137.6305999998
 20
363137.5297999997
 10
17137.89800000004
 20
363138.0153000002
 10
17138.16770000011
 20
363138.4977000002
 10
17138.43969999999
 20
363138.9772999995
 10
17138.71389999986
 20
363139.454
 10
17138.99000000022
 20
363139.9277999997
 10
17139.26809999998
 20
363140.3989000004
 10
17139.54789999965
 20
363140.8673000001
 10
17139.82930000033
 20
363141.3330000006
 10
17140.11230000015
 20
363141.7961
 10
17140.39670000039
 20
363142.2566999998
 10
17140.68240000028
 20
363142.7148000002
 10
17140.96920000016
 20
363143.1703999993
 10
17141.25710000004
 20
363143.6236000006
 10
17141.54600000009
 20
363144.0746
 10
17141.83579999953
 20
363144.5232999995
 10
17142.12619999982
 20
363144.9697999992
 10
17142.41739999968
 20
363145.4141000007
 10
17142.7089999998
 20
363145.8564
 10
17143.00109999999
 20
363146.2967000008
 10
17143.29349999968
 20
363146.7350999993
 10
17143.58609999995
 20
363147.1714999993
 10
17143.87889999989
 20
363147.6062000003
 10
17144.1716
 20
363148.0391000007
 10
17144.46430000011
 20
363148.4703000002
 10
17144.75690000038
 20
363148.8999000005
 10
17145.04920000024
 20
363149.3279999998
 10
17145.34020000044
 20
363149.7533
 10
17145.63190000038
 20
363150.1787000001
 10
17145.92310000025
 20
363150.6028000005
 10
17146.21360000037
 20
363151.0254999996
 10
17146.50339999981
 20
363151.4470000006
 10
17155.55009999964
 20
363164.6044999995
 10
17159.25100000016
 20
363170.4218000006
 10
17162.5270999996
 20
363176.4885000009
 10
17165.36160000041
 20
363182.7737000008
 10
17165.8850999996
 20
363184.3842999991
 10
17166.16629999969
 20
363186.0541999992
 10
17166.19930000044
 20
363187.7474000007
 10
17165.98319999967
 20
363189.4271000009
 10
17165.52280000038
 20
363191.0568000004
 10
17164.82809999958
 20
363192.6011999995
 10
17163.94959999993
 20
363193.9791999999
 10
17162.88470000028
 20
363195.2188000009
 10
17160.0279000001
 20
363198.2795000002
 10
17157.3591
 20
363201.5055999998
 10
17144.38159999996
 20
363218.1824999992
 10
17143.80989999976
 20
363218.9170999993
 10
17143.62100000028
 20
363219.1273999997
 10
17143.40440000035
 20
363219.3090000004
 10
17143.16440000012
 20
363219.4583
 10
17142.9057
 20
363219.5724
 10
17142.63360000029
 20
363219.6489000004
1001
AcMap_E615D161-C9D7-11d3-839F-0060B0FB6B57
1071
        1
1071
       17
  0
LWPOLYLINE
  5
C6A
330
1F
100
AcDbEntity
  8
Straßenverlauf_FBRD
100
AcDbPolyline
 90
       62
 70
     0
 43
0.0
 10
17135.85589999985
 20
363127.7193999999
 10
17136.33490000013
 20
363128.0069999994
 10
17136.76910000015
 20
363128.3585000002
 10
17137.1501000002
 20
363128.767000001
 10
17137.47049999982
 20
363129.2247000002
 10
17137.72400000039
 20
363129.7225000002
 10
17138.08970000036
 20
363130.5721000005
 10
17138.30910000019
 20
363131.0646000001
 10
17138.53249999974
 20
363131.5544000007
 10
17138.75980000011
 20
363132.0417
 10
17138.99079999979
 20
363132.5264999997
 10
17139.22549999971
 20
363133.0088
 10
17139.46360000036
 20
363133.4886000008
 10
17139.7050999999
 20
363133.966
 10
17139.94979999959
 20
363134.4408999999
 10
17140.1975999996
 20
363134.9134999998
 10
17140.44830000028
 20
363135.3836000003
 10
17140.70199999958
 20
363135.8515000008
 10
17140.95839999989
 20
363136.3169999998
 10
17141.21740000043
 20
363136.7804000006
 10
17141.47900000028
 20
363137.2414999996
 10
17141.74289999995
 20
363137.7004000004
 10
17142.00910000037
 20
363138.1571999994
 10
17142.27749999985
 20
363138.6119999998
 10
17142.54800000041
 20
363139.0647
 10
17142.82039999962
 20
363139.5153999999
 10
17143.09460000042
 20
363139.9641999994
 10
17143.37060000002
 20
363140.4112
 10
17143.6481999997
 20
363140.8563000002
 10
17143.92729999963
 20
363141.2995999996
 10
17144.2078999998
 20
363141.7412999999
 10
17144.4896999998
 20
363142.1811999996
 10
17144.77280000038
 20
363142.6195999999
 10
17145.05700000003
 20
363143.0563999992
 10
17145.34219999984
 20
363143.4918000009
 10
17145.62829999998
 20
363143.9256999996
 10
17145.91519999969
 20
363144.3582000006
 10
17146.20289999992
 20
363144.7894000002
 10
17146.49110000022
 20
363145.2193999999
 10
17146.77990000043
 20
363145.6481999997
 10
17147.06919999979
 20
363146.0758999996
 10
17147.35879999958
 20
363146.5024999995
 10
17147.64859999996
 20
363146.9280999992
 10
17147.93850000016
 20
363147.3528000005
 10
17148.22860000003
 20
363147.7764999997
 10
17148.51860000007
 20
363148.1995000001
 10
17148.80850000027
 20
363148.6217000001
 10
17149.09810000006
 20
363149.0431999992
 10
17149.38750000018
 20
363149.4640999996
 10
17158.43420000002
 20
363162.6215000004
 10
17162.26929999981
 20
363168.6498000008
 10
17165.66420000046
 20
363174.9364999999
 10
17168.60149999987
 20
363181.4496
 10
17169.29229999985
 20
363183.5831000004
 10
17169.65730000008
 20
363185.7957000006
 10
17169.68829999957
 20
363188.0380000007
 10
17169.38480000012
 20
363190.2598000002
 10
17168.75339999981
 20
363192.4115999993
 10
17167.80819999985
 20
363194.4452
 10
17166.69930000044
 20
363196.1465000008
 10
17165.37069999985
 20
363197.6823999994
 10
17163.98419999983
 20
363199.1243999992
1001
AcMap_E615D161-C9D7-11d3-839F-0060B0FB6B57
1071
        1
1071
       17
  0
LWPOLYLINE
  5
C6B
330
1F
100
AcDbEntity
  8
Straßenverlauf_FBRD
100
AcDbPolyline
 90
       64
 70
     0
 43
0.0
 10
17135.85589999985
 20
363127.7193999999
 10
17135.92870000005
 20
363127.9155000001
 10
17136.12399999983
 20
363128.4304000009
 10
17136.32500000018
 20
363128.9450000004
 10
17136.5307
 20
363129.4568000008
 10
17136.74089999963
 20
363129.9657000005
 10
17136.95380000025
 20
363130.4675999992
 10
17136.95550000015
 20
363130.4717999995
 10
17137.1743999999
 20
363130.9750999995
 10
17137.39749999996
 20
363131.4756000005
 10
17137.62440000009
 20
363131.9733000007
 10
17137.85529999993
 20
363132.4682000001
 10
17138.08980000019
 20
363132.9604000003
 10
17138.32799999974
 20
363133.4497999996
 10
17138.56950000021
 20
363133.9365999997
 10
17138.81439999956
 20
363134.4207000007
 10
17139.0625
 20
363134.9021000005
 10
17139.31359999999
 20
363135.3809999992
 10
17139.56759999972
 20
363135.8573000003
 10
17139.8245000001
 20
363136.3310000003
 10
17140.0839999998
 20
363136.8022000007
 10
17140.34609999973
 20
363137.2709999997
 10
17140.61060000025
 20
363137.737400001
 10
17140.87750000041
 20
363138.2014000006
 10
17141.1464999998
 20
363138.6631000005
 10
17141.41770000011
 20
363139.1225000005
 10
17141.69079999998
 20
363139.5797000006
 10
17141.96580000035
 20
363140.0347000007
 10
17142.2424999997
 20
363140.4876000007
 10
17142.52089999988
 20
363140.9385000002
 10
17142.80080000031
 20
363141.3872999996
 10
17143.08210000023
 20
363141.8341000006
 10
17143.36479999963
 20
363142.2791000009
 10
17143.64869999978
 20
363142.7222000007
 10
17143.9336000001
 20
363143.1634999998
 10
17144.21960000042
 20
363143.6031
 10
17144.50650000013
 20
363144.0409999993
 10
17144.79420000035
 20
363144.4772999995
 10
17145.08260000031
 20
363144.9121000004
 10
17145.37160000018
 20
363145.3453000002
 10
17145.66110000014
 20
363145.7772000004
 10
17145.95110000018
 20
363146.2075999994
 10
17146.24129999988
 20
363146.6368000005
 10
17146.53179999999
 20
363147.0647
 10
17146.82239999994
 20
363147.4914999996
 10
17147.11299999989
 20
363147.9170999993
 10
17147.40330000035
 20
363148.3412999995
 10
17147.69379999954
 20
363148.7650000006
 10
17147.9841
 20
363149.1876999997
 10
17148.27400000021
 20
363149.6096000001
 10
17148.56350000016
 20
363150.0307
 10
17157.61019999999
 20
363163.1881000008
 10
17161.40699999965
 20
363169.1560999993
 10
17164.76790000032
 20
363175.3798999991
 10
17167.67590000014
 20
363181.8278999999
 10
17168.37579999957
 20
363184.0554000009
 10
17168.69579999987
 20
363186.3683000002
 10
17168.62700000033
 20
363188.7021999992
 10
17168.17119999975
 20
363190.9922000002
 10
17167.34109999984
 20
363193.1745999996
 10
17166.15990000032
 20
363195.1886999998
 10
17164.6604000004
 20
363196.9784999993
 10
17163.24430000037
 20
363198.4515000004
 10
17163.98419999983
 20
363199.1243999992
1001
AcMap_E615D161-C9D7-11d3-839F-0060B0FB6B57
1071
        1
1071
       17
  0
LWPOLYLINE
  5
C6C
330
1F
100
AcDbEntity
  8
Straßenverlauf_FBRD
100
AcDbPolyline
 90
       13
 70
     0
 43
0.0
 10
17182.81219999958
 20
363140.7452000007
 10
17181.34080000035
 20
363142.5412000008
 10
17181.01449999958
 20
363142.9941000007
 10
17180.74670000001
 20
363143.4839999993
 10
17180.54169999994
 20
363144.0032000002
 10
17180.38329999987
 20
363144.6505999994
 10
17178.50710000004
 20
363155.8664999996
 10
17178.23350000009
 20
363159.0211999994
 10
17179.71970000025
 20
363158.8532999997
 10
17181.21430000011
 20
363158.909
 10
17182.6838999996
 20
363159.1868999992
 10
17184.09559999965
 20
363159.6809000001
 10
17188.04920000024
 20
363161.4060999993
1001
AcMap_E615D161-C9D7-11d3-839F-0060B0FB6B57
1071
        1
1071
       17
  0
LWPOLYLINE
  5
C6D
330
1F
100
AcDbEntity
  8
Straßenverlauf_FBRD
100
AcDbPolyline
 90
       12
 70
     0
 43
0.0
 10
17077.08829999994
 20
363154.9322999995
 10
17085.03469999973
 20
363146.4828999993
 10
17089.86880000028
 20
363141.6879999992
 10
17095.17619999964
 20
363137.4229000006
 10
17100.89910000004
 20
363133.7340999991
 10
17106.97530000005
 20
363130.6618000009
 10
17113.33860000036
 20
363128.2393999994
 10
17117.68790000025
 20
363127.0523000006
 10
17122.12650000024
 20
363126.2618000004
 10
17126.61820000037
 20
363125.8742999994
 10
17129.74629999976
 20
363125.9912999999
 10
17132.81790000014
 20
363126.5950000007
1001
AcMap_E615D161-C9D7-11d3-839F-0060B0FB6B57
1071
        1
1071
       17
  0
LWPOLYLINE
  5
C6E
330
1F
100
AcDbEntity
  8
Straßenverlauf_FBRD
100
AcDbPolyline
 90
       20
 70
     0
 43
0.0
 10
17239.40809999965
 20
363157.6949000005
 10
17239.51779999956
 20
363157.9890000001
 10
17239.67219999991
 20
363158.2622999996
 10
17239.86739999987
 20
363158.5080999993
 10
17240.09869999997
 20
363158.7203000002
 10
17240.36029999982
 20
363158.8937
 10
17240.64589999988
 20
363159.0241000001
 10
17240.94830000028
 20
363159.1082000007
 10
17241.26020000037
 20
363159.1438999996
 10
17241.57380000036
 20
363159.1303000003
 10
17241.8814000003
 20
363159.0679000002
 10
17253.93269999977
 20
363155.6183000002
 10
17258.05040000006
 20
363154.4156
 10
17260.06560000032
 20
363153.8150999993
 10
17260.35610000044
 20
363153.7032999992
 10
17260.62559999991
 20
363153.5478000008
 10
17260.86780000012
 20
363153.3522999994
 10
17261.07679999992
 20
363153.1216000002
 10
17261.24739999976
 20
363152.861300001
 10
17261.55360000022
 20
363152.3037999999
1001
AcMap_E615D161-C9D7-11d3-839F-0060B0FB6B57
1071
        1
1071
       17
  0
LWPOLYLINE
  5
C6F
330
1F
100
AcDbEntity
  8
Straßenverlauf_FBRD
100
AcDbPolyline
 90
       35
 70
     0
 43
0.0
 10
17261.68290000036
 20
363160.1633000002
 10
17251.59269999992
 20
363163.1699000001
 10
17240.41399999987
 20
363166.5299999993
 10
17235.68589999992
 20
363167.9704999998
 10
17234.31589999981
 20
363168.4024000001
 10
17229.55279999971
 20
363169.9217000008
 10
17222.80979999993
 20
363172.3740999997
 10
17217.6902999999
 20
363174.4866000005
 10
17210.80790000036
 20
363177.738500001
 10
17206.08459999971
 20
363180.2129999996
 10
17199.71430000011
 20
363183.9715
 10
17193.70990000013
 20
363187.8361000009
 10
17186.85190000012
 20
363192.6511000004
 10
17181.1146999998
 20
363197.2127
 10
17177.54519999958
 20
363200.2635999993
 10
17175.03289999999
 20
363202.6246000008
 10
17171.1043999996
 20
363206.8542999998
 10
17168.36450000014
 20
363210.2375000008
 10
17165.68340000044
 20
363214.1000999995
 10
17163.28280000016
 20
363218.1864
 10
17162.53870000038
 20
363219.7826000005
 10
17160.89520000014
 20
363223.6857999992
 10
17160.21910000034
 20
363225.8353000004
 10
17159.25480000023
 20
363229.8158
 10
17158.66669999994
 20
363233.9123999998
 10
17158.50549999997
 20
363238.5649999995
 10
17158.8273
 20
363242.1438999996
 10
17159.81329999957
 20
363246.8116999995
 10
17160.98280000035
 20
363250.5135999993
 10
17162.54739999957
 20
363254.3022000007
 10
17164.11050000042
 20
363257.0645000003
 10
17165.09960000031
 20
363258.5767999999
 10
17168.0354000004
 20
363262.6458999999
 10
17172.84570000041
 20
363268.8513999992
 10
17173.44539999962
 20
363269.6110999994
1001
AcMap_E615D161-C9D7-11d3-839F-0060B0FB6B57
1071
        1
1071
       17
  0
LWPOLYLINE
  5
C70
330
1F
100
AcDbEntity
  8
Straßenverlauf_FBRD
100
AcDbPolyline
 90
       21
 70
     0
 43
0.0
 10
17211.09509999957
 20
363163.2440000009
 10
17211.95249999966
 20
363165.7766999994
 10
17212.11010000016
 20
363166.0662999992
 10
17212.31159999967
 20
363166.3272999991
 10
17212.55190000031
 20
363166.5530999992
 10
17212.82490000035
 20
363166.7380999998
 10
17213.12370000034
 20
363166.8774999995
 10
17213.44079999998
 20
363166.9678000007
 10
17213.76819999981
 20
363167.0067999996
 10
17214.09769999981
 20
363166.9934999999
 10
17214.42090000026
 20
363166.928200001
 10
17233.5027999999
 20
363161.4661999997
 10
17233.82149999961
 20
363161.3446999993
 10
17234.11490000039
 20
363161.1709000003
 10
17234.37449999992
 20
363160.9496999998
 10
17234.59269999992
 20
363160.6876999997
 10
17234.76329999976
 20
363160.3923000005
 10
17234.88119999971
 20
363160.0723000001
 10
17234.94299999997
 20
363159.7369
 10
17234.94699999969
 20
363159.3958999999
 10
17234.89290000032
 20
363159.0592000001
1001
AcMap_E615D161-C9D7-11d3-839F-0060B0FB6B57
1071
        1
1071
       17
  0
LWPOLYLINE
  5
C71
330
1F
100
AcDbEntity
  8
Straßenverlauf_FBRD
100
AcDbPolyline
 90
       22
 70
     0
 43
0.0
 10
17207.05030000023
 20
363164.4079
 10
17207.3300999999
 20
363165.0262000003
 10
17207.50140000041
 20
363165.6830000002
 10
17207.55910000019
 20
363166.3592000008
 10
17207.5016999999
 20
363167.0354999993
 10
17207.33079999964
 20
363167.6922999993
 10
17207.0513000004
 20
363168.3107999992
 10
17206.67129999958
 20
363168.8730999995
 10
17206.20170000009
 20
363169.3630999997
 10
17205.65600000042
 20
363169.7665999997
 10
17205.04989999998
 20
363170.0721000005
 10
17200.00229999982
 20
363172.2958000004
 10
17195.38999999966
 20
363174.2793000005
 10
17190.62799999956
 20
363175.8703000006
 10
17185.74969999958
 20
363177.0576000009
 10
17183.8367999997
 20
363177.2816000004
 10
17181.91270000022
 20
363177.1965999995
 10
17180.02699999977
 20
363176.8048999999
 10
17178.22819999978
 20
363176.1165999994
 10
17176.56269999966
 20
363175.1493999995
 10
17175.07340000011
 20
363173.928200001
 10
17174.97449999954
 20
363173.8307000008
1001
AcMap_E615D161-C9D7-11d3-839F-0060B0FB6B57
1071
        1
1071
       17
  0
LINE
  5
C72
330
1F
100
AcDbEntity
  8
Straßenverlauf_FBRD
100
AcDbLine
 10
17174.97449999954
 20
363173.8307000008
 30
0.0
 11
17174.66789999977
 21
363173.5179999993
 31
0.0
1001
AcMap_E615D161-C9D7-11d3-839F-0060B0FB6B57
1071
        1
1071
       17
  0
LWPOLYLINE
  5
C73
330
1F
100
AcDbEntity
  8
Straßenverlauf_FBRD
100
AcDbPolyline
 90
       20
 70
     0
 43
0.0
 10
17174.97449999954
 20
363173.8307000008
 10
17174.4430999998
 20
363173.1900999993
 10
17174.02529999986
 20
363172.4703000002
 10
17173.73269999958
 20
363171.6910999995
 10
17173.57340000011
 20
363170.8741999995
 10
17173.55190000031
 20
363170.0421999991
 10
17173.66860000044
 20
363169.2181000002
 10
17173.92040000017
 20
363168.4247999993
 10
17174.30030000023
 20
363167.6842999999
 10
17174.79779999982
 20
363167.017000001
 10
17175.9888000004
 20
363165.6698000003
 10
17176.83090000041
 20
363164.8638000005
 10
17177.79499999992
 20
363164.2086999994
 10
17178.85450000036
 20
363163.7226999998
 10
17179.98000000044
 20
363163.4192999993
 10
17181.14020000025
 20
363163.3068000004
 10
17182.30289999954
 20
363163.3883999996
 10
17183.43599999975
 20
363163.6618000008
 10
17184.50810000021
 20
363164.1195
 10
17185.48929999955
 20
363164.7487000004
1001
AcMap_E615D161-C9D7-11d3-839F-0060B0FB6B57
1071
        1
1071
       17
  0
LWPOLYLINE
  5
C74
330
1F
100
AcDbEntity
  8
Straßenverlauf_FBRD
100
AcDbPolyline
 90
        4
 70
     0
 43
0.0
 10
17162.31329999957
 20
363200.9839999993
 10
17161.57330000028
 20
363200.3110000007
 10
17159.33220000006
 20
363203.0407999997
 10
17147.92559999972
 20
363217.6989999992
1001
AcMap_E615D161-C9D7-11d3-839F-0060B0FB6B57
1071
        1
1071
       17
  0
LINE
  5
C75
330
1F
100
AcDbEntity
  8
Straßenverlauf_FBRD
100
AcDbLine
 10
17162.31329999957
 20
363200.9839999993
 30
0.0
 11
17163.98419999983
 21
363199.1243999992
 31
0.0
1001
AcMap_E615D161-C9D7-11d3-839F-0060B0FB6B57
1071
        1
1071
       17
  0
LWPOLYLINE
  5
C76
330
1F
100
AcDbEntity
  8
Straßenverlauf_FBRD
100
AcDbPolyline
 90
        8
 70
     0
 43
0.0
 10
17162.31329999957
 20
363200.9839999993
 10
17160.12380000018
 20
363203.6517999992
 10
17153.19240000006
 20
363212.5592000001
 10
17152.72439999971
 20
363213.1605999992
 10
17152.02199999988
 20
363214.0631000009
 10
17150.80869999994
 20
363215.4396000002
 10
17149.4364
 20
363216.6576000005
 10
17147.92559999972
 20
363217.6989999992
1001
AcMap_E615D161-C9D7-11d3-839F-0060B0FB6B57
1071
        1
1071
       17
  0
LINE
  5
C77
330
1F
100
AcDbEntity
  8
Straßenverlauf_FBRD
100
AcDbLine
 10
17166.77460000012
 20
363201.6624999997
 30
0.0
 11
17165.05640000012
 21
363203.6548999995
 31
0.0
1001
AcMap_E615D161-C9D7-11d3-839F-0060B0FB6B57
1071
        1
1071
       17
  0
LINE
  5
C78
330
1F
100
AcDbEntity
  8
Straßenverlauf_FBRD
100
AcDbLine
 10
17168.7929999996
 20
363203.4985000007
 30
0.0
 11
17166.77460000012
 21
363201.6624999997
 31
0.0
1001
AcMap_E615D161-C9D7-11d3-839F-0060B0FB6B57
1071
        1
1071
       17
  0
LWPOLYLINE
  5
C79
330
1F
100
AcDbEntity
  8
Straßenverlauf_FBRD
100
AcDbPolyline
 90
       23
 70
     0
 43
0.0
 10
17168.7929999996
 20
363203.4985000007
 10
17172.25189999956
 20
363199.0399999992
 10
17172.34090000018
 20
363198.9013999998
 10
17172.40589999966
 20
363198.7500000001
 10
17172.44519999996
 20
363198.5899999999
 10
17172.45770000014
 20
363198.4256999996
 10
17172.44299999997
 20
363198.2616000009
 10
17172.40160000045
 20
363198.1020999998
 10
17172.33459999971
 20
363197.9516000003
 10
17172.24380000029
 20
363197.8142000008
 10
17172.13159999996
 20
363197.6934999992
 10
17172.00109999999
 20
363197.5929000005
 10
17171.85589999985
 20
363197.5150000006
 10
17171.69990000035
 20
363197.4620999992
 10
17171.53729999997
 20
363197.4354999997
 10
17171.37249999959
 20
363197.4360000008
 10
17171.21009999979
 20
363197.4635000005
 10
17171.05439999979
 20
363197.5173000004
 10
17170.90959999989
 20
363197.5958999992
 10
17170.77969999984
 20
363197.6973000001
 10
17169.61000000033
 20
363198.7869000007
 10
17169.02699999977
 20
363199.3423999996
 10
17166.77460000012
 20
363201.6624999997
1001
AcMap_E615D161-C9D7-11d3-839F-0060B0FB6B57
1071
        1
1071
       17
  0
LINE
  5
C7A
330
1F
100
AcDbEntity
  8
Straßenverlauf_FBRD
100
AcDbLine
 10
17165.05640000012
 20
363203.6548999995
 30
0.0
 11
17165.05140000023
 21
363203.6503999997
 31
0.0
1001
AcMap_E615D161-C9D7-11d3-839F-0060B0FB6B57
1071
        1
1071
       17
  0
LWPOLYLINE
  5
C7B
330
1F
100
AcDbEntity
  8
Straßenverlauf_FBRD
100
AcDbPolyline
 90
       25
 70
     0
 43
0.0
 10
17165.05640000012
 20
363203.6548999995
 10
17162.42370000016
 20
363207.1839000005
 10
17160.11340000014
 20
363210.9319000002
 10
17158.14350000024
 20
363214.8695000001
 10
17158.08770000003
 20
363215.0299999994
 10
17158.05989999976
 20
363215.1975999997
 10
17158.06080000009
 20
363215.3674999997
 10
17158.09049999993
 20
363215.5347000007
 10
17158.14809999987
 20
363215.6945999991
 10
17158.23190000001
 20
363215.8423999995
 10
17158.3395999996
 20
363215.9737999998
 10
17158.46789999958
 20
363216.0852000005
 10
17158.61319999955
 20
363216.1732000001
 10
17158.77130000014
 20
363216.2354000006
 10
17158.93769999966
 20
363216.2697999999
 10
17159.10749999992
 20
363216.2756999992
 10
17159.27579999994
 20
363216.2526999991
 10
17159.43780000042
 20
363216.2015000004
 10
17159.58880000003
 20
363216.1237000004
 10
17159.72449999954
 20
363216.0214000009
 10
17159.84090000018
 20
363215.8976000007
 10
17159.93460000027
 20
363215.7558999993
 10
17162.53930000029
 20
363211.4258999993
 10
17165.49909999966
 20
363207.3303999995
 10
17168.7929999996
 20
363203.4985000007
1001
AcMap_E615D161-C9D7-11d3-839F-0060B0FB6B57
1071
        1
1071
       17
  0
LINE
  5
C7C
330
1F
100
AcDbEntity
  8
Straßenverlauf_FBRD
100
AcDbLine
 10
17167.03589999955
 20
363205.4553999994
 30
0.0
 11
17165.05640000012
 21
363203.6548999995
 31
0.0
1001
AcMap_E615D161-C9D7-11d3-839F-0060B0FB6B57
1071
        1
1071
       17
  0
LWPOLYLINE
  5
C7D
330
1F
100
AcDbEntity
  8
Straßenverlauf_FBRD
100
AcDbPolyline
 90
        4
 70
     0
 43
0.0
 10
17147.92559999972
 20
363217.6989999992
 10
17146.24849999975
 20
363218.5703999996
 10
17144.47510000039
 20
363219.2237999998
 10
17142.63360000029
 20
363219.6489000004
1001
AcMap_E615D161-C9D7-11d3-839F-0060B0FB6B57
1071
        1
1071
       17
  0
LWPOLYLINE
  5
C7E
330
1F
100
AcDbEntity
  8
Straßenverlauf_FBRD
100
AcDbPolyline
 90
        5
 70
     0
 43
0.0
 10
17122.82540000044
 20
363219.5424000006
 10
17139.9151999997
 20
363219.8487
 10
17141.23489999957
 20
363219.8143000007
 10
17142.54650000017
 20
363219.6638999992
 10
17142.63360000029
 20
363219.6489000004
1001
AcMap_E615D161-C9D7-11d3-839F-0060B0FB6B57
1071
        1
1071
       17
  0
LWPOLYLINE
  5
C7F
330
1F
100
AcDbEntity
  8
Straßenverlauf_FBRD
100
AcDbPolyline
 90
        7
 70
     0
 43
0.0
 10
17122.75370000023
 20
363223.5417999998
 10
17126.43410000019
 20
363223.6077999994
 10
17126.85140000004
 20
363223.6445000005
 10
17127.25939999986
 20
363223.7390000001
 10
17127.65039999969
 20
363223.8893999998
 10
17128.01649999991
 20
363224.0928000007
 10
17128.35080000013
 20
363224.3452000004
1001
AcMap_E615D161-C9D7-11d3-839F-0060B0FB6B57
1071
        1
1071
       17
  0
LWPOLYLINE
  5
C80
330
1F
100
AcDbEntity
  8
Straßenverlauf_FBRD
100
AcDbPolyline
 90
       21
 70
     0
 43
0.0
 10
17152.53969999961
 20
363257.5272000004
 10
17152.76209999993
 20
363256.9267999996
 10
17152.93589999992
 20
363256.3101000004
 10
17153.00910000037
 20
363255.6735999994
 10
17152.97960000019
 20
363255.0336000007
 10
17152.84839999955
 20
363254.4065000006
 10
17152.61870000046
 20
363253.8083999995
 10
17150.87839999981
 20
363249.5741000008
 10
17149.63030000031
 20
363245.1696000006
 10
17148.89030000009
 20
363240.6519000009
 10
17148.61760000046
 20
363234.5554000009
 10
17148.75540000014
 20
363231.5585999992
 10
17148.38009999972
 20
363230.2492999993
 10
17147.78809999954
 20
363229.0226000008
 10
17146.99670000002
 20
363227.9141000007
 10
17146.02859999984
 20
363226.9560000003
 10
17144.9121000003
 20
363226.1758999992
 10
17143.67939999979
 20
363225.5965999998
 10
17140.27730000019
 20
363224.5635000002
 10
17136.77680000011
 20
363223.9400999993
 10
17135.17929999996
 20
363224.6254999992
1001
AcMap_E615D161-C9D7-11d3-839F-0060B0FB6B57
1071
        1
1071
       17
  0
LWPOLYLINE
  5
C81
330
1F
100
AcDbEntity
  8
Straßenverlauf_FBRD
100
AcDbPolyline
 90
       15
 70
     0
 43
0.0
 10
17166.96949999966
 20
363272.5921999999
 10
17158.44249999989
 20
363262.7096999995
 10
17158.17829999979
 20
363262.4002999999
 10
17157.93300000019
 20
363262.1565000005
 10
17157.64950000029
 20
363261.9585999996
 10
17157.33600000012
 20
363261.8125
 10
17157.00210000016
 20
363261.7225000001
 10
17156.65770000033
 20
363261.6915000007
 10
17156.31300000008
 20
363261.7202000004
 10
17155.9785000002
 20
363261.8079000004
 10
17155.6640999997
 20
363261.9518999998
 10
17155.37920000031
 20
363262.1479000003
 10
17155.1322999997
 20
363262.3900000006
 10
17154.9308000002
 20
363262.6711
 10
17153.34949999954
 20
363265.3368999996
1001
AcMap_E615D161-C9D7-11d3-839F-0060B0FB6B57
1071
        1
1071
       17
  0
ENDSEC
  0
SECTION
  2
OBJECTS
  0
DICTIONARY
  5
C
330
0
100
AcDbDictionary
281
     1
  3
ACAD_CIP_PREVIOUS_PRODUCT_INFO
350
1A5
  3
ACAD_COLOR
350
73
  3
ACAD_DETAILVIEWSTYLE
350
1AB
  3
ACAD_GROUP
350
D
  3
ACAD_LAYOUT
350
1A
  3
ACAD_MATERIAL
350
72
  3
ACAD_MLEADERSTYLE
350
D7
  3
ACAD_MLINESTYLE
350
17
  3
ACAD_PLOTSETTINGS
350
19
  3
ACAD_PLOTSTYLENAME
350
E
  3
ACAD_SCALELIST
350
B6
  3
ACAD_SECTIONVIEWSTYLE
350
1A8
  3
ACAD_TABLESTYLE
350
86
  3
ACAD_VISUALSTYLE
350
99
  3
ACDB_RECOMPOSE_DATA
350
CA0
  3
AcDbVariableDictionary
350
66
  3
AcDsDecomposeData
350
CA6
  3
AcMap_E615D15E-C9D7-11d3-839F-0060B0FB6B57
350
344
  3
ADE_QUERY_LIBRARY
350
21B
  3
ASE_INDEX_DICTIONARY
350
329
  3
Autodesk_MAP
350
204
  3
IrdDscDictionary
350
348
1001
ADE
1000
ADE02C004
1000
[Query]
1000
CaseSensitiveMatch=0
1000
SaveCurrQueryInSession=1
1000
MkSelSetWithQryObj=0
1000
ShowBlockAsInsPt=0
1000
CreateAssociativeHatchObjects=0
1000
ReferenceBoundaryForAreaLocation=1
1000
ShowImageAsBoundary=1
1000
DefaultJoinOperator=2
1000
ColorForAdd=red
1000
ColorForRemove=red
1000
BlockLocnForQuery=1
1000
TextLocnForQuery=1
1000
IncludeAllObjectsInGroups=0
1000
AlwaysUseLibraryDefinitions=0
1000
PreviewDefinitionsFrom=2
1000
[Save Back]
1000
RedefineBlockDefinitions=1
1000
RedefineLayerDefinitions=1
1000
RedefineTextStyleDefinitions=1
1000
RemoveUnusedGroups=1
1000
EraseSavedBackObjects=1
1000
RemoveLockAfterSave=1
1000
CreateHistoryFileOfChanges=0
1000
CreateBackupFileOfSourceDwg=1
1000
DontAddObjectsToSaveSet=0
1000
MarkObjectsForEditingWithoutPrompting=0
1000
FdoDontAddObjsToSvSet=0
1000
FdoEditWithoutPrompt=1
1000
FdoRemUnusedGrps=1
1000
FdoEraseSvdBkObjs=1
1000
FdoRemoveLockOnSave=1
1000
FdoTesselationMaxPointsDistance=0
1000
FdoTesselationMaxCurvesDistance=0
1000
[Coordinate Transformation]
1000
RestoreLastActiveDwgsOnStartup=1
1000
ActivateDwgsOnAttach=1
1000
AdjustSizesAndScalesForChangesInUnits=1
1000
AdjustRotationsForMapDistortions=1
1000
AdjustSizesAndScalesForMapDistortions=1
1000
AdjustElevations=1
1000
AdjustZeroRotationObjects=1
1000
ReconnectDbOnWSOpen=1
1000
NoOfSQLConditionsInHistory=10
  0
SUN
  5
217
330
94
100
AcDbSun
 90
        1
290
     1
 63
     7
421
 16777215
 40
1.0
291
     1
 91
  2458230
 92
 36000000
292
     0
 70
     0
 71
   256
280
     1
1001
ACAD
1000
AcDbSavedByObjectVersion
1070
     0
1000
AcDbSavedByObjectVersion
1070
     0
1000
AcDbSavedByObjectVersion
1070
     0
1000
AcDbSavedByObjectVersion
1070
     0
1000
AcDbSavedByObjectVersion
1070
     0
  0
DICTIONARY
  5
18E
330
2
100
AcDbDictionary
280
     1
281
     1
  3
ACAD_LAYERSTATES
360
18F
  0
DICTIONARY
  5
E6
330
10
100
AcDbDictionary
280
     1
281
     1
  0
DICTIONARY
  5
15D
330
1F
100
AcDbDictionary
280
     1
281
     1
  3
ACAD_SORTENTS
360
214
  0
XRECORD
  5
1A5
102
{ACAD_REACTORS
330
C
102
}
330
C
100
AcDbXrecord
280
     1
300
MAP
300
2019
300
87091MAP_2019_0F
  0
DICTIONARY
  5
73
102
{ACAD_REACTORS
330
C
102
}
330
C
100
AcDbDictionary
281
     1
  0
DICTIONARY
  5
1AB
102
{ACAD_REACTORS
330
C
102
}
330
C
100
AcDbDictionary
281
     1
  3
Imperial24
350
1AC
  3
Metric50
350
239
  0
DICTIONARY
  5
D
102
{ACAD_REACTORS
330
C
102
}
330
C
100
AcDbDictionary
281
     1
  0
DICTIONARY
  5
1A
102
{ACAD_REACTORS
330
C
102
}
330
C
100
AcDbDictionary
281
     1
  3
Layout1
350
59
  3
Layout2
350
5E
  3
Model
350
22
  0
DICTIONARY
  5
72
102
{ACAD_REACTORS
330
C
102
}
330
C
100
AcDbDictionary
281
     1
  3
ByBlock
350
97
  3
ByLayer
350
96
  3
Global
350
98
  0
DICTIONARY
  5
D7
102
{ACAD_REACTORS
330
C
102
}
330
C
100
AcDbDictionary
281
     1
  3
Beschriftung
350
E5
  3
Standard
350
D8
  0
DICTIONARY
  5
17
102
{ACAD_REACTORS
330
C
102
}
330
C
100
AcDbDictionary
281
     1
  3
Standard
350
18
  0
DICTIONARY
  5
19
102
{ACAD_REACTORS
330
C
102
}
330
C
100
AcDbDictionary
281
     1
  0
ACDBDICTIONARYWDFLT
  5
E
102
{ACAD_REACTORS
330
C
102
}
330
C
100
AcDbDictionary
281
     1
  3
Normal
350
F
100
AcDbDictionaryWithDefault
340
F
  0
DICTIONARY
  5
B6
102
{ACAD_REACTORS
330
C
102
}
330
C
100
AcDbDictionary
281
     1
  3
A0
350
B7
  3
A1
350
124
  3
A2
350
125
  3
A3
350
126
  3
A4
350
127
  3
A5
350
128
  3
A6
350
129
  3
A7
350
12A
  3
A8
350
12B
  3
A9
350
12C
  3
B0
350
12D
  3
B1
350
12E
  3
B2
350
12F
  3
B3
350
130
  3
B4
350
131
  3
B5
350
132
  3
B6
350
133
  3
B7
350
134
  3
B8
350
135
  3
B9
350
136
  3
C0
350
137
  3
C1
350
138
  3
C2
350
139
  3
C3
350
13A
  3
C4
350
13B
  3
C5
350
13C
  3
C6
350
13D
  3
C7
350
13E
  3
C8
350
13F
  3
C9
350
140
  3
D0
350
141
  3
D1
350
142
  3
D2
350
143
  0
DICTIONARY
  5
1A8
102
{ACAD_REACTORS
330
C
102
}
330
C
100
AcDbDictionary
281
     1
  3
Imperial24
350
1AA
  3
Metric50
350
238
  0
DICTIONARY
  5
86
102
{ACAD_REACTORS
330
C
102
}
330
C
100
AcDbDictionary
281
     1
  3
Legend
350
20D
  3
Standard
350
87
  0
DICTIONARY
  5
99
102
{ACAD_REACTORS
330
C
102
}
330
C
100
AcDbDictionary
281
     1
  3
2dWireframe
350
9F
  3
Basic
350
9E
  3
Brighten
350
A5
  3
ColorChange
350
A9
  3
Conceptual
350
A2
  3
Dim
350
A4
  3
EdgeColorOff
350
175
  3
Facepattern
350
A8
  3
Flat
350
9A
  3
FlatWithEdges
350
9B
  3
Gouraud
350
9C
  3
GouraudWithEdges
350
9D
  3
Hidden
350
A1
  3
JitterOff
350
173
  3
Linepattern
350
A7
  3
OverhangOff
350
174
  3
Realistic
350
A3
  3
Shaded
350
182
  3
Shaded with edges
350
181
  3
Shades of Gray
350
17E
  3
Sketchy
350
17F
  3
Thicken
350
A6
  3
Wireframe
350
A0
  3
X-Ray
350
180
  0
XRECORD
  5
CA0
102
{ACAD_REACTORS
330
C
102
}
330
C
100
AcDbXrecord
280
     1
 90
        1
330
87
330
20D
  0
DICTIONARY
  5
66
102
{ACAD_REACTORS
330
C
102
}
330
C
100
AcDbDictionary
281
     1
  3
CANNOSCALE
350
F0
  3
CMLEADERSTYLE
350
EF
  3
CTABLESTYLE
350
89
  3
CVIEWDETAILSTYLE
350
1B7
  3
CVIEWSECTIONSTYLE
350
1B8
  3
DIMASSOC
350
67
  3
HIDETEXT
350
6B
  3
LAYEREVAL
350
14D
  3
LAYERNOTIFY
350
14E
  0
DICTIONARY
  5
CA6
102
{ACAD_REACTORS
330
C
102
}
330
C
100
AcDbDictionary
281
     1
  3
AcDsRecords
350
CA8
  3
AcDsSchemas
350
CA7
1001
ACAD
1070
     2
  0
XRECORD
  5
344
102
{ACAD_REACTORS
330
C
102
}
330
C
100
AcDbXrecord
280
     1
 90
       17
  0
DICTIONARY
  5
21B
102
{ACAD_REACTORS
330
C
102
}
330
C
100
AcDbDictionary
281
     1
  3
_CurrQry
350
C96
  0
DICTIONARY
  5
329
102
{ACAD_REACTORS
330
C
102
}
330
C
100
AcDbDictionary
281
     1
  3
ASEBlockHierarchyIndexRecord
350
32A
1001
DCO15
1040
2038290322.0
  0
DICTIONARY
  5
204
102
{ACAD_REACTORS
330
C
102
}
330
C
100
AcDbDictionary
281
     1
  3
AcMapDMStylizedEntities
350
215
  3
AcMapResourceManager
350
209
  3
MAP_DISPLAY_CUSTOMOBJ_REG_TABLE
350
208
  3
MAP_DISPLAY_MANAGEMENT_DICTIONARY
350
205
  3
MAP_DISPLAY_STYLELIBRARY_DICTIONARY
350
206
  3
MAP_RESOURCE_VERSION_MANAGEMENT_DICTIONARY
350
216
1001
MapGWS
1000
C:\ProgramData\Autodesk\Autodesk AutoCAD Map 3D 2019\R23.0\MapCache\L1127_Antersham_Kalling_StrassenverlaufGWS.xml
  0
IRD_DSC_DICT
  5
348
102
{ACAD_REACTORS
330
C
102
}
330
C
100
AcDbDictionary
281
     1
  3
*A1
350
349
  3
*A2
350
34A
  3
*A3
350
34B
100
CIrdDscDict
1040
0.0
  0
DICTIONARY
  5
18F
102
{ACAD_REACTORS
330
18E
102
}
330
18E
100
AcDbDictionary
281
     1
  0
SORTENTSTABLE
  5
214
102
{ACAD_REACTORS
330
15D
102
}
330
15D
100
AcDbSortentsTable
330
1F
  0
ACDBDETAILVIEWSTYLE
  5
1AC
102
{ACAD_XDICTIONARY
360
CAB
102
}
102
{ACAD_REACTORS
330
1AB
102
}
330
1AB
100
AcDbModelDocViewStyle
 70
     0
  3
Imperial24
290
     0
100
AcDbDetailViewStyle
 70
     0
 71
     0
 90
        3
 71
     1
340
11
 62
   256
 40
0.24
340
0
 62
   256
 40
0.24
300

 40
0.36
280
     3
 71
     2
340
16
 90
       25
 62
   256
 71
     3
340
11
 62
   256
 40
0.24
 90
        1
 40
0.75
 90
        1
300
%<\AcVar ViewType \f "%tc1">% %<\AcVar ViewDetailId>%\PSCALE %<\AcVar ViewScale \f "%sn">%
 71
     4
340
16
 90
       25
 62
   256
340
16
 90
       25
 62
   256
280
     0
  0
ACDBDETAILVIEWSTYLE
  5
239
102
{ACAD_XDICTIONARY
360
CAF
102
}
102
{ACAD_REACTORS
330
1AB
102
}
330
1AB
100
AcDbModelDocViewStyle
 70
     0
  3
Metric50
290
     0
100
AcDbDetailViewStyle
 70
     0
 71
     0
 90
        3
 71
     1
340
11
 62
   256
 40
5.0
340
0
 62
   256
 40
5.0
300

 40
0.0
280
     1
 71
     2
340
16
 90
       25
 62
   256
 71
     3
340
11
 62
   256
 40
5.0
 90
        0
 40
15.0
 90
        1
300
%<\AcVar ViewDetailId>% (%<\AcVar ViewScale \f "%sn">%)
 71
     4
340
16
 90
       25
 62
   256
340
16
 90
       25
 62
   256
280
     0
  0
LAYOUT
  5
59
102
{ACAD_REACTORS
330
1A
102
}
330
1A
100
AcDbPlotSettings
  1

  2
None
  4

  6

 40
0.0
 41
0.0
 42
0.0
 43
0.0
 44
0.0
 45
0.0
 46
0.0
 47
0.0
 48
0.0
 49
0.0
140
0.0
141
0.0
142
1.0
143
1.0
 70
   688
 72
     0
 73
     0
 74
     5
  7

 75
    16
147
1.0
 76
     0
 77
     2
 78
   300
148
0.0
149
0.0
100
AcDbLayout
  1
Layout1
 70
     1
 71
     1
 10
0.0
 20
0.0
 11
12.0
 21
9.0
 12
0.0
 22
0.0
 32
0.0
 14
0.0
 24
0.0
 34
0.0
 15
0.0
 25
0.0
 35
0.0
146
0.0
 13
0.0
 23
0.0
 33
0.0
 16
1.0
 26
0.0
 36
0.0
 17
0.0
 27
1.0
 37
0.0
 76
     0
330
58
  0
LAYOUT
  5
5E
102
{ACAD_REACTORS
330
1A
102
}
330
1A
100
AcDbPlotSettings
  1

  2
None
  4

  6

 40
0.0
 41
0.0
 42
0.0
 43
0.0
 44
0.0
 45
0.0
 46
0.0
 47
0.0
 48
0.0
 49
0.0
140
0.0
141
0.0
142
1.0
143
1.0
 70
   688
 72
     0
 73
     0
 74
     5
  7

 75
    16
147
1.0
 76
     0
 77
     2
 78
   300
148
0.0
149
0.0
100
AcDbLayout
  1
Layout2
 70
     1
 71
     2
 10
0.0
 20
0.0
 11
12.0
 21
9.0
 12
0.0
 22
0.0
 32
0.0
 14
0.0
 24
0.0
 34
0.0
 15
0.0
 25
0.0
 35
0.0
146
0.0
 13
0.0
 23
0.0
 33
0.0
 16
1.0
 26
0.0
 36
0.0
 17
0.0
 27
1.0
 37
0.0
 76
     0
330
5D
  0
LAYOUT
  5
22
102
{ACAD_XDICTIONARY
360
194
102
}
102
{ACAD_REACTORS
330
1A
102
}
330
1A
100
AcDbPlotSettings
  1

  2
none_device
  4
ANSI_A_(8.50_x_11.00_Inches)
  6

 40
6.349999904632567
 41
19.04999923706055
 42
6.350006103515625
 43
19.04998779296875
 44
215.8999938964844
 45
279.3999938964844
 46
0.0
 47
0.0
 48
0.0
 49
0.0
140
0.0
141
0.0
142
1.0
143
2.584895464708373
 70
 11952
 72
     0
 73
     1
 74
     0
  7

 75
     0
147
0.3868628397755418
 76
     0
 77
     2
 78
   300
148
0.0
149
0.0
100
AcDbLayout
  1
Model
 70
     1
 71
     0
 10
0.0
 20
0.0
 11
12.0
 21
9.0
 12
0.0
 22
0.0
 32
0.0
 14
0.0
 24
0.0
 34
0.0
 15
0.0
 25
0.0
 35
0.0
146
0.0
 13
0.0
 23
0.0
 33
0.0
 16
1.0
 26
0.0
 36
0.0
 17
0.0
 27
1.0
 37
0.0
 76
     0
330
1F
331
94
  0
MATERIAL
  5
97
102
{ACAD_XDICTIONARY
360
188
102
}
102
{ACAD_REACTORS
330
72
102
}
330
72
100
AcDbMaterial
  1
ByBlock
 94
       63
  0
MATERIAL
  5
96
102
{ACAD_XDICTIONARY
360
186
102
}
102
{ACAD_REACTORS
330
72
102
}
330
72
100
AcDbMaterial
  1
ByLayer
 94
       63
  0
MATERIAL
  5
98
102
{ACAD_XDICTIONARY
360
110
102
}
102
{ACAD_REACTORS
330
72
102
}
330
72
100
AcDbMaterial
  1
Global
 43
0.0208000000566244
 43
0.0
 43
0.0
 43
0.0
 43
0.0
 43
0.0208000000566244
 43
0.0
 43
0.0
 43
0.0
 43
0.0
 43
1.0
 43
0.0
 43
0.0
 43
0.0
 43
0.0
 43
1.0
 49
0.0208000000566244
 49
0.0
 49
0.0
 49
0.0
 49
0.0
 49
0.0208000000566244
 49
0.0
 49
0.0
 49
0.0
 49
0.0
 49
1.0
 49
0.0
 49
0.0
 49
0.0
 49
0.0
 49
1.0
142
0.0208000000566244
142
0.0
142
0.0
142
0.0
142
0.0
142
0.0208000000566244
142
0.0
142
0.0
142
0.0
142
0.0
142
1.0
142
0.0
142
0.0
142
0.0
142
0.0
142
1.0
144
0.0208000000566244
144
0.0
144
0.0
144
0.0
144
0.0
144
0.0208000000566244
144
0.0
144
0.0
144
0.0
144
0.0
144
1.0
144
0.0
144
0.0
144
0.0
144
0.0
144
1.0
 94
       63
1001
ACAD
1070
    -1
1070
     3
1070
     0
1000

1071
        0
1070
     0
  0
MLEADERSTYLE
  5
E5
102
{ACAD_REACTORS
330
D7
102
}
330
D7
100
AcDbMLeaderStyle
179
     2
170
     2
171
     1
172
     0
 90
        2
 40
0.0
 41
0.0
173
     1
 91
-1056964608
340
14
 92
       -2
290
     1
 42
0.09
291
     1
 43
0.36
  3
Standard
 44
0.18
300

342
11
174
     1
178
     1
175
     1
176
     0
 93
-1056964608
 45
0.18
292
     0
297
     0
 46
0.18
 94
-1056964608
 47
1.0
 49
1.0
140
1.0
293
     1
141
0.0
294
     1
177
     0
142
1.0
295
     0
296
     1
143
0.125
271
     0
272
     9
273
     9
298
     0
  0
MLEADERSTYLE
  5
D8
102
{ACAD_REACTORS
330
D7
102
}
330
D7
100
AcDbMLeaderStyle
179
     2
170
     2
171
     1
172
     0
 90
        2
 40
0.0
 41
0.0
173
     1
 91
-1056964608
340
14
 92
       -2
290
     1
 42
0.09
291
     1
 43
0.36
  3
Standard
 44
0.18
300

342
11
174
     1
178
     1
175
     1
176
     0
 93
-1056964608
 45
0.18
292
     0
297
     0
 46
0.18
 94
-1056964608
 47
1.0
 49
1.0
140
1.0
293
     1
141
0.0
294
     1
177
     0
142
1.0
295
     0
296
     0
143
0.125
271
     0
272
     9
273
     9
298
     0
  0
MLINESTYLE
  5
18
102
{ACAD_REACTORS
330
17
102
}
330
17
100
AcDbMlineStyle
  2
STANDARD
 70
     0
  3

 62
   256
 51
90.0
 52
90.0
 71
     2
 49
0.5
 62
   256
  6
BYLAYER
 49
-0.5
 62
   256
  6
BYLAYER
  0
ACDBPLACEHOLDER
  5
F
102
{ACAD_REACTORS
330
E
102
}
330
E
  0
SCALE
  5
B7
102
{ACAD_REACTORS
330
B6
102
}
330
B6
100
AcDbScale
 70
     0
300
1:1
140
1.0
141
1.0
290
     1
  0
SCALE
  5
124
102
{ACAD_REACTORS
330
B6
102
}
330
B6
100
AcDbScale
 70
     0
300
1:2
140
1.0
141
2.0
290
     0
  0
SCALE
  5
125
102
{ACAD_REACTORS
330
B6
102
}
330
B6
100
AcDbScale
 70
     0
300
1:4
140
1.0
141
4.0
290
     0
  0
SCALE
  5
126
102
{ACAD_REACTORS
330
B6
102
}
330
B6
100
AcDbScale
 70
     0
300
1:5
140
1.0
141
5.0
290
     0
  0
SCALE
  5
127
102
{ACAD_REACTORS
330
B6
102
}
330
B6
100
AcDbScale
 70
     0
300
1:8
140
1.0
141
8.0
290
     0
  0
SCALE
  5
128
102
{ACAD_REACTORS
330
B6
102
}
330
B6
100
AcDbScale
 70
     0
300
1:10
140
1.0
141
10.0
290
     0
  0
SCALE
  5
129
102
{ACAD_REACTORS
330
B6
102
}
330
B6
100
AcDbScale
 70
     0
300
1:16
140
1.0
141
16.0
290
     0
  0
SCALE
  5
12A
102
{ACAD_REACTORS
330
B6
102
}
330
B6
100
AcDbScale
 70
     0
300
1:20
140
1.0
141
20.0
290
     0
  0
SCALE
  5
12B
102
{ACAD_REACTORS
330
B6
102
}
330
B6
100
AcDbScale
 70
     0
300
1:30
140
1.0
141
30.0
290
     0
  0
SCALE
  5
12C
102
{ACAD_REACTORS
330
B6
102
}
330
B6
100
AcDbScale
 70
     0
300
1:40
140
1.0
141
40.0
290
     0
  0
SCALE
  5
12D
102
{ACAD_REACTORS
330
B6
102
}
330
B6
100
AcDbScale
 70
     0
300
1:50
140
1.0
141
50.0
290
     0
  0
SCALE
  5
12E
102
{ACAD_REACTORS
330
B6
102
}
330
B6
100
AcDbScale
 70
     0
300
1:100
140
1.0
141
100.0
290
     0
  0
SCALE
  5
12F
102
{ACAD_REACTORS
330
B6
102
}
330
B6
100
AcDbScale
 70
     0
300
2:1
140
2.0
141
1.0
290
     0
  0
SCALE
  5
130
102
{ACAD_REACTORS
330
B6
102
}
330
B6
100
AcDbScale
 70
     0
300
4:1
140
4.0
141
1.0
290
     0
  0
SCALE
  5
131
102
{ACAD_REACTORS
330
B6
102
}
330
B6
100
AcDbScale
 70
     0
300
8:1
140
8.0
141
1.0
290
     0
  0
SCALE
  5
132
102
{ACAD_REACTORS
330
B6
102
}
330
B6
100
AcDbScale
 70
     0
300
10:1
140
10.0
141
1.0
290
     0
  0
SCALE
  5
133
102
{ACAD_REACTORS
330
B6
102
}
330
B6
100
AcDbScale
 70
     0
300
100:1
140
100.0
141
1.0
290
     0
  0
SCALE
  5
134
102
{ACAD_REACTORS
330
B6
102
}
330
B6
100
AcDbScale
 70
     0
300
1/128" = 1'-0"
140
0.0078125
141
12.0
290
     0
  0
SCALE
  5
135
102
{ACAD_REACTORS
330
B6
102
}
330
B6
100
AcDbScale
 70
     0
300
1/64" = 1'-0"
140
0.015625
141
12.0
290
     0
  0
SCALE
  5
136
102
{ACAD_REACTORS
330
B6
102
}
330
B6
100
AcDbScale
 70
     0
300
1/32" = 1'-0"
140
0.03125
141
12.0
290
     0
  0
SCALE
  5
137
102
{ACAD_REACTORS
330
B6
102
}
330
B6
100
AcDbScale
 70
     0
300
1/16" = 1'-0"
140
0.0625
141
12.0
290
     0
  0
SCALE
  5
138
102
{ACAD_REACTORS
330
B6
102
}
330
B6
100
AcDbScale
 70
     0
300
3/32" = 1'-0"
140
0.09375
141
12.0
290
     0
  0
SCALE
  5
139
102
{ACAD_REACTORS
330
B6
102
}
330
B6
100
AcDbScale
 70
     0
300
1/8" = 1'-0"
140
0.125
141
12.0
290
     0
  0
SCALE
  5
13A
102
{ACAD_REACTORS
330
B6
102
}
330
B6
100
AcDbScale
 70
     0
300
3/16" = 1'-0"
140
0.1875
141
12.0
290
     0
  0
SCALE
  5
13B
102
{ACAD_REACTORS
330
B6
102
}
330
B6
100
AcDbScale
 70
     0
300
1/4" = 1'-0"
140
0.25
141
12.0
290
     0
  0
SCALE
  5
13C
102
{ACAD_REACTORS
330
B6
102
}
330
B6
100
AcDbScale
 70
     0
300
3/8" = 1'-0"
140
0.375
141
12.0
290
     0
  0
SCALE
  5
13D
102
{ACAD_REACTORS
330
B6
102
}
330
B6
100
AcDbScale
 70
     0
300
1/2" = 1'-0"
140
0.5
141
12.0
290
     0
  0
SCALE
  5
13E
102
{ACAD_REACTORS
330
B6
102
}
330
B6
100
AcDbScale
 70
     0
300
3/4" = 1'-0"
140
0.75
141
12.0
290
     0
  0
SCALE
  5
13F
102
{ACAD_REACTORS
330
B6
102
}
330
B6
100
AcDbScale
 70
     0
300
1" = 1'-0"
140
1.0
141
12.0
290
     0
  0
SCALE
  5
140
102
{ACAD_REACTORS
330
B6
102
}
330
B6
100
AcDbScale
 70
     0
300
1-1/2" = 1'-0"
140
1.5
141
12.0
290
     0
  0
SCALE
  5
141
102
{ACAD_REACTORS
330
B6
102
}
330
B6
100
AcDbScale
 70
     0
300
3" = 1'-0"
140
3.0
141
12.0
290
     0
  0
SCALE
  5
142
102
{ACAD_REACTORS
330
B6
102
}
330
B6
100
AcDbScale
 70
     0
300
6" = 1'-0"
140
6.0
141
12.0
290
     0
  0
SCALE
  5
143
102
{ACAD_REACTORS
330
B6
102
}
330
B6
100
AcDbScale
 70
     0
300
1'-0" = 1'-0"
140
12.0
141
12.0
290
     0
  0
ACDBSECTIONVIEWSTYLE
  5
1AA
102
{ACAD_XDICTIONARY
360
CA9
102
}
102
{ACAD_REACTORS
330
1A8
102
}
330
1A8
100
AcDbModelDocViewStyle
 70
     0
  3
Imperial24
290
     0
100
AcDbSectionViewStyle
 70
     0
 71
     0
 90
       78
 71
     1
340
11
 62
   256
 40
0.24
340
0
340
0
 62
   256
 40
0.24
300
I, O, Q, S, X, Z
 40
0.48
 90
        3
 40
0.18
 90
        1
 71
     2
340
16
 90
       25
 62
   256
340
16
 90
       50
 62
   256
 40
0.24
 40
0.0
 40
0.24
 71
     3
340
11
 62
   256
 40
0.24
 90
        1
 40
0.75
 90
        1
300
%<\AcVar ViewType \f "%tc1">% %<\AcVar ViewSectionStartId>%-%<\AcVar ViewSectionEndId>%\PSCALE %<\AcVar ViewScale \f "%sn">%
 71
     4
 62
   256
 62
   257
300
ANSI31
 40
1.0
 90
        0
290
     0
290
     0
 90
        6
 40
0.0
 40
1.570796326794896
 40
0.2617993877991494
 40
1.308996938995747
 40
-0.2617993877991494
 40
1.832595714594044
  0
ACDBSECTIONVIEWSTYLE
  5
238
102
{ACAD_XDICTIONARY
360
CAD
102
}
102
{ACAD_REACTORS
330
1A8
102
}
330
1A8
100
AcDbModelDocViewStyle
 70
     0
  3
Metric50
290
     0
100
AcDbSectionViewStyle
 70
     0
 71
     0
 90
      102
 71
     1
340
11
 62
   256
 40
5.0
340
0
340
0
 62
   256
 40
5.0
300
I, O, Q, S, X, Z
 40
10.0
 90
        0
 40
2.5
 90
        0
 71
     2
340
16
 90
       25
 62
   256
340
16
 90
       50
 62
   256
 40
5.0
 40
2.5
 40
5.0
 71
     3
340
11
 62
   256
 40
5.0
 90
        0
 40
15.0
 90
        1
300
%<\AcVar ViewSectionStartId>%-%<\AcVar ViewSectionEndId>% (%<\AcVar ViewScale \f "%sn">%)
 71
     4
 62
   256
 62
   257
300
ANSI31
 40
1.0
 90
        0
290
     0
290
     0
 90
        6
 40
0.0
 40
1.570796326794896
 40
0.2617993877991494
 40
1.308996938995747
 40
-0.2617993877991494
 40
1.832595714594044
  0
TABLESTYLE
  5
20D
102
{ACAD_XDICTIONARY
360
886
102
}
102
{ACAD_REACTORS
330
86
102
}
330
86
100
AcDbTableStyle
280
     0
  3

 70
     0
 71
     3
 40
0.06
 41
0.06
280
     0
281
     0
  7
Legend
140
0.18
170
     4
 62
     0
 63
     7
283
     0
 90
      512
 91
        0
  1

274
    -2
284
     0
 64
     0
275
    -2
285
     0
 65
     0
276
    -2
286
     0
 66
     0
277
    -2
287
     0
 67
     0
278
    -2
288
     0
 68
     0
279
    -2
289
     0
 69
     0
  7
Legend
140
0.25
170
     5
 62
     0
 63
     7
283
     0
 90
      512
 91
        0
  1

274
    -2
284
     0
 64
     0
275
    -2
285
     0
 65
     0
276
    -2
286
     0
 66
     0
277
    -2
287
     0
 67
     0
278
    -2
288
     0
 68
     0
279
    -2
289
     0
 69
     0
  7
Legend
140
0.18
170
     4
 62
     0
 63
     7
283
     0
 90
      512
 91
        0
  1

274
    -2
284
     0
 64
     0
275
    -2
285
     0
 65
     0
276
    -2
286
     0
 66
     0
277
    -2
287
     0
 67
     0
278
    -2
288
     0
 68
     0
279
    -2
289
     0
 69
     0
  0
TABLESTYLE
  5
87
102
{ACAD_XDICTIONARY
360
104
102
}
102
{ACAD_REACTORS
330
86
102
}
330
86
100
AcDbTableStyle
280
     0
  3
Standard
 70
     0
 71
     0
 40
0.06
 41
0.06
280
     0
281
     0
  7
Standard
140
0.18
170
     2
 62
     0
 63
     7
283
     0
 90
      512
 91
        0
  1

274
    -2
284
     1
 64
     0
275
    -2
285
     1
 65
     0
276
    -2
286
     1
 66
     0
277
    -2
287
     1
 67
     0
278
    -2
288
     1
 68
     0
279
    -2
289
     1
 69
     0
  7
Standard
140
0.25
170
     5
 62
     0
 63
     7
283
     0
 90
      512
 91
        0
  1

274
    -2
284
     1
 64
     0
275
    -2
285
     1
 65
     0
276
    -2
286
     1
 66
     0
277
    -2
287
     1
 67
     0
278
    -2
288
     1
 68
     0
279
    -2
289
     1
 69
     0
  7
Standard
140
0.18
170
     5
 62
     0
 63
     7
283
     0
 90
      512
 91
        0
  1

274
    -2
284
     1
 64
     0
275
    -2
285
     1
 65
     0
276
    -2
286
     1
 66
     0
277
    -2
287
     1
 67
     0
278
    -2
288
     1
 68
     0
279
    -2
289
     1
 69
     0
  0
VISUALSTYLE
  5
9F
102
{ACAD_REACTORS
330
99
102
}
330
99
100
AcDbVisualStyle
  2
2dWireframe
 70
     4
177
     3
291
     0
 70
    58
 90
        0
176
     1
 90
        2
176
     1
 90
        1
176
     1
 90
        0
176
     1
 40
0.6
176
     1
 40
30.0
176
     1
 62
     7
420
 16777215
176
     1
 90
        1
176
     1
 90
        4
176
     1
 62
     7
176
     1
 62
   257
176
     1
 90
        1
176
     1
 90
        1
176
     1
 40
1.0
176
     1
 90
        0
176
     1
 62
   257
176
     1
 40
1.0
176
     1
 90
        1
176
     1
 90
        6
176
     1
 90
        2
176
     1
 62
     7
176
     1
 90
        5
176
     1
 90
        0
176
     1
 90
        0
176
     1
290
     0
176
     1
 90
        1
176
     1
 40
0.0
176
     1
 90
        0
176
     1
290
     1
176
     1
290
     1
176
     1
290
     0
176
     1
290
     0
176
     1
290
     0
176
     1
290
     0
176
     1
290
     0
176
     1
290
     0
176
     1
290
     0
176
     1
 90
       50
176
     1
 40
0.0
176
     1
 40
1.0
176
     1
 90
        0
176
     1
 62
    18
176
     1
 90
       50
176
     1
 90
        3
176
     1
 62
     5
420
      255
176
     1
290
     0
176
     1
 90
       50
176
     1
 90
       50
176
     1
 90
       50
176
     1
290
     0
176
     1
 90
       50
176
     1
 62
   256
176
     0
 40
1.0
176
     0
 90
        2
176
     1
  1
strokes_ogs.tif
176
     1
290
     0
176
     1
 40
1.0
176
     1
 40
1.0
176
     1
1001
ACAD
1000
AcDbSavedByObjectVersion
1070
     0
  0
VISUALSTYLE
  5
9E
102
{ACAD_REACTORS
330
99
102
}
330
99
100
AcDbVisualStyle
  2
Basic
 70
     7
177
     3
291
     1
 70
    58
 90
        1
176
     1
 90
        0
176
     1
 90
        1
176
     1
 90
        0
176
     1
 40
0.6
176
     1
 40
30.0
176
     1
 62
     7
420
 16777215
176
     1
 90
        0
176
     1
 90
        4
176
     1
 62
     7
176
     1
 62
   257
176
     1
 90
        1
176
     1
 90
        1
176
     1
 40
1.0
176
     1
 90
        8
176
     1
 62
     7
176
     1
 40
1.0
176
     1
 90
        1
176
     1
 90
        6
176
     1
 90
        2
176
     1
 62
     7
176
     1
 90
        5
176
     1
 90
        0
176
     1
 90
        0
176
     1
290
     0
176
     1
 90
        1
176
     1
 40
0.0
176
     1
 90
        0
176
     1
290
     0
176
     1
290
     1
176
     1
290
     1
176
     1
290
     0
176
     1
290
     0
176
     1
290
     0
176
     1
290
     0
176
     1
290
     0
176
     1
290
     0
176
     1
 90
       50
176
     1
 40
0.0
176
     1
 40
1.0
176
     1
 90
        0
176
     1
 62
    18
176
     1
 90
       50
176
     1
 90
        3
176
     1
 62
     5
420
      255
176
     1
290
     0
176
     1
 90
       50
176
     1
 90
       50
176
     1
 90
       50
176
     1
290
     0
176
     1
 90
       50
176
     1
 62
   256
176
     0
 40
1.0
176
     0
 90
        2
176
     1
  1
strokes_ogs.tif
176
     1
290
     0
176
     1
 40
1.0
176
     1
 40
1.0
176
     1
1001
ACAD
1000
AcDbSavedByObjectVersion
1070
     0
  0
VISUALSTYLE
  5
A5
102
{ACAD_REACTORS
330
99
102
}
330
99
100
AcDbVisualStyle
  2
Brighten
 70
    12
177
     3
291
     1
 70
    58
 90
        2
176
     1
 90
        2
176
     1
 90
        1
176
     1
 90
        0
176
     1
 40
0.6
176
     1
 40
30.0
176
     1
 62
     7
420
 16777215
176
     1
 90
        1
176
     1
 90
        4
176
     1
 62
     7
176
     1
 62
   257
176
     1
 90
        1
176
     1
 90
        1
176
     1
 40
1.0
176
     1
 90
        8
176
     1
 62
     7
176
     1
 40
1.0
176
     1
 90
        1
176
     1
 90
        6
176
     1
 90
        2
176
     1
 62
     7
176
     1
 90
        5
176
     1
 90
        0
176
     1
 90
        0
176
     1
290
     0
176
     1
 90
        1
176
     1
 40
50.0
176
     1
 90
        0
176
     1
290
     0
176
     1
290
     1
176
     1
290
     1
176
     1
290
     0
176
     1
290
     0
176
     1
290
     0
176
     1
290
     0
176
     1
290
     0
176
     1
290
     0
176
     1
 90
       50
176
     1
 40
0.0
176
     1
 40
1.0
176
     1
 90
        0
176
     1
 62
    18
176
     1
 90
       50
176
     1
 90
        3
176
     1
 62
     5
420
      255
176
     1
290
     0
176
     1
 90
       50
176
     1
 90
       50
176
     1
 90
       50
176
     1
290
     0
176
     1
 90
       50
176
     1
 62
   256
176
     0
 40
1.0
176
     0
 90
        2
176
     1
  1
strokes_ogs.tif
176
     1
290
     0
176
     1
 40
1.0
176
     1
 40
1.0
176
     1
1001
ACAD
1000
AcDbSavedByObjectVersion
1070
     0
  0
VISUALSTYLE
  5
A9
102
{ACAD_REACTORS
330
99
102
}
330
99
100
AcDbVisualStyle
  2
ColorChange
 70
    16
177
     3
291
     1
 70
    58
 90
        2
176
     1
 90
        2
176
     1
 90
        3
176
     1
 90
        0
176
     1
 40
0.6
176
     1
 40
30.0
176
     1
 62
     8
420
  8421504
176
     1
 90
        1
176
     1
 90
        4
176
     1
 62
     7
176
     1
 62
   257
176
     1
 90
        1
176
     1
 90
        1
176
     1
 40
1.0
176
     1
 90
        8
176
     1
 62
     8
420
  8421504
176
     1
 40
1.0
176
     1
 90
        1
176
     1
 90
        6
176
     1
 90
        2
176
     1
 62
     7
176
     1
 90
        5
176
     1
 90
        0
176
     1
 90
        0
176
     1
290
     0
176
     1
 90
        1
176
     1
 40
0.0
176
     1
 90
        0
176
     1
290
     0
176
     1
290
     1
176
     1
290
     1
176
     1
290
     0
176
     1
290
     0
176
     1
290
     0
176
     1
290
     0
176
     1
290
     0
176
     1
290
     0
176
     1
 90
       50
176
     1
 40
0.0
176
     1
 40
1.0
176
     1
 90
        0
176
     1
 62
    18
176
     1
 90
       50
176
     1
 90
        3
176
     1
 62
     5
420
      255
176
     1
290
     0
176
     1
 90
       50
176
     1
 90
       50
176
     1
 90
       50
176
     1
290
     0
176
     1
 90
       50
176
     1
 62
   256
176
     0
 40
1.0
176
     0
 90
        2
176
     1
  1
strokes_ogs.tif
176
     1
290
     0
176
     1
 40
1.0
176
     1
 40
1.0
176
     1
1001
ACAD
1000
AcDbSavedByObjectVersion
1070
     0
  0
VISUALSTYLE
  5
A2
102
{ACAD_REACTORS
330
99
102
}
330
99
100
AcDbVisualStyle
  2
Conceptual
 70
     9
177
     3
291
     0
 70
    58
 90
        3
176
     1
 90
        2
176
     1
 90
        1
176
     1
 90
        0
176
     1
 40
0.6
176
     1
 40
30.0
176
     1
 62
     7
420
 16777215
176
     1
 90
        2
176
     1
 90
        2
176
     1
 62
     7
176
     1
 62
   257
176
     1
 90
        1
176
     1
 90
        1
176
     1
 40
40.0
176
     1
 90
        8
176
     1
 62
     7
176
     1
 40
1.0
176
     1
 90
        1
176
     1
 90
        6
176
     1
 90
        2
176
     1
 62
     7
176
     1
 90
        3
176
     1
 90
        0
176
     1
 90
        0
176
     1
290
     0
176
     1
 90
        1
176
     1
 40
0.0
176
     1
 90
        0
176
     1
290
     0
176
     1
290
     1
176
     1
290
     1
176
     1
290
     0
176
     1
290
     0
176
     1
290
     0
176
     1
290
     0
176
     1
290
     0
176
     1
290
     0
176
     1
 90
       50
176
     1
 40
0.0
176
     1
 40
1.0
176
     1
 90
        0
176
     1
 62
    18
176
     1
 90
       50
176
     1
 90
        3
176
     1
 62
     5
420
      255
176
     1
290
     0
176
     1
 90
       50
176
     1
 90
       50
176
     1
 90
       50
176
     1
290
     0
176
     1
 90
       50
176
     1
 62
   256
176
     0
 40
1.0
176
     0
 90
        2
176
     1
  1
strokes_ogs.tif
176
     1
290
     0
176
     1
 40
1.0
176
     1
 40
1.0
176
     1
1001
ACAD
1000
AcDbSavedByObjectVersion
1070
     0
  0
VISUALSTYLE
  5
A4
102
{ACAD_REACTORS
330
99
102
}
330
99
100
AcDbVisualStyle
  2
Dim
 70
    11
177
     3
291
     1
 70
    58
 90
        2
176
     1
 90
        2
176
     1
 90
        1
176
     1
 90
        0
176
     1
 40
0.6
176
     1
 40
30.0
176
     1
 62
     7
420
 16777215
176
     1
 90
        1
176
     1
 90
        4
176
     1
 62
     7
176
     1
 62
   257
176
     1
 90
        1
176
     1
 90
        1
176
     1
 40
1.0
176
     1
 90
        8
176
     1
 62
     7
176
     1
 40
1.0
176
     1
 90
        1
176
     1
 90
        6
176
     1
 90
        2
176
     1
 62
     7
176
     1
 90
        5
176
     1
 90
        0
176
     1
 90
        0
176
     1
290
     0
176
     1
 90
        1
176
     1
 40
-50.0
176
     1
 90
        0
176
     1
290
     0
176
     1
290
     1
176
     1
290
     1
176
     1
290
     0
176
     1
290
     0
176
     1
290
     0
176
     1
290
     0
176
     1
290
     0
176
     1
290
     0
176
     1
 90
       50
176
     1
 40
0.0
176
     1
 40
1.0
176
     1
 90
        0
176
     1
 62
    18
176
     1
 90
       50
176
     1
 90
        3
176
     1
 62
     5
420
      255
176
     1
290
     0
176
     1
 90
       50
176
     1
 90
       50
176
     1
 90
       50
176
     1
290
     0
176
     1
 90
       50
176
     1
 62
   256
176
     0
 40
1.0
176
     0
 90
        2
176
     1
  1
strokes_ogs.tif
176
     1
290
     0
176
     1
 40
1.0
176
     1
 40
1.0
176
     1
1001
ACAD
1000
AcDbSavedByObjectVersion
1070
     0
  0
VISUALSTYLE
  5
175
102
{ACAD_REACTORS
330
99
102
}
330
99
100
AcDbVisualStyle
  2
EdgeColorOff
 70
    22
177
     3
291
     1
 70
    58
 90
        2
176
     0
 90
        2
176
     0
 90
        0
176
     0
 90
        0
176
     0
 40
0.6
176
     0
 40
30.0
176
     0
 62
     7
420
 16777215
176
     0
 90
        1
176
     0
 90
        4
176
     0
 62
     7
176
     0
 62
   257
176
     0
 90
        1
176
     0
 90
        1
176
     0
 40
1.0
176
     0
 90
        8
176
     2
 62
     7
176
     0
 40
1.0
176
     0
 90
        1
176
     0
 90
        6
176
     0
 90
        2
176
     0
 62
     7
176
     0
 90
        5
176
     0
 90
        0
176
     0
 90
        0
176
     0
290
     0
176
     0
 90
        1
176
     0
 40
0.0
176
     0
 90
        0
176
     0
290
     0
176
     1
290
     1
176
     1
290
     1
176
     1
290
     0
176
     1
290
     0
176
     1
290
     0
176
     1
290
     0
176
     1
290
     0
176
     1
290
     0
176
     1
 90
       50
176
     1
 40
0.0
176
     1
 40
1.0
176
     1
 90
        0
176
     1
 62
    18
176
     1
 90
       50
176
     1
 90
        3
176
     1
 62
     5
420
      255
176
     1
290
     0
176
     1
 90
       50
176
     1
 90
       50
176
     1
 90
       50
176
     1
290
     0
176
     1
 90
       50
176
     1
 62
   256
176
     0
 40
1.0
176
     0
 90
        2
176
     1
  1
strokes_ogs.tif
176
     1
290
     0
176
     1
 40
1.0
176
     1
 40
1.0
176
     1
1001
ACAD
1000
AcDbSavedByObjectVersion
1070
     0
  0
VISUALSTYLE
  5
A8
102
{ACAD_REACTORS
330
99
102
}
330
99
100
AcDbVisualStyle
  2
Facepattern
 70
    15
177
     3
291
     1
 70
    58
 90
        2
176
     1
 90
        2
176
     1
 90
        1
176
     1
 90
        0
176
     1
 40
0.6
176
     1
 40
30.0
176
     1
 62
     7
420
 16777215
176
     1
 90
        1
176
     1
 90
        4
176
     1
 62
     7
176
     1
 62
   257
176
     1
 90
        1
176
     1
 90
        1
176
     1
 40
1.0
176
     1
 90
        8
176
     1
 62
     7
176
     1
 40
1.0
176
     1
 90
        1
176
     1
 90
        6
176
     1
 90
        2
176
     1
 62
     7
176
     1
 90
        5
176
     1
 90
        0
176
     1
 90
        0
176
     1
290
     0
176
     1
 90
        1
176
     1
 40
0.0
176
     1
 90
        0
176
     1
290
     0
176
     1
290
     1
176
     1
290
     1
176
     1
290
     0
176
     1
290
     0
176
     1
290
     0
176
     1
290
     0
176
     1
290
     0
176
     1
290
     0
176
     1
 90
       50
176
     1
 40
0.0
176
     1
 40
1.0
176
     1
 90
        0
176
     1
 62
    18
176
     1
 90
       50
176
     1
 90
        3
176
     1
 62
     5
420
      255
176
     1
290
     0
176
     1
 90
       50
176
     1
 90
       50
176
     1
 90
       50
176
     1
290
     0
176
     1
 90
       50
176
     1
 62
   256
176
     0
 40
1.0
176
     0
 90
        2
176
     1
  1
strokes_ogs.tif
176
     1
290
     0
176
     1
 40
1.0
176
     1
 40
1.0
176
     1
1001
ACAD
1000
AcDbSavedByObjectVersion
1070
     0
  0
VISUALSTYLE
  5
9A
102
{ACAD_REACTORS
330
99
102
}
330
99
100
AcDbVisualStyle
  2
Flat
 70
     0
177
     3
291
     1
 70
    58
 90
        2
176
     1
 90
        1
176
     1
 90
        1
176
     1
 90
        2
176
     1
 40
0.6
176
     1
 40
30.0
176
     1
 62
     7
420
 16777215
176
     1
 90
        0
176
     1
 90
        0
176
     1
 62
     7
176
     1
 62
   257
176
     1
 90
        1
176
     1
 90
        1
176
     1
 40
1.0
176
     1
 90
        8
176
     1
 62
     7
176
     1
 40
1.0
176
     1
 90
        1
176
     1
 90
        6
176
     1
 90
        2
176
     1
 62
     7
176
     1
 90
        5
176
     1
 90
        0
176
     1
 90
        0
176
     1
290
     0
176
     1
 90
       13
176
     1
 40
0.0
176
     1
 90
        0
176
     1
290
     0
176
     1
290
     1
176
     1
290
     1
176
     1
290
     0
176
     1
290
     0
176
     1
290
     0
176
     1
290
     0
176
     1
290
     0
176
     1
290
     0
176
     1
 90
       50
176
     1
 40
0.0
176
     1
 40
1.0
176
     1
 90
        0
176
     1
 62
    18
176
     1
 90
       50
176
     1
 90
        3
176
     1
 62
     5
420
      255
176
     1
290
     0
176
     1
 90
       50
176
     1
 90
       50
176
     1
 90
       50
176
     1
290
     0
176
     1
 90
       50
176
     1
 62
   256
176
     0
 40
1.0
176
     0
 90
        2
176
     1
  1
strokes_ogs.tif
176
     1
290
     0
176
     1
 40
1.0
176
     1
 40
1.0
176
     1
1001
ACAD
1000
AcDbSavedByObjectVersion
1070
     0
  0
VISUALSTYLE
  5
9B
102
{ACAD_REACTORS
330
99
102
}
330
99
100
AcDbVisualStyle
  2
FlatWithEdges
 70
     1
177
     3
291
     1
 70
    58
 90
        2
176
     1
 90
        1
176
     1
 90
        1
176
     1
 90
        2
176
     1
 40
0.6
176
     1
 40
30.0
176
     1
 62
     7
420
 16777215
176
     1
 90
        1
176
     1
 90
        0
176
     1
 62
     7
176
     1
 62
   257
176
     1
 90
        1
176
     1
 90
        1
176
     1
 40
1.0
176
     1
 90
        0
176
     1
 62
   257
176
     1
 40
1.0
176
     1
 90
        1
176
     1
 90
        6
176
     1
 90
        2
176
     1
 62
     7
176
     1
 90
        5
176
     1
 90
        0
176
     1
 90
        0
176
     1
290
     0
176
     1
 90
       13
176
     1
 40
0.0
176
     1
 90
        0
176
     1
290
     0
176
     1
290
     1
176
     1
290
     1
176
     1
290
     0
176
     1
290
     0
176
     1
290
     0
176
     1
290
     0
176
     1
290
     0
176
     1
290
     0
176
     1
 90
       50
176
     1
 40
0.0
176
     1
 40
1.0
176
     1
 90
        0
176
     1
 62
    18
176
     1
 90
       50
176
     1
 90
        3
176
     1
 62
     5
420
      255
176
     1
290
     0
176
     1
 90
       50
176
     1
 90
       50
176
     1
 90
       50
176
     1
290
     0
176
     1
 90
       50
176
     1
 62
   256
176
     0
 40
1.0
176
     0
 90
        2
176
     1
  1
strokes_ogs.tif
176
     1
290
     0
176
     1
 40
1.0
176
     1
 40
1.0
176
     1
1001
ACAD
1000
AcDbSavedByObjectVersion
1070
     0
  0
VISUALSTYLE
  5
9C
102
{ACAD_REACTORS
330
99
102
}
330
99
100
AcDbVisualStyle
  2
Gouraud
 70
     2
177
     3
291
     1
 70
    58
 90
        2
176
     1
 90
        2
176
     1
 90
        1
176
     1
 90
        2
176
     1
 40
0.6
176
     1
 40
30.0
176
     1
 62
     7
420
 16777215
176
     1
 90
        0
176
     1
 90
        0
176
     1
 62
     7
176
     1
 62
   257
176
     1
 90
        1
176
     1
 90
        1
176
     1
 40
1.0
176
     1
 90
        0
176
     1
 62
     7
176
     1
 40
1.0
176
     1
 90
        1
176
     1
 90
        6
176
     1
 90
        2
176
     1
 62
     7
176
     1
 90
        5
176
     1
 90
        0
176
     1
 90
        0
176
     1
290
     0
176
     1
 90
       13
176
     1
 40
0.0
176
     1
 90
        0
176
     1
290
     0
176
     1
290
     1
176
     1
290
     1
176
     1
290
     0
176
     1
290
     0
176
     1
290
     0
176
     1
290
     0
176
     1
290
     0
176
     1
290
     0
176
     1
 90
       50
176
     1
 40
0.0
176
     1
 40
1.0
176
     1
 90
        0
176
     1
 62
    18
176
     1
 90
       50
176
     1
 90
        3
176
     1
 62
     5
420
      255
176
     1
290
     0
176
     1
 90
       50
176
     1
 90
       50
176
     1
 90
       50
176
     1
290
     0
176
     1
 90
       50
176
     1
 62
   256
176
     0
 40
1.0
176
     0
 90
        2
176
     1
  1
strokes_ogs.tif
176
     1
290
     0
176
     1
 40
1.0
176
     1
 40
1.0
176
     1
1001
ACAD
1000
AcDbSavedByObjectVersion
1070
     0
  0
VISUALSTYLE
  5
9D
102
{ACAD_REACTORS
330
99
102
}
330
99
100
AcDbVisualStyle
  2
GouraudWithEdges
 70
     3
177
     3
291
     1
 70
    58
 90
        2
176
     1
 90
        2
176
     1
 90
        1
176
     1
 90
        2
176
     1
 40
0.6
176
     1
 40
30.0
176
     1
 62
     7
420
 16777215
176
     1
 90
        1
176
     1
 90
        0
176
     1
 62
     7
176
     1
 62
   257
176
     1
 90
        1
176
     1
 90
        1
176
     1
 40
1.0
176
     1
 90
        0
176
     1
 62
   257
176
     1
 40
1.0
176
     1
 90
        1
176
     1
 90
        6
176
     1
 90
        2
176
     1
 62
     7
176
     1
 90
        5
176
     1
 90
        0
176
     1
 90
        0
176
     1
290
     0
176
     1
 90
       13
176
     1
 40
0.0
176
     1
 90
        0
176
     1
290
     0
176
     1
290
     1
176
     1
290
     1
176
     1
290
     0
176
     1
290
     0
176
     1
290
     0
176
     1
290
     0
176
     1
290
     0
176
     1
290
     0
176
     1
 90
       50
176
     1
 40
0.0
176
     1
 40
1.0
176
     1
 90
        0
176
     1
 62
    18
176
     1
 90
       50
176
     1
 90
        3
176
     1
 62
     5
420
      255
176
     1
290
     0
176
     1
 90
       50
176
     1
 90
       50
176
     1
 90
       50
176
     1
290
     0
176
     1
 90
       50
176
     1
 62
   256
176
     0
 40
1.0
176
     0
 90
        2
176
     1
  1
strokes_ogs.tif
176
     1
290
     0
176
     1
 40
1.0
176
     1
 40
1.0
176
     1
1001
ACAD
1000
AcDbSavedByObjectVersion
1070
     0
  0
VISUALSTYLE
  5
A1
102
{ACAD_REACTORS
330
99
102
}
330
99
100
AcDbVisualStyle
  2
Hidden
 70
     6
177
     3
291
     0
 70
    58
 90
        1
176
     1
 90
        2
176
     1
 90
        2
176
     1
 90
        0
176
     1
 40
0.6
176
     1
 40
30.0
176
     1
 62
     7
420
 16777215
176
     1
 90
        2
176
     1
 90
        2
176
     1
 62
     7
176
     1
 62
   257
176
     1
 90
        2
176
     1
 90
        1
176
     1
 40
40.0
176
     1
 90
        0
176
     1
 62
   257
176
     1
 40
1.0
176
     1
 90
        1
176
     1
 90
        6
176
     1
 90
        2
176
     1
 62
     7
176
     1
 90
        3
176
     1
 90
        0
176
     1
 90
        0
176
     1
290
     0
176
     1
 90
        1
176
     1
 40
0.0
176
     1
 90
        0
176
     1
290
     0
176
     1
290
     1
176
     1
290
     1
176
     1
290
     0
176
     1
290
     0
176
     1
290
     0
176
     1
290
     0
176
     1
290
     0
176
     1
290
     0
176
     1
 90
       50
176
     1
 40
0.0
176
     1
 40
1.0
176
     1
 90
        0
176
     1
 62
    18
176
     1
 90
       50
176
     1
 90
        3
176
     1
 62
     5
420
      255
176
     1
290
     0
176
     1
 90
       50
176
     1
 90
       50
176
     1
 90
       50
176
     1
290
     0
176
     1
 90
       50
176
     1
 62
   256
176
     0
 40
1.0
176
     0
 90
        2
176
     1
  1
strokes_ogs.tif
176
     1
290
     0
176
     1
 40
1.0
176
     1
 40
1.0
176
     1
1001
ACAD
1000
AcDbSavedByObjectVersion
1070
     0
  0
VISUALSTYLE
  5
173
102
{ACAD_REACTORS
330
99
102
}
330
99
100
AcDbVisualStyle
  2
JitterOff
 70
    20
177
     3
291
     1
 70
    58
 90
        2
176
     0
 90
        2
176
     0
 90
        0
176
     0
 90
        0
176
     0
 40
0.6
176
     0
 40
30.0
176
     0
 62
     7
420
 16777215
176
     0
 90
        1
176
     0
 90
        4
176
     0
 62
     7
176
     0
 62
   257
176
     0
 90
        1
176
     0
 90
        1
176
     0
 40
1.0
176
     0
 90
       10
176
     2
 62
     7
176
     0
 40
1.0
176
     0
 90
        1
176
     0
 90
        6
176
     0
 90
        2
176
     0
 62
     7
176
     0
 90
        5
176
     0
 90
        0
176
     0
 90
        0
176
     0
290
     0
176
     0
 90
        1
176
     0
 40
0.0
176
     0
 90
        0
176
     0
290
     0
176
     1
290
     1
176
     1
290
     1
176
     1
290
     0
176
     1
290
     0
176
     1
290
     0
176
     1
290
     0
176
     1
290
     0
176
     1
290
     0
176
     1
 90
       50
176
     1
 40
0.0
176
     1
 40
1.0
176
     1
 90
        0
176
     1
 62
    18
176
     1
 90
       50
176
     1
 90
        3
176
     1
 62
     5
420
      255
176
     1
290
     0
176
     1
 90
       50
176
     1
 90
       50
176
     1
 90
       50
176
     1
290
     0
176
     1
 90
       50
176
     1
 62
   256
176
     0
 40
1.0
176
     0
 90
        2
176
     1
  1
strokes_ogs.tif
176
     1
290
     0
176
     1
 40
1.0
176
     1
 40
1.0
176
     1
1001
ACAD
1000
AcDbSavedByObjectVersion
1070
     0
  0
VISUALSTYLE
  5
A7
102
{ACAD_REACTORS
330
99
102
}
330
99
100
AcDbVisualStyle
  2
Linepattern
 70
    14
177
     3
291
     1
 70
    58
 90
        2
176
     1
 90
        2
176
     1
 90
        1
176
     1
 90
        0
176
     1
 40
0.6
176
     1
 40
30.0
176
     1
 62
     7
420
 16777215
176
     1
 90
        1
176
     1
 90
        4
176
     1
 62
     7
176
     1
 62
   257
176
     1
 90
        7
176
     1
 90
        7
176
     1
 40
1.0
176
     1
 90
        8
176
     1
 62
     7
176
     1
 40
1.0
176
     1
 90
        1
176
     1
 90
        6
176
     1
 90
        2
176
     1
 62
     7
176
     1
 90
        5
176
     1
 90
        0
176
     1
 90
        0
176
     1
290
     0
176
     1
 90
        1
176
     1
 40
0.0
176
     1
 90
        0
176
     1
290
     0
176
     1
290
     1
176
     1
290
     1
176
     1
290
     0
176
     1
290
     0
176
     1
290
     0
176
     1
290
     0
176
     1
290
     0
176
     1
290
     0
176
     1
 90
       50
176
     1
 40
0.0
176
     1
 40
1.0
176
     1
 90
        0
176
     1
 62
    18
176
     1
 90
       50
176
     1
 90
        3
176
     1
 62
     5
420
      255
176
     1
290
     0
176
     1
 90
       50
176
     1
 90
       50
176
     1
 90
       50
176
     1
290
     0
176
     1
 90
       50
176
     1
 62
   256
176
     0
 40
1.0
176
     0
 90
        2
176
     1
  1
strokes_ogs.tif
176
     1
290
     0
176
     1
 40
1.0
176
     1
 40
1.0
176
     1
1001
ACAD
1000
AcDbSavedByObjectVersion
1070
     0
  0
VISUALSTYLE
  5
174
102
{ACAD_REACTORS
330
99
102
}
330
99
100
AcDbVisualStyle
  2
OverhangOff
 70
    21
177
     3
291
     1
 70
    58
 90
        2
176
     0
 90
        2
176
     0
 90
        0
176
     0
 90
        0
176
     0
 40
0.6
176
     0
 40
30.0
176
     0
 62
     7
420
 16777215
176
     0
 90
        1
176
     0
 90
        4
176
     0
 62
     7
176
     0
 62
   257
176
     0
 90
        1
176
     0
 90
        1
176
     0
 40
1.0
176
     0
 90
        9
176
     2
 62
     7
176
     0
 40
1.0
176
     0
 90
        1
176
     0
 90
        6
176
     0
 90
        2
176
     0
 62
     7
176
     0
 90
        5
176
     0
 90
        0
176
     0
 90
        0
176
     0
290
     0
176
     0
 90
        1
176
     0
 40
0.0
176
     0
 90
        0
176
     0
290
     0
176
     1
290
     1
176
     1
290
     1
176
     1
290
     0
176
     1
290
     0
176
     1
290
     0
176
     1
290
     0
176
     1
290
     0
176
     1
290
     0
176
     1
 90
       50
176
     1
 40
0.0
176
     1
 40
1.0
176
     1
 90
        0
176
     1
 62
    18
176
     1
 90
       50
176
     1
 90
        3
176
     1
 62
     5
420
      255
176
     1
290
     0
176
     1
 90
       50
176
     1
 90
       50
176
     1
 90
       50
176
     1
290
     0
176
     1
 90
       50
176
     1
 62
   256
176
     0
 40
1.0
176
     0
 90
        2
176
     1
  1
strokes_ogs.tif
176
     1
290
     0
176
     1
 40
1.0
176
     1
 40
1.0
176
     1
1001
ACAD
1000
AcDbSavedByObjectVersion
1070
     0
  0
VISUALSTYLE
  5
A3
102
{ACAD_REACTORS
330
99
102
}
330
99
100
AcDbVisualStyle
  2
Realistic
 70
     8
177
     3
291
     0
 70
    58
 90
        2
176
     1
 90
        3
176
     1
 90
        0
176
     1
 90
        2
176
     1
 40
0.6
176
     1
 40
30.0
176
     1
 62
     7
420
 16777215
176
     1
 90
        0
176
     1
 90
        0
176
     1
 62
     7
176
     1
 62
   257
176
     1
 90
        1
176
     1
 90
        1
176
     1
 40
1.0
176
     1
 90
        8
176
     1
 62
   257
176
     1
 40
1.0
176
     1
 90
        1
176
     1
 90
        6
176
     1
 90
        2
176
     1
 62
     7
176
     1
 90
        3
176
     1
 90
        0
176
     1
 90
        0
176
     1
290
     0
176
     1
 90
       13
176
     1
 40
0.0
176
     1
 90
        0
176
     1
290
     0
176
     1
290
     1
176
     1
290
     1
176
     1
290
     0
176
     1
290
     0
176
     1
290
     0
176
     1
290
     0
176
     1
290
     0
176
     1
290
     0
176
     1
 90
       50
176
     1
 40
0.0
176
     1
 40
1.0
176
     1
 90
        0
176
     1
 62
    18
176
     1
 90
       50
176
     1
 90
        3
176
     1
 62
     5
420
      255
176
     1
290
     0
176
     1
 90
       50
176
     1
 90
       50
176
     1
 90
       50
176
     1
290
     0
176
     1
 90
       50
176
     1
 62
   256
176
     0
 40
1.0
176
     0
 90
        2
176
     1
  1
strokes_ogs.tif
176
     1
290
     0
176
     1
 40
1.0
176
     1
 40
1.0
176
     1
1001
ACAD
1000
AcDbSavedByObjectVersion
1070
     0
  0
VISUALSTYLE
  5
182
102
{ACAD_REACTORS
330
99
102
}
330
99
100
AcDbVisualStyle
  2
Shaded
 70
    27
177
     3
291
     0
 70
    58
 90
        2
176
     1
 90
        2
176
     1
 90
        1
176
     1
 90
        2
176
     1
 40
0.6
176
     1
 40
30.0
176
     1
 62
     7
420
 16777215
176
     1
 90
        0
176
     1
 90
        4
176
     1
 62
     7
176
     1
 62
   257
176
     1
 90
        1
176
     1
 90
        1
176
     1
 40
1.0
176
     1
 90
        8
176
     1
 62
   257
176
     1
 40
1.0
176
     1
 90
        1
176
     1
 90
        6
176
     1
 90
        2
176
     1
 62
     8
420
  7895160
176
     1
 90
        3
176
     1
 90
        0
176
     1
 90
        0
176
     1
290
     0
176
     1
 90
        5
176
     1
 40
0.0
176
     1
 90
        0
176
     1
290
     0
176
     1
290
     1
176
     1
290
     1
176
     1
290
     0
176
     1
290
     0
176
     1
290
     0
176
     1
290
     0
176
     1
290
     0
176
     1
290
     0
176
     1
 90
       50
176
     1
 40
0.0
176
     1
 40
1.0
176
     1
 90
        0
176
     1
 62
    18
176
     1
 90
       50
176
     1
 90
        3
176
     1
 62
     5
420
      255
176
     1
290
     0
176
     1
 90
       50
176
     1
 90
       50
176
     1
 90
       50
176
     1
290
     0
176
     1
 90
       50
176
     1
 62
   256
176
     0
 40
1.0
176
     0
 90
        2
176
     1
  1
strokes_ogs.tif
176
     1
290
     0
176
     1
 40
1.0
176
     1
 40
1.0
176
     1
1001
ACAD
1000
AcDbSavedByObjectVersion
1070
     0
  0
VISUALSTYLE
  5
181
102
{ACAD_REACTORS
330
99
102
}
330
99
100
AcDbVisualStyle
  2
Shaded with edges
 70
    26
177
     3
291
     0
 70
    58
 90
        2
176
     1
 90
        2
176
     1
 90
        1
176
     1
 90
        2
176
     1
 40
0.6
176
     1
 40
30.0
176
     1
 62
     7
420
 16777215
176
     1
 90
        1
176
     1
 90
        2
176
     1
 62
     7
176
     1
 62
   257
176
     1
 90
        2
176
     1
 90
        1
176
     1
 40
1.0
176
     1
 90
        8
176
     1
 62
   257
176
     1
 40
1.0
176
     1
 90
        1
176
     1
 90
        6
176
     1
 90
        2
176
     1
 62
     7
176
     1
 90
        3
176
     1
 90
        0
176
     1
 90
        0
176
     1
290
     0
176
     1
 90
        5
176
     1
 40
0.0
176
     1
 90
        0
176
     1
290
     0
176
     1
290
     1
176
     1
290
     1
176
     1
290
     0
176
     1
290
     0
176
     1
290
     0
176
     1
290
     0
176
     1
290
     0
176
     1
290
     0
176
     1
 90
       50
176
     1
 40
0.0
176
     1
 40
1.0
176
     1
 90
        0
176
     1
 62
    18
176
     1
 90
       50
176
     1
 90
        3
176
     1
 62
     5
420
      255
176
     1
290
     0
176
     1
 90
       50
176
     1
 90
       50
176
     1
 90
       50
176
     1
290
     0
176
     1
 90
       50
176
     1
 62
   256
176
     0
 40
1.0
176
     0
 90
        2
176
     1
  1
strokes_ogs.tif
176
     1
290
     0
176
     1
 40
1.0
176
     1
 40
1.0
176
     1
1001
ACAD
1000
AcDbSavedByObjectVersion
1070
     0
  0
VISUALSTYLE
  5
17E
102
{ACAD_REACTORS
330
99
102
}
330
99
100
AcDbVisualStyle
  2
Shades of Gray
 70
    23
177
     3
291
     0
 70
    58
 90
        2
176
     1
 90
        2
176
     1
 90
        3
176
     1
 90
        0
176
     1
 40
0.6
176
     1
 40
30.0
176
     1
 62
     7
420
 16777215
176
     1
 90
        2
176
     1
 90
        2
176
     1
 62
     7
176
     1
 62
     7
176
     1
 90
        1
176
     1
 90
        1
176
     1
 40
40.0
176
     1
 90
        8
176
     1
 62
     7
176
     1
 40
1.0
176
     1
 90
        1
176
     1
 90
        6
176
     1
 90
        2
176
     1
 62
     7
176
     1
 90
        3
176
     1
 90
        0
176
     1
 90
        0
176
     1
290
     0
176
     1
 90
        1
176
     1
 40
0.0
176
     1
 90
        0
176
     1
290
     0
176
     1
290
     1
176
     1
290
     1
176
     1
290
     0
176
     1
290
     0
176
     1
290
     0
176
     1
290
     0
176
     1
290
     0
176
     1
290
     0
176
     1
 90
       50
176
     1
 40
0.0
176
     1
 40
1.0
176
     1
 90
        0
176
     1
 62
    18
176
     1
 90
       50
176
     1
 90
        3
176
     1
 62
     5
420
      255
176
     1
290
     0
176
     1
 90
       50
176
     1
 90
       50
176
     1
 90
       50
176
     1
290
     0
176
     1
 90
       50
176
     1
 62
   256
176
     0
 40
1.0
176
     0
 90
        2
176
     1
  1
strokes_ogs.tif
176
     1
290
     0
176
     1
 40
1.0
176
     1
 40
1.0
176
     1
1001
ACAD
1000
AcDbSavedByObjectVersion
1070
     0
  0
VISUALSTYLE
  5
17F
102
{ACAD_REACTORS
330
99
102
}
330
99
100
AcDbVisualStyle
  2
Sketchy
 70
    24
177
     3
291
     0
 70
    58
 90
        1
176
     1
 90
        2
176
     1
 90
        2
176
     1
 90
        0
176
     1
 40
0.6
176
     1
 40
30.0
176
     1
 62
     7
420
 16777215
176
     1
 90
        2
176
     1
 90
        2
176
     1
 62
     7
176
     1
 62
     7
176
     1
 90
        1
176
     1
 90
        1
176
     1
 40
40.0
176
     1
 90
       11
176
     1
 62
     7
176
     1
 40
1.0
176
     1
 90
        1
176
     1
 90
        6
176
     1
 90
        2
176
     1
 62
     7
176
     1
 90
        6
176
     1
 90
        0
176
     1
 90
        0
176
     1
290
     0
176
     1
 90
        1
176
     1
 40
0.0
176
     1
 90
        0
176
     1
290
     0
176
     1
290
     1
176
     1
290
     1
176
     1
290
     0
176
     1
290
     0
176
     1
290
     0
176
     1
290
     0
176
     1
290
     0
176
     1
290
     0
176
     1
 90
       50
176
     1
 40
0.0
176
     1
 40
1.0
176
     1
 90
        0
176
     1
 62
    18
176
     1
 90
       50
176
     1
 90
        3
176
     1
 62
     5
420
      255
176
     1
290
     0
176
     1
 90
       50
176
     1
 90
       50
176
     1
 90
       50
176
     1
290
     0
176
     1
 90
       50
176
     1
 62
   256
176
     0
 40
1.0
176
     0
 90
        2
176
     1
  1
strokes_ogs.tif
176
     1
290
     0
176
     1
 40
1.0
176
     1
 40
1.0
176
     1
1001
ACAD
1000
AcDbSavedByObjectVersion
1070
     0
  0
VISUALSTYLE
  5
A6
102
{ACAD_REACTORS
330
99
102
}
330
99
100
AcDbVisualStyle
  2
Thicken
 70
    13
177
     3
291
     1
 70
    58
 90
        2
176
     1
 90
        2
176
     1
 90
        1
176
     1
 90
        0
176
     1
 40
0.6
176
     1
 40
30.0
176
     1
 62
     7
420
 16777215
176
     1
 90
        1
176
     1
 90
        4
176
     1
 62
     7
176
     1
 62
   257
176
     1
 90
        1
176
     1
 90
        1
176
     1
 40
1.0
176
     1
 90
       12
176
     1
 62
     7
176
     1
 40
1.0
176
     1
 90
        1
176
     1
 90
        6
176
     1
 90
        2
176
     1
 62
     7
176
     1
 90
        5
176
     1
 90
        0
176
     1
 90
        0
176
     1
290
     0
176
     1
 90
        1
176
     1
 40
0.0
176
     1
 90
        0
176
     1
290
     0
176
     1
290
     1
176
     1
290
     1
176
     1
290
     0
176
     1
290
     0
176
     1
290
     0
176
     1
290
     0
176
     1
290
     0
176
     1
290
     0
176
     1
 90
       50
176
     1
 40
0.0
176
     1
 40
1.0
176
     1
 90
        0
176
     1
 62
    18
176
     1
 90
       50
176
     1
 90
        3
176
     1
 62
     5
420
      255
176
     1
290
     0
176
     1
 90
       50
176
     1
 90
       50
176
     1
 90
       50
176
     1
290
     0
176
     1
 90
       50
176
     1
 62
   256
176
     0
 40
1.0
176
     0
 90
        2
176
     1
  1
strokes_ogs.tif
176
     1
290
     0
176
     1
 40
1.0
176
     1
 40
1.0
176
     1
1001
ACAD
1000
AcDbSavedByObjectVersion
1070
     0
  0
VISUALSTYLE
  5
A0
102
{ACAD_REACTORS
330
99
102
}
330
99
100
AcDbVisualStyle
  2
Wireframe
 70
     5
177
     3
291
     0
 70
    58
 90
        0
176
     1
 90
        2
176
     1
 90
        0
176
     1
 90
        0
176
     1
 40
0.6
176
     1
 40
30.0
176
     1
 62
     7
420
 16777215
176
     1
 90
        1
176
     1
 90
        4
176
     1
 62
     7
176
     1
 62
   257
176
     1
 90
        1
176
     1
 90
        1
176
     1
 40
1.0
176
     1
 90
        0
176
     1
 62
   257
176
     1
 40
1.0
176
     1
 90
        1
176
     1
 90
        6
176
     1
 90
        2
176
     1
 62
     7
176
     1
 90
        3
176
     1
 90
        0
176
     1
 90
        0
176
     1
290
     0
176
     1
 90
        1
176
     1
 40
0.0
176
     1
 90
        0
176
     1
290
     0
176
     1
290
     1
176
     1
290
     1
176
     1
290
     0
176
     1
290
     0
176
     1
290
     0
176
     1
290
     0
176
     1
290
     0
176
     1
290
     0
176
     1
 90
       50
176
     1
 40
0.0
176
     1
 40
1.0
176
     1
 90
        0
176
     1
 62
    18
176
     1
 90
       50
176
     1
 90
        3
176
     1
 62
     5
420
      255
176
     1
290
     0
176
     1
 90
       50
176
     1
 90
       50
176
     1
 90
       50
176
     1
290
     0
176
     1
 90
       50
176
     1
 62
   256
176
     0
 40
1.0
176
     0
 90
        2
176
     1
  1
strokes_ogs.tif
176
     1
290
     0
176
     1
 40
1.0
176
     1
 40
1.0
176
     1
1001
ACAD
1000
AcDbSavedByObjectVersion
1070
     0
  0
VISUALSTYLE
  5
180
102
{ACAD_REACTORS
330
99
102
}
330
99
100
AcDbVisualStyle
  2
X-Ray
 70
    25
177
     3
291
     0
 70
    58
 90
        2
176
     1
 90
        2
176
     1
 90
        1
176
     1
 90
        1
176
     1
 40
0.5
176
     1
 40
30.0
176
     1
 62
     7
420
 16777215
176
     1
 90
        1
176
     1
 90
        0
176
     1
 62
     7
176
     1
 62
   257
176
     1
 90
        1
176
     1
 90
        1
176
     1
 40
1.0
176
     1
 90
        8
176
     1
 62
     7
176
     1
 40
1.0
176
     1
 90
        1
176
     1
 90
        6
176
     1
 90
        2
176
     1
 62
     7
176
     1
 90
        3
176
     1
 90
        0
176
     1
 90
        0
176
     1
290
     0
176
     1
 90
       13
176
     1
 40
0.0
176
     1
 90
        0
176
     1
290
     0
176
     1
290
     1
176
     1
290
     1
176
     1
290
     0
176
     1
290
     0
176
     1
290
     0
176
     1
290
     0
176
     1
290
     0
176
     1
290
     0
176
     1
 90
       50
176
     1
 40
0.0
176
     1
 40
1.0
176
     1
 90
        0
176
     1
 62
    18
176
     1
 90
       50
176
     1
 90
        3
176
     1
 62
     5
420
      255
176
     1
290
     0
176
     1
 90
       50
176
     1
 90
       50
176
     1
 90
       50
176
     1
290
     0
176
     1
 90
       50
176
     1
 62
   256
176
     0
 40
1.0
176
     0
 90
        2
176
     1
  1
strokes_ogs.tif
176
     1
290
     0
176
     1
 40
1.0
176
     1
 40
1.0
176
     1
1001
ACAD
1000
AcDbSavedByObjectVersion
1070
     0
  0
DICTIONARYVAR
  5
F0
102
{ACAD_REACTORS
330
66
102
}
330
66
100
DictionaryVariables
280
     0
  1
1:1
  0
DICTIONARYVAR
  5
EF
102
{ACAD_REACTORS
330
66
102
}
330
66
100
DictionaryVariables
280
     0
  1
STANDARD
  0
DICTIONARYVAR
  5
89
102
{ACAD_REACTORS
330
66
102
}
330
66
100
DictionaryVariables
280
     0
  1
STANDARD
  0
DICTIONARYVAR
  5
1B7
102
{ACAD_REACTORS
330
66
102
}
330
66
100
DictionaryVariables
280
     0
  1
Imperial24
  0
DICTIONARYVAR
  5
1B8
102
{ACAD_REACTORS
330
66
102
}
330
66
100
DictionaryVariables
280
     0
  1
Imperial24
  0
DICTIONARYVAR
  5
67
102
{ACAD_REACTORS
330
66
102
}
330
66
100
DictionaryVariables
280
     0
  1
2
  0
DICTIONARYVAR
  5
6B
102
{ACAD_REACTORS
330
66
102
}
330
66
100
DictionaryVariables
280
     0
  1
1
  0
DICTIONARYVAR
  5
14D
102
{ACAD_REACTORS
330
66
102
}
330
66
100
DictionaryVariables
280
     0
  1
0
  0
DICTIONARYVAR
  5
14E
102
{ACAD_REACTORS
330
66
102
}
330
66
100
DictionaryVariables
280
     0
  1
0
  0
DICTIONARY
  5
CA8
102
{ACAD_REACTORS
330
CA6
102
}
330
CA6
100
AcDbDictionary
281
     1
  0
DICTIONARY
  5
CA7
102
{ACAD_REACTORS
330
CA6
102
}
330
CA6
100
AcDbDictionary
281
     1
  3
2426644716432
350
CA1
  3
2426644716448
350
CA2
  3
2426644716464
350
CA3
  3
2426644716480
350
CA4
  3
2426644716496
350
CA5
  0
XRECORD
  5
C96
102
{ACAD_REACTORS
330
21B
102
}
330
21B
100
AcDbXrecord
280
     1
1000
ADE02C001
1070
     1
1070
     0
1002
{
1002
}
1002
{
1002
}
1002
{
1002
}
1000

  0
XRECORD
  5
32A
102
{ACAD_REACTORS
330
329
102
}
330
329
100
AcDbXrecord
280
     1
  0
DMSTYLIZEDENTITIESTABLE
  5
215
102
{ACAD_REACTORS
330
204
102
}
330
204
100
AcMapDMStylizedEntitiesTable
 70
     1
  0
MAPRESOURCEMANAGEROBJECT
  5
209
102
{ACAD_REACTORS
330
204
102
}
330
204
100
AcMapResourceManager
 70
     1
 90
        0
  0
DATATABLE
  5
208
102
{ACAD_REACTORS
330
204
102
}
330
204
100
AcDbDataTable
 70
     2
 90
        4
 91
       15
  1

 92
        3
  2
OriginalClassName
  3
AcMapDMDefaultStyle
  3
AcMapDMEntityStyle
  3
AcMapDMRasterStyle
  3
AcMapDMSEAnnotationStyle
  3
AcMapDMSEHatchStyle
  3
AcMapDMSETextStyle
  3
AcMapDMThematicStyle
  3
AcMapDMBaseElement
  3
AcMapDMAttachedDwgsQueryElement
  3
AcMapDMFeatureElement
  3
AcMapDMLayerElement
  3
AcMapDMCurrentDwgQueryElement
  3
AcMapDMRasterElement
  3
AcMapDMTopoElement
  3
AcMapDMTopoQueryElement
 92
        3
  2
ProxyDisplayName
  3
Default
  3
Entity
  3
Raster
  3
Annotation
  3
Hatch
  3
Text
  3
Thematic
  3
Map Base
  3
Ade Query
  3
Feature Class
  3
Layer
  3
Ade Project Query
  3
Raster
  3
Topology
  3
Topology Query
 92
        1
  2
CustomObjectType
 93
        2
 93
        2
 93
        2
 93
        2
 93
        2
 93
        2
 93
        2
 93
        1
 93
        1
 93
        1
 93
        1
 93
        1
 93
        1
 93
        1
 93
        1
 92
        1
  2
StyleCoExistanceType
 93
        1
 93
        1
 93
        1
 93
        1
 93
        1
 93
        1
 93
        2
 93
        0
 93
        0
 93
        0
 93
        0
 93
        0
 93
        0
 93
        0
 93
        0
  0
DMMAPMANAGER
  5
205
102
{ACAD_REACTORS
330
204
102
}
330
204
100
AcDbDictionary
281
     1
  3
DisplayMap1
350
20B
100
AcDbDictionaryWithDefault
340
20B
100
AcMapDMMapManager
 70
     1
340
20B
  0
DMSTYLELIBRARY
  5
206
102
{ACAD_REACTORS
330
204
102
}
330
204
100
AcMapDMStyleLibrary
 70
     1
 70
     1
360
207
  0
DICTIONARY
  5
216
102
{ACAD_REACTORS
330
204
102
}
330
204
100
AcDbDictionary
281
     1
  0
IRD_DSC_RECORD
  5
349
102
{ACAD_REACTORS
330
348
102
}
330
348
100
CIrdBaseRecord
1070
   516
1071
        0
1004
0115000043006C0061007300730000004900720064000000000049007200640000005400680065002000620061007300650020007300750070006500720063006C006100730073000000490072006400200043006C0061007300730020005600200031002E0030003200000000000000
100
CIrdDscRecord
1071
     5377
1000
Class-_-Ird
1071
        0
  0
IRD_DSC_RECORD
  5
34A
102
{ACAD_REACTORS
330
348
102
}
330
348
100
CIrdBaseRecord
1070
   516
1071
        0
1004
0116000043006C0061007300730043006800610072000000490072006400000043006C006100730073000000490072006400000054006800650020006300680061007200610063007400650072002000760061006C00750065000000490072006400200043006C0061007300730020005600200031002E0030003200000000
1004
000000
100
CIrdDscRecord
1071
     5633
1000
ClassChar-_-Ird
1071
        0
  0
IRD_DSC_RECORD
  5
34B
102
{ACAD_REACTORS
330
348
102
}
330
348
100
CIrdBaseRecord
1070
   516
1071
        0
1004
013000005300740072006100DF0065006E00620061007500700072006F006A0065006B00740065005F004C0069006E00690065006E000000610064006500000043006C006100730073000000490072006400000000000000010000800000540059005000000043006C00610073007300430068006100720000004900720064
1004
0000000000000000000000
100
CIrdDscRecord
1071
    12289
1000
Straßenbauprojekte_Linien-_-ade
1071
        0
  0
DICTIONARY
  5
CAB
330
1AC
100
AcDbDictionary
280
     1
281
     1
  3
ACAD_XREC_ROUNDTRIP
360
CAC
  0
DICTIONARY
  5
CAF
330
239
100
AcDbDictionary
280
     1
281
     1
  3
ACAD_XREC_ROUNDTRIP
360
CB0
  0
DICTIONARY
  5
194
330
22
100
AcDbDictionary
280
     1
281
     1
  0
DICTIONARY
  5
188
330
97
100
AcDbDictionary
280
     1
281
     1
  3
FBXASSET
360
189
  0
DICTIONARY
  5
186
330
96
100
AcDbDictionary
280
     1
281
     1
  3
FBXASSET
360
187
  0
DICTIONARY
  5
110
330
98
100
AcDbDictionary
280
     1
281
     1
  3
BUMPTILE
360
112
  3
DIFFUSETILE
360
111
  3
FBXASSET
360
18A
  3
OPACITYTILE
360
113
  3
REFLECTIONTILE
360
114
  0
DICTIONARY
  5
CA9
330
1AA
100
AcDbDictionary
280
     1
281
     1
  3
ACAD_XREC_ROUNDTRIP
360
CAA
  0
DICTIONARY
  5
CAD
330
238
100
AcDbDictionary
280
     1
281
     1
  3
ACAD_XREC_ROUNDTRIP
360
CAE
  0
DICTIONARY
  5
886
330
20D
100
AcDbDictionary
280
     1
281
     1
  3
ACAD_ROUNDTRIP_2008_TABLESTYLE_CELLSTYLEMAP
360
C9F
  0
DICTIONARY
  5
104
330
87
100
AcDbDictionary
280
     1
281
     1
  3
ACAD_ROUNDTRIP_2008_TABLESTYLE_CELLSTYLEMAP
360
C9E
  0
XRECORD
  5
CA1
102
{ACAD_REACTORS
330
CA7
102
}
330
CA7
100
AcDbXrecord
280
     1
  1
AcDb_Thumbnail_Schema
102
{ATTRRECORD
341
CA2
  2
AcDbDs::TreatedAsObjectData
280
     1
291
     1
102
ATTRRECORD}
102
{ATTRRECORD
341
CA3
  2
AcDbDs::Legacy
280
     1
291
     1
102
ATTRRECORD}
  2
AcDbDs::ID
280
    10
 91
        8
102
{ATTRRECORD
341
CA4
  2
AcDs:Indexable
280
     1
291
     1
102
ATTRRECORD}
102
{ATTRRECORD
341
CA5
  2
AcDbDs::HandleAttribute
280
     7
282
     1
102
ATTRRECORD}
  2
Thumbnail_Data
280
    15
 91
        0
  0
XRECORD
  5
CA2
102
{ACAD_REACTORS
330
CA7
102
}
330
CA7
100
AcDbXrecord
280
     1
  1
AcDbDs::TreatedAsObjectDataSchema
  2
AcDbDs::TreatedAsObjectData
280
     1
 91
        0
  0
XRECORD
  5
CA3
102
{ACAD_REACTORS
330
CA7
102
}
330
CA7
100
AcDbXrecord
280
     1
  1
AcDbDs::LegacySchema
  2
AcDbDs::Legacy
280
     1
 91
        0
  0
XRECORD
  5
CA4
102
{ACAD_REACTORS
330
CA7
102
}
330
CA7
100
AcDbXrecord
280
     1
  1
AcDbDs::IndexedPropertySchema
  2
AcDs:Indexable
280
     1
 91
        0
  0
XRECORD
  5
CA5
102
{ACAD_REACTORS
330
CA7
102
}
330
CA7
100
AcDbXrecord
280
     1
  1
AcDbDs::HandleAttributeSchema
  2
AcDbDs::HandleAttribute
280
     7
 91
        1
284
     1
  0
DMMAP
  5
20B
102
{ACAD_REACTORS
330
205
330
20E
102
}
330
205
100
AcMapDMMap
 70
     1
  1
Vorgabe
 70
     1
330
0
100
AcMapDMMap
 70
     1
 90
        1
360
20E
 90
        1
 40
1.797693134862314E+99
 70
     1
100
AcMapDMMap
 70
     6
 70
     0
 40
1.797693134862314E+99
290
     1
290
     1
 40
1.0
 40
3.0
  1
Legend
 90
        1
 40
1.797693134862314E+99
  1

 70
     0
 40
1.0
 70
     1
 90
        0
 90
        1
360
20F
 40
3396.525120482841
290
     0
290
     1
 40
1.0
 90
       40
290
     0
290
     1
 40
-7587.135915783321
 40
331595.3145036858
 40
33834.08934392373
 40
355441.7512870757
  1

290
     1
 40
123.5167496935449
 40
51.4866775483815
  0
DMSTYLECATEGORY
  5
207
102
{ACAD_REACTORS
330
206
102
}
330
206
100
AcMapDMStyleCategory
 70
     1
  1
Anzeigestile
 70
     0
  0
XRECORD
  5
CAC
102
{ACAD_REACTORS
330
CAB
102
}
330
CAB
100
AcDbXrecord
280
     1
102
DISPLAYNAME
  1
Imperial24
102
FLAGS
 90
        0
  0
XRECORD
  5
CB0
102
{ACAD_REACTORS
330
CAF
102
}
330
CAF
100
AcDbXrecord
280
     1
102
DISPLAYNAME
  1
Metric50
102
FLAGS
 90
        0
  0
XRECORD
  5
189
102
{ACAD_REACTORS
330
188
102
}
330
188
100
AcDbXrecord
280
     1
 70
     1
 90
429727718
  1
508B35C9-AEE7-456F-BE74-D52651303AC6
310
504B03040A0000080000B670623B3DEE336E79000000790000001B0000006175746F6465736B2D64657369676E2D7061636B6167652E786D6C3C3F786D6C2076657273696F6E3D22312E302220656E636F64696E673D227574662D3822203F3E3C666F726D6174733E3C666F726D61743E687474703A2F2F736368656D612E
310
6175746F6465736B2E636F6D2F64657369676E2D7061636B6167652F323030393C2F666F726D61743E3C2F666F726D6174733E504B0304140006080800B670623BD486FD9CA0000000F4000000130000005B436F6E74656E745F54797065735D2E786D6C7D8EC10E82300C865F65E91D8A1E8C310C0EEA1BF002731658846E
310
D98AC1B77784ABF1D8FE5FBFBF75BBCE937A534CCEB38643598122B6FEE978D0B0485F9C41B54DDD7D022595594E1A469170414C76A4D9A4D207E29CF43ECE46F218070CC6BECC4078ACAA135ACF422C856C0E68EA1BF5669944DDD7BCDE7B1F8E415D77AECB980613C2E4AC91FC167A2B244592486606FC29C8FD7F045B9A
310
EF7053A7E60B504B0304140006080800B670623B28ED286BEB0000007C01000008000000636F72652E786D6C8D90416EC3201045AF82665B6183218D6D61A254764FD00B204C5C94182C03558F5F9C3852BBEB6A467FFE9B197D71FA9E6FE8CBACC17AD7012D0820E3B41FAD9B3A48F1826B40272956EFE32F1B20A766D3C1
310
268314D3EAD3B24BDABB685CCCAAF3A3D94515828980F42D371D04FD696655A814B3235C8B45E9AB9A4C419F5D8653B2237A1CB163DE672FD6AC209BF3C08E0D1B30EB19C3FC9D72FCC6EB231EFA33EDE96BDD341517E5064B11EDFCBCAF57A3A2194156843498524CAA0FCA5B7268F9E185D42D21A2DCEC7FA0B48CFF8492
310
759155FBBB0F2C80A4F991FB408A72CB22977B50B96EB9C91F504B0304140006080800B670623B55019EA25F0000007C00000007000000636E782E786D6C4DCB3B0E80201045D1AD90E915ED2CF8AC45050C11660C8261F98AB1B07AC9C97D42D718D865D3E909258CFD00CCE24AC6E326A164D74DC0B4128928FF32603847
310
2BA13128B1252AC747C6BAB984FC68F0B87FE8960A5C09FE86CFB69FBA01504B0304140006080800B670623B7BC41AC871010000D40300000C0000006662782F636F72652E786D6CC553ED6E8320147D15C2DF4501B56B6D90A64BBB27D80B50A5CE54C120983EFEAE1F4DD7A56BBA5FF3879273EEE59E7310BE393735EA95
310
ED2AA333CC428A91D2B9292A5D66D8BB63B0C26823B835C67D2BC348CB46657880B1E0A535BE9DA1DC68A7B403549B42CDA0EC3AE530CA6B5864B8CB3F552343E91D5474A7B095F949962A6421D0502778E72C0840D390E18DC5F170E664C205F7BE2A66B62A605A75AC94C522DDEEE3651AEF837817C741F2CE92E02D592D
310
83FD6ECB76EC7595A651C2C9D02CB8AB9A8BBADC2AE954814544691A3016D0E883256BBA58278B17BA5A53CAC9507ED3E4DBE2C9265F691747B3DCA9ADC382819091F8E1162272A8933DE82182932144F88C09DF060D8140C84E1EEA8B8F1340BDCA9DB1093085F157AA97B557309586747CD0EF0B4EA64E983A6E0EAEEFCE
310
889E9EF17847386AA94B30211D2C0FDE0D3AF9A4610EAD5536E8DD1969631B593F67E381C33F5157F17725E5A636F6BF1491F980C8FC7B90E13E8A2F504B0304140006080800B670623B70102A487D0000009D0000000B0000006662782F636E782E786D6C4DCCD10A83201886E15B91FFDC95A5C30335ACCDFB886521330D
310
A76397BF1A1DECE883878F57749FD5A3B74D2F17830472A901D9F088930B8B849267CC01754AA418F3DF0D5018572BE160506249B16C274D761E8BCFBB7A179E27F65CB39A0F14D396184C9921B81F34C3ACA1B4B99ABB6E6F062A25AA5F69DF23ACBE504B0304140006080800B670623B3610CA3329010000120200003100
310
00006662782F42384135303843342D343331462D343546312D424341352D3532343432364645413344462F636F72652E786D6C8D515B6EC32010BC0AE22B55850D0E446E848992B43E412FE000495162B07854397EA176A4F62F3F2C9A9D991D58BEBB8F37F0AD7D30CE76905418026DA553C65E3A98E219B510EC04F7CEC5
310
3F3408EC30EA0E16180A7EF12E4D0B249D8DDAC68C5AA7F4020E21E80881BCE54B0783FCD2E3500D296646B856D320AFC34557A4CAEDCC133C449F0380794839A138B47B86DB2345744D7A44594FD0E1B867883594369BFE63BF7EEF793D0B054FC9A8456E548E63CE46FB674D8A58F068C6477CE9F510B582A2C1F80D1182
310
70F349E816B32D65AFB8DD62CCEB42FF274A937A52948C8DEB66893BCB021484D7734370E5D2E9F608A3EF93F3119479ABA0E50B14B8C298119A43CCC4FCFCECB8A18B6388CEE7EF5D5D4F994BD86CBBA182D76543B9FCAE2FD7B24DF103504B0304140006080800B670623B1B8617914E0100003303000030000000666278
310
2F42384135303843342D343331462D343546312D424341352D3532343432364645413344462F636E782E786D6CD593C16EC32010447F0571AD6CE3D489D20813A9877E410FBD62D82434182CC055F3F75D1292E692438FBD206B7698593D61BEFD1E2DF982108D773D6D6B460938E5B571FB9ECE6957AD29D90A1EBC4F7736
310
4A9C1CA1A759A682EF839FA72269D8C9D92654AD71C72206887E0E0A22CAF926B15E498B01E0AA19451807D01A34B919F16B070157417138917400F2F6FA41FCF0092A45DEE414C19BDC21783E4BD39D891265658C3D8DEA00A3ACE59CBC8678ACB54CB26EEB6BD7839D7E9348BE70AD9C8321B9BCA7F9A4A26C542347DEE0
310
50F09802D22BA6749A800A394DD62899107273365E3C82CFC6A55557BC06C10774B7ABE7AEC3B0F34CF06446280E154026D0542C187BA9DAB6628BF7B6DBB0E5A65B3EB1F58631DE64BBE083F7B65CC218087E22CABB042E51D1F2268F1FE12B3EA24D40D63E9CFE00120194D60B9D5BC67FE6D39CDF37E20AF817881F504B
310
0304140006080800B670623BBFEF2E3B690500003C100000340000006662782F42384135303843342D343331462D343546312D424341352D3532343432364645413344462F6F626A656374732E786D6CAD575D739B3814FD2B0CFB0C98D84E931D4227B6938EA793B6534F3BFB90198F0099B001899144EAECAFDF231018B0
310
D37A3FFC609090EEE7B94757C1FB7D915B2F54C88CB31BDB7727B64559CC938CA53776A576CE956DBD0F03C1B9EA2DB32D460A7A63EB693B0C52C1ABD24C257447AA5C8D66EF177F5832A68CDA569C13296F6C193FD182B8A4523CA1F2D94D88226EBADBBBBEDB2C1C8A4D05299F46424B222853B014F30C52ACC6287F389C
310
D85E1878FA7B18E87FB36AFAF62AAFF667A83F635211161F291B8999FAB3D5DDC5FCDA99CF6653677679E13B8BFBC5CAF1DF4D27CBCBE5F2FAF6EE1A8AA51290642C117467871F101B91C581D77CEA2C36869F3229E68CD1B8F61F1ED6361B89092D294B90C78C4A68EB793D190E7D1D9BDEE7A91E1B95FDE9F3BCEAEFE809
310
6A6D6F9F7D4B79F4275C90E7A04248AA51D5C4C738DAE06F72885AC4796EBE65D22A88A22223B995679120E2D50EB1542F098381188D4EA111AE3DB043FF20AF6F2B4AE3D7D83D65E5AECA730D4D3BAC91BD05FEA992B565D95F549CD6069B90AB2A63EACA38A45E4B6A87D781574F86817E4C2FCCC72690D62E2729520E37
310
9BAF234797BAF6D62B3BFC781FED37BA1E4F2B2F052FA9501A3E80569BB8F6A9A364D4FA67654E6F803383981F82F21591FF84F23D9882BC896C3FDBCF8C162508933B2E0AE4C69DD43F6BD2BE38DDDBF10BF86CB4FA784D37F3AF16075E67EC9030DECA1FC0A55373F5DFF3378C591FA9BDF485C10B0A8C8BA909E5262639
310
A8E72163488806A595734C81CB77D1DE0ED7604A303B76913CEC0272F412782FF88EFF4636D8AA56DF7B322474C4B767303F625997056C7B032C473C592B36CEBD15F3F9FF5233B7ABCDC74D257624A60F8658567497B14CE1EC3C80B76FD02011038F9EE9EB0F2E12387A9C844D3F09855125116D1D731DF8B43D2CF4E0A0
310
79A020C6BE946BCE0B7EA1E1219331CD73C228AF5A2DDD31A4B1DA918CE91350854D40A71723140BFA92E94E62B0626016CEFA5864A50E5977E8753CEDBEE1CBB7F52780D20E17AF0BA0F5F9B02A3AD07DCC732EB6D1EBB661421BE0C39E21BABF0FE16D22EA6929407C8DE596724C88B749B6DB5512BC7B228ADFD7CB7EA6
310
3A22397E690BA8D5D8D4E40CEC8CDA23C2C0B7D5898640101CEC9C6D331CE328CB93CAFBBAC70A642DF70DF95155945B52F08AA973C23469FD69ADEF84F7BB18F983A8F8C90E37F5D35980B2139A1C523540813E824EF83448CF7C72B598CE97D7CEEDDDDD3B6736BFBC771677EF66CE6A7E7139F7A793E9EDF2B2B3A8B624
310
0CDA13AA5F8388264EC4A0129909F3B7F5A16CEDF08128E97D680ACA4B9BE7B7B58BB638F0B00700EF36AE8B32A705658A68F83EE897FC2B41573190D1CCAF0B92D233A47CFEB019D9809933F67DD1A5467F8CF69AD9A5AE859342D45355448C64F968A371DC2D596ADC6E43D93D1B466F877A64E2893E54F23C4B40388995
310
525E5005DA3983ED45412510D3EFCA13737B3863F74BD30F2A12E5B4B5E489A025CE25500DB855B11ACE5BBFA185D35DD48D8DC3CE7DC69F2944DB42AA6F6CF09BCA622ADD08C7A36E7C6AE18000BAB08E040135C2D21C9D75B3A91B77BB746C403F38018DFE6EC939DD92F16B40BC05294B9CDA035AAD6D330AE27FE4786B
310
8E45145EA34A75BE1C263A676A35A8ACC6297337400BF16C54EF515F3F77CB77EB3583889C754FFA29081AA98E2222ADEF05DA3E63D2EDEA8B8756C05A7FB6CABC4A91CBF325398202CC952E70A008A830324BA200D5E5EF8F5F04C75DB4B0EE3340E071C98B823333B83577596BF3849B69F2085AA0FAFA212F26BEFF5877
310
FDE622B28D88A42E49E43326DA82D31E8CB006401E1DA726059ECEC168F97A6599036306A135688F9AD2E61A6EA178F4CD51974A9F2CCB9F36FE5EBD14601068D9C3BF01504B0304140006080000B670623B000000000000000000000000350000006662782F42384135303843342D343331462D343546312D424341352D35
310
32343432364645413344462F76657274696365732E62696E504B0304140006080800B670623BF270F1330600000004000000360000006662782F42384135303843342D343331462D343546312D424341352D3532343432364645413344462F747269616E676C65732E62696E636660600000504B0304140006080000B67062
310
3B000000000000000000000000370000006662782F42384135303843342D343331462D343546312D424341352D3532343432364645413344462F617474726962757465732E62696E504B0304140006080800B670623B08DA0BD19000000041010000360000006662782F42384135303843342D343331462D343546312D4243
310
41352D3532343432364645413344462F6469726563746F72792E786D6C858F410AC3201045AF22B36F53E9A60B35CBEEBAE80D244E44489C6234F4F835464A48035D0DF398FF9F8AF63D0E6CC63039F212F8F9020C7D47C6792B21C5FE7403D62A1188E2E60C98D7234A5830286103A55745067B9D86B8A3CF9C7F90C11DE6
310
07FB144396D7B6A82D282E9A152AD114D5EF2CB866EEE831B8EEA07A7BB5A8D7D61A2BAAEB7FD5F70921FF497D00504B0304140006080800B670623B3B4606F3FE000000A00100003B0000006662782F42384135303843342D343331462D343546312D424341352D3532343432364645413344462F7265736F75726365732F
310
636F72652E786D6C8D504B6E833010BD0A9A6D65B08134808CA354A427E8052C332156828DFCA97AFC9A40A576D7CDCCE87D344F8F9FBEE647F689CE6B6B7A6039850C8DB2A336530F315C4903D94970676DF82583CCC8197B5861107C72362E3BA4AC096842428D1D7107A5F71820538F74F4E0D50D6799CB1892C2DFF345
310
AABB9C306779A2934E701F5C0A906D4FD609C2A1B7D129F4BCD858C163D4E3AED163FAA9AF1A1D88F67CA98E6D35906AA82A52BFB39ABCD5CD915C86331BD86BD3B665CD8BD52C78D0F34F46E550061C419494B6843142CB0F5677F4D0D58717DA7494F26295FF31C565FCA7296A13AA728FBBD93C0896823C09C18BB5AFB4
310
9E65A6BD762BBE01504B010214000A0000080000B670623B3DEE336E79000000790000001B00000000000000000000000000000000006175746F6465736B2D64657369676E2D7061636B6167652E786D6C504B01021400140006080800B670623BD486FD9CA0000000F40000001300000000000000000000000000B2000000
310
5B436F6E74656E745F54797065735D2E786D6C504B01021400140006080800B670623B28ED286BEB0000007C010000080000000000000000000000000083010000636F72652E786D6C504B01021400140006080800B670623B55019EA25F0000007C000000070000000000000000000000000094020000636E782E786D6C50
310
4B01021400140006080800B670623B7BC41AC871010000D40300000C00000000000000000000000000180300006662782F636F72652E786D6C504B01021400140006080800B670623B70102A487D0000009D0000000B00000000000000000000000000B30400006662782F636E782E786D6C504B01021400140006080800B6
310
70623B3610CA3329010000120200003100000000000000000000000000590500006662782F42384135303843342D343331462D343546312D424341352D3532343432364645413344462F636F72652E786D6C504B01021400140006080800B670623B1B8617914E010000330300003000000000000000000000000000D10600
310
006662782F42384135303843342D343331462D343546312D424341352D3532343432364645413344462F636E782E786D6C504B01021400140006080800B670623BBFEF2E3B690500003C10000034000000000000000000000000006D0800006662782F42384135303843342D343331462D343546312D424341352D35323434
310
32364645413344462F6F626A656374732E786D6C504B01021400140006080000B670623B0000000000000000000000003500000000000000000000000000280E00006662782F42384135303843342D343331462D343546312D424341352D3532343432364645413344462F76657274696365732E62696E504B010214001400
310
06080800B670623BF270F133060000000400000036000000000000000000000000007B0E00006662782F42384135303843342D343331462D343546312D424341352D3532343432364645413344462F747269616E676C65732E62696E504B01021400140006080000B670623B00000000000000000000000037000000000000
310
00000000000000D50E00006662782F42384135303843342D343331462D343546312D424341352D3532343432364645413344462F617474726962757465732E62696E504B01021400140006080800B670623B08DA0BD1900000004101000036000000000000000000000000002A0F00006662782F42384135303843342D3433
310
31462D343546312D424341352D3532343432364645413344462F6469726563746F72792E786D6C504B01021400140006080800B670623B3B4606F3FE000000A00100003B000000000000000000000000000E1000006662782F42384135303843342D343331462D343546312D424341352D3532343432364645413344462F72
310
65736F75726365732F636F72652E786D6C504B0506000000000E000E0080040000651100000000
  0
XRECORD
  5
187
102
{ACAD_REACTORS
330
186
102
}
330
186
100
AcDbXrecord
280
     1
 70
     1
 90
429727718
  1
887D55A9-D0DD-414E-B741-A7DCD4DA2B4C
310
504B03040A0000080000B670623B3DEE336E79000000790000001B0000006175746F6465736B2D64657369676E2D7061636B6167652E786D6C3C3F786D6C2076657273696F6E3D22312E302220656E636F64696E673D227574662D3822203F3E3C666F726D6174733E3C666F726D61743E687474703A2F2F736368656D612E
310
6175746F6465736B2E636F6D2F64657369676E2D7061636B6167652F323030393C2F666F726D61743E3C2F666F726D6174733E504B0304140006080800B670623BD486FD9CA0000000F4000000130000005B436F6E74656E745F54797065735D2E786D6C7D8EC10E82300C865F65E91D8A1E8C310C0EEA1BF002731658846E
310
D98AC1B77784ABF1D8FE5FBFBF75BBCE937A534CCEB38643598122B6FEE978D0B0485F9C41B54DDD7D022595594E1A469170414C76A4D9A4D207E29CF43ECE46F218070CC6BECC4078ACAA135ACF422C856C0E68EA1BF5669944DDD7BCDE7B1F8E415D77AECB980613C2E4AC91FC167A2B244592486606FC29C8FD7F045B9A
310
EF7053A7E60B504B0304140006080800B670623BBC1638F5EC0000007C01000008000000636F72652E786D6C8D90416EC3201045AF82665B61836BE2D8C24471DB9CA01740401C94182C03558F5F9C3852BBEB6A467FFE9B197D7EF89E6EE8CB2CC17AD7032D0820E394D7D68D3DA478C67B4007C117EFE32F1B202727D3C3
310
2A83E0E3E2D3BC49CABB685CCCAAF3DA6CA20CC14440EA969B1E82BA98491632C5EC08D76296EA2A4753D06797E194AC468F2356E77DF66CCD02825543D50CACC62D39ED70FDC68EB8FD68F6F8787A6784342D1DDA1D2F5758F068A7E77DB518198D065111D2624A31A93E69DD11D6D5EC85EC3B4278B9DAFF4069D6FF8492
310
75F1B5DADE7D600104CD8FDC0782976B16B9DC83CA75CD4DFC00504B0304140006080800B670623B55019EA25F0000007C00000007000000636E782E786D6C4DCB3B0E80201045D1AD90E915ED2CF8AC45050C11660C8261F98AB1B07AC9C97D42D718D865D3E909258CFD00CCE24AC6E326A164D74DC0B4128928FF326038
310
472BA13128B1252AC747C6BAB984FC68F0B87FE8960A5C09FE86CFB69FBA01504B0304140006080800B670623B3586FFB671010000D40300000C0000006662782F636F72652E786D6CC553ED6E8320147D15C2DF4541A76D6D90A6DDD627D80B50A4CE54C120983EFEAE1F4DD7A55BBA5FF3879273EEE59E7310B6393735EA
310
95ED2AA3731C851423A5A5292A5DE6D8BB63B0C268C39935C67D29C3488B46E578803167A535BE9D2169B453DA01AA4DA16650749D7218C91A1639EEE4876A4428BC838AEE14B6429E44A9C228041AEA38EB9C0501681A32BC313F1ECE8C4C3867DE57C5CC56054CAB8E95B298A7F12E5EEED224C8E87E11242FE936C8DE96
310
AB60BB7F4D295D66D12E5B30323473E6AAE6A24E5A259C2A308F29CD82280A68FC1E256B9AAE93F489AED694323294DF34F9B678B0C957DA3DC7B3DCA9ADC33C022123F1CD2D44E450277AD04338234388F01913BE0D1A0281909D38D4171F27807A259DB1093085F157AA17B557309586747CD0CF0B46A64E983A6E0EAEEF
310
CE881F9EF1FB8E70D44297604238581EBC1B74B249C31C5AAB6CD0BB33D2C636A27ECCC62F0EFF445DC5DF95244D6DEC7F2922F30191F9F720C37DE49F504B0304140006080800B670623B4220A0FF7D0000009D0000000B0000006662782F636E782E786D6C4DCCD10A83201886E15B91FFDCE542CB0335D0EC3E6259C84A
310
C3E9D8E5AF46073BFAE0E1E315DD675BD1DBA5978F41C2FD4600B9F088930F8B849267CC01754AA418F3DF0D50183727E164506249B1EC174D6E1ECB9A0F5D7D785E68DB8151CD286E5A5363CA6B8A39E90D36D40E96B086F55A43A544F52B1D7B86D517504B0304140006080800B670623B2FA3FEDE290100001202000031
310
0000006662782F45374635344235342D363743322D343832342D383044432D4334454645303536354442422F636F72652E786D6C8D515B6EC32010BC0AE22B55850D2E386E848994D7097A0117488A1283C5A3CAF10BB523B57FF961D1ECCCECC0F2ED7DBC816FED8371B687A4C210682B9D32F6D2C314CFA883602BB8772E
310
FEA141608751F7B0C050F08B77695A20E96CD43666D43AA5177008414708E42D5F7A18E4971E876A483133C2B59A06791D2EBA22556E679EE021FA1C00CC43CA09C5717D6274C7286AD7FB06D1AEA1A8C3873DDAD3E3E98859CB0EBB1DAF67A1E02919B5C88DCA71CCD968FFAC49110B1ECDF8882FBD1EA256503418BF2342
310
106E3E08DD60B6A1EC15771B8C795DE8FF4469524F8A92B1F1AD59E2CEB20005E1F5DC105CB9F4797B84D1F7C9F908CABC55D0F2050A5C61CC1AD2F27A26E6E767C7962E8E213A9FBF7775FDCC5CC266DB960A5E970DE5F2BBBE5CCB36C50F504B0304140006080800B670623B1B8617914E01000033030000300000006662
310
782F45374635344235342D363743322D343832342D383044432D4334454645303536354442422F636E782E786D6CD593C16EC32010447F0571AD6CE3D489D20813A9877E410FBD62D82434182CC055F3F75D1292E692438FBD206B7698593D61BEFD1E2DF982108D773D6D6B460938E5B571FB9ECE6957AD29D90A1EBC4F77
310
364A9C1CA1A759A682EF839FA72269D8C9D92654AD71C72206887E0E0A22CAF926B15E498B01E0AA19451807D01A34B919F16B070157417138917400F2F6FA41FCF0092A45DEE414C19BDC21783E4BD39D891265658C3D8DEA00A3ACE59CBC8678ACB54CB26EEB6BD7839D7E9348BE70AD9C8321B9BCA7F9A4A26C542347DE
310
E050F09802D22BA6749A800A394DD62899107273365E3C82CFC6A55557BC06C10774B7ABE7AEC3B0F34CF06446280E154026D0542C187BA9DAB6628BF7B6DBB0E5A65B3EB1F58631DE64BBE083F7B65CC218087E22CABB042E51D1F2268F1FE12B3EA24D40D63E9CFE00120194D60B9D5BC67FE6D39CDF37E20AF817881F50
310
4B0304140006080800B670623B29652116630500003C100000340000006662782F45374635344235342D363743322D343832342D383044432D4334454645303536354442422F6F626A656374732E786D6CAD575D739B3814FD2B0CFB0C989834C90EA1639B24E3E9A6EDD4D3CE3E64C623834CD8006224913AFDF57B040203
310
B65BEF871F0C12D2FD3CF7E8CA7FBFCB33E3957291B2E2D674ED8969D02262715A24B76625B7D6B569BC0F7CCE98EC2D338D82E4F4D654D366E0279C55A59E8AE99654991CCDDECFFF3444440B6A1A514684B83545F44C7362934AB2988A173B2692D8C97667BB76B3702836E1A47C1E092D09A78584A5982F20C5688C7287
310
C389E904BEA3BE07BEFAD7ABA6A75739B53F43FD69212429A20365233153D70BEF2E2E6FAC4BCF9B5ADEBB0BD79ADFCF43CBBD9A4E16EF168B9BD9DD0D140BC921495BC2E9D60C1E101B9E46BED37CEA2CD6861F3329624541A3DA7F7858DBAC25C6B4A4458C3CA654405BCFEBC970E8AAD8F43E4FD558ABEC4F9FE7557F47
310
4F506B7BFBEC5BCA367FC105710E2AB8A00A554D7CB4A30DFE26FBA86D18CBF4B75418399194A72433B274C3097F33032C554B027F2046A1932B842B0FCCC0DDCBEBDB8AD2F835768F59B9ADB24C41D30C6A64AF817F2A456D59FA83F2E3DA60137255A585BCD60EC9B7929AC18DEFD49381AF1ED30BFDB109A4B1CD488294
310
C3CDE6EBC8D185AABD6568061FEE37BB95AAC7E3CA4BCE4ACAA5820FA0D526AE7DAA2869B5EE5999531BE0CC20E6FBA07C41E43FA27CF7A6206F3CDD793B4F6B919C1462CB788EDCD893FA674CDA17AB7B3B7C019F8D561FAEE966FED562DFE98C1D12C6A9FC015C2A35D7FF3D7FC398F591DA4B5FE0BFA2C0189FEA50AE22
310
92817A1ED3020951A03432862970F976B33383259812CC8E5D240BBA801CBCF8CE2BBEE3BF910DB6AAD5F79E05123AE2DB33981FB1ACCB02B69D00CB014FD68AB573A7627EF9BFD4CC2C5C7D58557C4B22FAA88925A4DBB44825CECE3D78FB060D1231F0E885BE7D673C86A3874958F593906B5502D1563157814FDAC3420D
310
F69A070A22EC4B98E23CFF171A1E5311D12C23056555ABA53B8614563B92D17D02AAB009E8F46284624E5F53D5490C560CCCC2591FF1B45421EB0EBD8EA7ED13BE7C5D7E0428CD60FEF60779EB13E6664FF711CB185F6FDED60D139A001FF60CD1FD6D086F1D51474901E26B2CB794A343BC8ED3EDB612E0DD2351FCB65CF4
310
33D511C9E14B5B40ADC6A6263DB0336A8F700DDF56271A024E70B0B3629DE21847591E55DED73D56206AB927E46FAABC5C939C55853C274C93D69FD6FA4E78BF8B11DF898C9ECD60553FAD39283BA6F18984AA23E8884F83F45C5F5F859797B31B2B9C84A1E5B9DE9D35BFF25C6B76152E422F9C5DCC3D847F5801ED09D5AF
310
41441327A25FF15487F9EB725FB666F048A4701E9A827292E6F97569A32DF61DEC01C0BB8DCBBCCC684E0B49147C1FD54BF685A0AB18C868E6973949E819523E3DAC463660E68C7D9F55A9D1EFA3BD7A76A16AE1A810F95CE59B82A4D968A376DC2E8B44BBDD86B27B368CDE0ED548C7137DA860591A83706223A12CA712B4
310
7306DBF39C0A20A6DF95C7FAF670C6EED7A61F946493D1D6926782963813403548A78AE470DEF80D2D9CEAA26E4D1C76F60BFE74219A06527D6B82DF641A51616F703CAAC6A7160E08A00BEB4810A0274592A1B36E3675E36E978A0DE80727A0D6DF2D39A75BD27E0D8837276589537B40ABB56D5A41F48F1C6FCD3188C4EB
310
A6929D2FFB89CE995A4D00AE813BDD032DC48B56BD437DFDDC2DD7AED70C2272D63DE9A72068A45A92F0A4BE17A8A06B9366E16707AD80B1FC649459952097E74BB23805982B55E0401150A165964402AA8BDF9F3E7386BB686EDCA780C0D382E5392BF460A6EFB2C6EA1937D3F809B440D5F5435C4C5CF7A9EEFAF54564BD
310
2182DA24162F98680B4E7930C21A0079709CEAEB99A372305ABE0C0D7D6078105A83F6A0296DAEE1068A47DD1C55A9F4C9B2FC69E3EFD44B81028E963DF81B504B0304140006080000B670623B000000000000000000000000350000006662782F45374635344235342D363743322D343832342D383044432D433445464530
310
3536354442422F76657274696365732E62696E504B0304140006080800B670623BF270F1330600000004000000360000006662782F45374635344235342D363743322D343832342D383044432D4334454645303536354442422F747269616E676C65732E62696E636660600000504B0304140006080000B670623B00000000
310
0000000000000000370000006662782F45374635344235342D363743322D343832342D383044432D4334454645303536354442422F617474726962757465732E62696E504B0304140006080800B670623B08DA0BD19000000041010000360000006662782F45374635344235342D363743322D343832342D383044432D4334
310
454645303536354442422F6469726563746F72792E786D6C858F410AC3201045AF22B36F53E9A60B35CBEEBAE80D244E44489C6234F4F835464A48035D0DF398FF9F8AF63D0E6CC63039F212F8F9020C7D47C6792B21C5FE7403D62A1188E2E60C98D7234A5830286103A55745067B9D86B8A3CF9C7F90C11DE607FB144396
310
D7B6A82D282E9A152AD114D5EF2CB866EEE831B8EEA07A7BB5A8D7D61A2BAAEB7FD5F70921FF497D00504B0304140006080800B670623B6378F24DFF000000A00100003B0000006662782F45374635344235342D363743322D343832342D383044432D4334454645303536354442422F7265736F75726365732F636F72652E
310
786D6C8D504B6E833010BD0A9A6D65B0094E42641C85B639412F6099496225D8C89FAAC7AF09546A77DDCC8CDE47F3F4C4F16B7C149FE88371B603565228D06A37187BED20C50BD9437194C23B177FC9A0B06AC40E6618A4B87A97A615D2CE46B431A3D60DB8822A048C50E8473E3A08FA86A32A558A5911EEE5A4F45D5DB1
310
6465A6B34E8A107D0E502C4FE609D26370C96B0CA25A58295232C3AA3143FE692E063D485EF7F5AEE71BD2D2F39634AFFC44DAF7DD9E9CCE6F9CD25DCBFA762BAAD92C4534E34F46ED51451C40D694B6843142EB0FD61C283F34FC85EE0F948A6A96FF31A569F8A729191B37F51A77B105902C0779125254735F793DCBCC7B
310
EE567E03504B010214000A0000080000B670623B3DEE336E79000000790000001B00000000000000000000000000000000006175746F6465736B2D64657369676E2D7061636B6167652E786D6C504B01021400140006080800B670623BD486FD9CA0000000F40000001300000000000000000000000000B20000005B436F6E
310
74656E745F54797065735D2E786D6C504B01021400140006080800B670623BBC1638F5EC0000007C010000080000000000000000000000000083010000636F72652E786D6C504B01021400140006080800B670623B55019EA25F0000007C000000070000000000000000000000000095020000636E782E786D6C504B010214
310
00140006080800B670623B3586FFB671010000D40300000C00000000000000000000000000190300006662782F636F72652E786D6C504B01021400140006080800B670623B4220A0FF7D0000009D0000000B00000000000000000000000000B40400006662782F636E782E786D6C504B01021400140006080800B670623B2F
310
A3FEDE290100001202000031000000000000000000000000005A0500006662782F45374635344235342D363743322D343832342D383044432D4334454645303536354442422F636F72652E786D6C504B01021400140006080800B670623B1B8617914E010000330300003000000000000000000000000000D2060000666278
310
2F45374635344235342D363743322D343832342D383044432D4334454645303536354442422F636E782E786D6C504B01021400140006080800B670623B29652116630500003C10000034000000000000000000000000006E0800006662782F45374635344235342D363743322D343832342D383044432D4334454645303536
310
354442422F6F626A656374732E786D6C504B01021400140006080000B670623B0000000000000000000000003500000000000000000000000000230E00006662782F45374635344235342D363743322D343832342D383044432D4334454645303536354442422F76657274696365732E62696E504B01021400140006080800
310
B670623BF270F13306000000040000003600000000000000000000000000760E00006662782F45374635344235342D363743322D343832342D383044432D4334454645303536354442422F747269616E676C65732E62696E504B01021400140006080000B670623B0000000000000000000000003700000000000000000000
310
000000D00E00006662782F45374635344235342D363743322D343832342D383044432D4334454645303536354442422F617474726962757465732E62696E504B01021400140006080800B670623B08DA0BD190000000410100003600000000000000000000000000250F00006662782F45374635344235342D363743322D34
310
3832342D383044432D4334454645303536354442422F6469726563746F72792E786D6C504B01021400140006080800B670623B6378F24DFF000000A00100003B00000000000000000000000000091000006662782F45374635344235342D363743322D343832342D383044432D4334454645303536354442422F7265736F75
310
726365732F636F72652E786D6C504B0506000000000E000E0080040000611100000000
  0
XRECORD
  5
112
102
{ACAD_REACTORS
330
110
102
}
330
110
100
AcDbXrecord
280
     1
270
     1
271
     1
  0
XRECORD
  5
111
102
{ACAD_REACTORS
330
110
102
}
330
110
100
AcDbXrecord
280
     1
270
     1
271
     1
  0
XRECORD
  5
18A
102
{ACAD_REACTORS
330
110
102
}
330
110
100
AcDbXrecord
280
     1
 70
     0
 90
1778669749
  1
9BF507EE-FAF7-4A99-A33D-4EE51894BC40
310
504B03040A0000080000B670623B3DEE336E79000000790000001B0000006175746F6465736B2D64657369676E2D7061636B6167652E786D6C3C3F786D6C2076657273696F6E3D22312E302220656E636F64696E673D227574662D3822203F3E3C666F726D6174733E3C666F726D61743E687474703A2F2F736368656D612E
310
6175746F6465736B2E636F6D2F64657369676E2D7061636B6167652F323030393C2F666F726D61743E3C2F666F726D6174733E504B0304140006080800B670623BD486FD9CA0000000F4000000130000005B436F6E74656E745F54797065735D2E786D6C7D8EC10E82300C865F65E91D8A1E8C310C0EEA1BF002731658846E
310
D98AC1B77784ABF1D8FE5FBFBF75BBCE937A534CCEB38643598122B6FEE978D0B0485F9C41B54DDD7D022595594E1A469170414C76A4D9A4D207E29CF43ECE46F218070CC6BECC4078ACAA135ACF422C856C0E68EA1BF5669944DDD7BCDE7B1F8E415D77AECB980613C2E4AC91FC167A2B244592486606FC29C8FD7F045B9A
310
EF7053A7E60B504B0304140006080800B670623BCA089DFFEC0000007C01000008000000636F72652E786D6C8D90416E83301045AF62CDB632D8402020E32882F604BD80653BC44AB011B6AB1EBF262152BBEB6A467FFE9B197D76FA9EEFE84BAFDE38DB03CD08206DA553C64E3DC470C1474027CE56E7C22F1B202B66DDC3
310
260367D3EAE2B24BD2D9A06D48AA754AEFA2F05E0740F29E9A1EBCBCEA59642286E4F0B76C11F226269DD15797E0188D42CF2346A57DE662F40ABCAEC77628C6120F654571D50C04B7F5B9C1E3997CD4F550BE3745C3F20DE62C98F9755FAE5A04AD801784B498524C8A4F5A75E4D055873772EC0861F966FF03C545FD138A
310
C686B2D8DF7D621E384D8F3C069CE55B16A93C824A75CB8DFF00504B0304140006080800B670623B55019EA25F0000007C00000007000000636E782E786D6C4DCB3B0E80201045D1AD90E915ED2CF8AC45050C11660C8261F98AB1B07AC9C97D42D718D865D3E909258CFD00CCE24AC6E326A164D74DC0B4128928FF326038
310
472BA13128B1252AC747C6BAB984FC68F0B87FE8960A5C09FE86CFB69FBA01504B0304140006080800B670623B68FC0B7272010000D40300000C0000006662782F636F72652E786D6CC5535B6E833010BC8AE5DF0A6C1E8124328E22D29EA01770C0A128602363A31CBFCB234A53A555FA553EC09AD9F5CE8C31DB5DDA060D
310
D2F4B556190E7C8A9154852E6B5565D8D993B7C668C799D1DA7E29C3488956667884316795D1AE5BA0422B2B950554E9522EA0E87B69312A1A5864B82F3E642B7CE12C54F467BF13C55954D20F7CA0A18EB3DE1A1080E621E31BF3D3F1C2C88C73E65C5D2E6C5DC2B4FA544B8379921C36797888BC3C8A032F4E73EA6D927D
310
EA1DF6F42D49F2E8350D5346C666CE6CDD5ED515460A2B4BCC434A375E1078347C0FE22D5D6DE3D50B5D6F2965642CBF6B725DF96493AB958DC245EEDCD6631E809089F8E61622B2A81703E8219C913144F84C09DF070D8140C8561C9BAB8F3340832CAC363130A576376A108D933095FA747AD0CF0B46E64E983A6D0EAE1F
310
CE089F9EF1FB8E70D44255604258581E9D1D75B259C3125A278D37D80B52DAB4A279CEC62F0EFF44DDC43F9454E8469BFF5244960322CBEF41C6FBC83F01504B0304140006080800B670623B0F71DDB67E0000009D0000000B0000006662782F636E782E786D6C4DCCD10A83201886E15B91FFDCA54DB73F502386BB8F5816
310
32D3703976F9ABD1C18E3E78F87855FB990379BBFCF2296AE02706C4C5471A7C9C349475A408A4352AA7B4FEDD80C47E761A7606A3A69CCA72D0E0C6BE8475D3E0E3F3409428EA6B27A84079A782899AA2EC1A7AE3ECCC2FD858CB2D544655BFD2B67BD87C01504B0304140006080800B670623BE134B4FB28010000120200
310
00310000006662782F38353834323741342D343835462D343034322D383541392D4331303331363839454531452F636F72652E786D6C8D515B6EC32010BC0AE22B55850D0EA424C24451959EA0172086A42831583CAA1CBF503B52FB971F16CDCECC0EACD8DFC71BF836215AEF7A481A0C817183D7D65D7A98D3197108F652
310
04EFD31F1A044E8DA6871586525C82CFD3020DDE25E352419DD76601558C264130DCCAA58771F832A36A544E8511AFCDA486ABBA988634A55D7852C4144A00300FA927949C71DABD1D28A29C7D208A6987383B6CD13BC16BB2E1DBE3911C453B0BA5C8D9EA456E758963CFD684674DAA588A64C747FC2118958C86B2C3788B
310
0841B8FB247487D98EB257CC77188BB6D2FF89F2A49F1465EBD2BA5BE2CEB2082511EDDC9042FB7CBA3DC298FBE4430275DE2A9AE1054ADC60CC08E3A29D89E5F9C5714317C7987C28DFBBBA9E0A97B0D97643A568EB864AF95D5FA9759BF207504B0304140006080800B670623B1B8617914E010000330300003000000066
310
62782F38353834323741342D343835462D343034322D383541392D4331303331363839454531452F636E782E786D6CD593C16EC32010447F0571AD6CE3D489D20813A9877E410FBD62D82434182CC055F3F75D1292E692438FBD206B7698593D61BEFD1E2DF982108D773D6D6B460938E5B571FB9ECE6957AD29D90A1EBC4F
310
77364A9C1CA1A759A682EF839FA72269D8C9D92654AD71C72206887E0E0A22CAF926B15E498B01E0AA19451807D01A34B919F16B070157417138917400F2F6FA41FCF0092A45DEE414C19BDC21783E4BD39D891265658C3D8DEA00A3ACE59CBC8678ACB54CB26EEB6BD7839D7E9348BE70AD9C8321B9BCA7F9A4A26C542347
310
DEE050F09802D22BA6749A800A394DD62899107273365E3C82CFC6A55557BC06C10774B7ABE7AEC3B0F34CF06446280E154026D0542C187BA9DAB6628BF7B6DBB0E5A65B3EB1F58631DE64BBE083F7B65CC218087E22CABB042E51D1F2268F1FE12B3EA24D40D63E9CFE00120194D60B9D5BC67FE6D39CDF37E20AF817881F
310
504B0304140006080800B670623B5933D422630500003B100000340000006662782F38353834323741342D343835462D343034322D383541392D4331303331363839454531452F6F626A656374732E786D6CAD575B6FA33814FE2B887D0642934E9B156594264D158D3A534DD4D13E548A0C38942D60649B4EBABF7E3F8321
310
40924EF6928780CDF1B97EE762EFF32E4B8D37CA45C2F21BD3B547A641F39045491EDF98A5DC5AD7A6F1D9F73863B243661A39C9E88DA9B64DDF8B392B0BBD15D12D295339D85DDEFE618890E6D434C2940871638AF08566C426A5641115AF764424B1E3EDCE76ED9AB0CF36E6A47819302D08A7B984A6D8CFC1C5A89572FB
310
CB91E9F89EA3BEFB9EFAD754E3D3544E654F5F7E920B49F2F040D880CDD89D2CEE2E2EA7D6E56432B6269F2E5CEB7679BBB0DCABF168FE693E9FCEEEA6102C240727AD09A75BD3BF876F78127A4EFDA9D5582B7E4CA590E5390D2BFB6161A5B3E618D182E611E2985001691DAB47FDA5AB7CD3F93C566B2DB2BB7D9E55DD13
310
1D468DEECDB3AB290BFE8409E21C54704115AA6AFF68436BFC8DF65E0B184BF5B74418199194272435D224E084BF9B3E481589EFF5D828747285706581E9BB7B7E5D5D911ABFC6EE312DB7659A2A689A7E85EC0DF04FA5A8344BFEA2FCB834E8845895492EAFB541F2BDA0A63FF59C6AD3F7D4637CA13FD68E34B629891172
310
98597F1D183A57B9B75A98FE9765B05BAB7C3C2EBCE0ACA05C2AF8005A4DE09AA7F29216EB9E15397500C6F47CBE77CA7778FE2BD277AF0AE2C693DD6437D1522427B9D8329E2136F6A8FA19A3E6C56ADF0E5F50CF06D48734EDCEBF22F69C56D97EC138153F804B85E6FABFC7AFEFB32E523BE1F3BD372418E363EDCA7548
310
52949E8724474014288D94610BB57C1BEC4C7F854A89CA8E5324F55B871CBC78CE1BBEE3BFE68D6A5589EF3C730474506FCFA8FCF0659516D0ED04580EEA6425581B77CAE797FF4BCECC16EB2FEB926F49481F746159D06D922712BD730FDEAE42BD40F42C7AA5EF3F198F60E86110D6DD20645A9480B795CF95E3E3A659A8
310
C55E724F408873315335CFFB8584874484344D494E59D94869DB90C26A5B64F49C802CAC1D3ABE18A098D3B7444D123D8A9E5AE8F5214F0AE5B2B6E9B575DA3E61CBD3EA2B4009FA940524DD1305FB6A1FB294F14DF0BEA90BA109ECE1481FDC3FFAE8D60E75141700BE82725371B4873751B2DD960265F788137FACE6DD40
310
B575E4F0A5C99F46629D92131467A41EE11ABD8D4CCC039CA0AFB37C93A08B232B8F0AEFCA1E0A1015DF13FC83322B362463652ECF71D3A8B1A7D1BE65DE1D62C44F22C317D35F574FEB16153BA2D13E543D10A80E74C4A65E78A6B7CBCBD1D5DD9DB59C2DAFACC96C3AB566E3F1C29ADCDD5DBAD7D3C9ED7C822ED74F80A6
310
41755310DE4443F44A9E68373FADF6596BFA0F440AE7BECE2727AE9F4F2B1B53B1E7E00CF0DD1E5C65454A339A4BA2D0FBA05ED2EF0443458F47BDBFCA484CCFE0F2ED7E3DD0013B679C7B5499467F0ECEEADDB9CA85A34CE44B99053949D2C1416DB85DE4B136BB7165FBAC0B7AB3542BED4F8CA182A549847A1319316519
310
95A83A67147B9E5101C47487F2485F1ECE38FD568F839204296D3479219888530154036E6528FBFBC66F98E0D4107563A2D7D9AFF8D389681A08F58D89F22693900A3B407754734FC51C10C010D6D640809EE4718AC1BA3ED4AEDB53CA37283F68805A7E4B72CEB0A4EDEAD5DD8C14059A76AFAA56BA6901E13F32BC51C720
310
12AF41295B5BF61BAD3195181FB506E6B40F4C10AF5AF40EF9F5B159AE5DD1F43C72D635E94310D45C2D49785C5D0B94D3B54AB3C5A38349C0587D338AB48C11CBF339599C02CCA54A70A008A8D03C0B2201D5F9EFCF8F9CE12A9A19CB0410789EB32C63B95ECCF455D658BFE0621A3DA32C5075FB101723D77DAE867E7D0F
310
D90444509B44E2151B4DC2290B065803200FBAA9BE9D392A0603F2D5C2D00D6302A615680F66D2FA166E2079D4C551A54AB758161FCEFD4E450A14704CECFEDF504B0304140006080000B670623B000000000000000000000000350000006662782F38353834323741342D343835462D343034322D383541392D4331303331
310
363839454531452F76657274696365732E62696E504B0304140006080800B670623BF270F1330600000004000000360000006662782F38353834323741342D343835462D343034322D383541392D4331303331363839454531452F747269616E676C65732E62696E636660600000504B0304140006080000B670623B000000
310
000000000000000000370000006662782F38353834323741342D343835462D343034322D383541392D4331303331363839454531452F617474726962757465732E62696E504B0304140006080800B670623B08DA0BD19000000041010000360000006662782F38353834323741342D343835462D343034322D383541392D43
310
31303331363839454531452F6469726563746F72792E786D6C858F410AC3201045AF22B36F53E9A60B35CBEEBAE80D244E44489C6234F4F835464A48035D0DF398FF9F8AF63D0E6CC63039F212F8F9020C7D47C6792B21C5FE7403D62A1188E2E60C98D7234A5830286103A55745067B9D86B8A3CF9C7F90C11DE607FB1443
310
96D7B6A82D282E9A152AD114D5EF2CB866EEE831B8EEA07A7BB5A8D7D61A2BAAEB7FD5F70921FF497D00504B0304140006080800B670623BD9A3B367FE000000A00100003B0000006662782F38353834323741342D343835462D343034322D383541392D4331303331363839454531452F7265736F75726365732F636F7265
310
2E786D6C8D504B6E833010BD0A9A6D65B01D0201194711694FD00B586642AD043BF2A7EAF16B122AB5BB6E6646EFA3797AE2F8B5DC8A4FF4C1383B002B291468B59B8C9D0748F1420E501CA5F0CEC55F3228AC5A708015062966EFD27D83B4B3116DCCA875136EA00A012314FA968F0182FEC045952AC5AC08D7F2AEF455CD
310
58B232D3592745883E07289E4FD609D26370C96B0CA27AB252A464A64D63A6FCD35C0C7A904D73EE467EE664DCD58CD4ED4849D79C5A723ED1B7A61977AF2D6F45B59AA58866F9C9A83DAA8813484E6947182394BFB3BAA7FBBEDEBFD0434FA9A856F91F53BA4FFF342563E38E6F719FB60092E5200F428A6AED2BAF479979
310
AFDDCA6F504B010214000A0000080000B670623B3DEE336E79000000790000001B00000000000000000000000000000000006175746F6465736B2D64657369676E2D7061636B6167652E786D6C504B01021400140006080800B670623BD486FD9CA0000000F40000001300000000000000000000000000B20000005B436F6E
310
74656E745F54797065735D2E786D6C504B01021400140006080800B670623BCA089DFFEC0000007C010000080000000000000000000000000083010000636F72652E786D6C504B01021400140006080800B670623B55019EA25F0000007C000000070000000000000000000000000095020000636E782E786D6C504B010214
310
00140006080800B670623B68FC0B7272010000D40300000C00000000000000000000000000190300006662782F636F72652E786D6C504B01021400140006080800B670623B0F71DDB67E0000009D0000000B00000000000000000000000000B50400006662782F636E782E786D6C504B01021400140006080800B670623BE1
310
34B4FB280100001202000031000000000000000000000000005C0500006662782F38353834323741342D343835462D343034322D383541392D4331303331363839454531452F636F72652E786D6C504B01021400140006080800B670623B1B8617914E010000330300003000000000000000000000000000D3060000666278
310
2F38353834323741342D343835462D343034322D383541392D4331303331363839454531452F636E782E786D6C504B01021400140006080800B670623B5933D422630500003B10000034000000000000000000000000006F0800006662782F38353834323741342D343835462D343034322D383541392D4331303331363839
310
454531452F6F626A656374732E786D6C504B01021400140006080000B670623B0000000000000000000000003500000000000000000000000000240E00006662782F38353834323741342D343835462D343034322D383541392D4331303331363839454531452F76657274696365732E62696E504B01021400140006080800
310
B670623BF270F13306000000040000003600000000000000000000000000770E00006662782F38353834323741342D343835462D343034322D383541392D4331303331363839454531452F747269616E676C65732E62696E504B01021400140006080000B670623B0000000000000000000000003700000000000000000000
310
000000D10E00006662782F38353834323741342D343835462D343034322D383541392D4331303331363839454531452F617474726962757465732E62696E504B01021400140006080800B670623B08DA0BD190000000410100003600000000000000000000000000260F00006662782F38353834323741342D343835462D34
310
3034322D383541392D4331303331363839454531452F6469726563746F72792E786D6C504B01021400140006080800B670623BD9A3B367FE000000A00100003B000000000000000000000000000A1000006662782F38353834323741342D343835462D343034322D383541392D4331303331363839454531452F7265736F75
310
726365732F636F72652E786D6C504B0506000000000E000E0080040000611100000000
  0
XRECORD
  5
113
102
{ACAD_REACTORS
330
110
102
}
330
110
100
AcDbXrecord
280
     1
270
     1
271
     1
  0
XRECORD
  5
114
102
{ACAD_REACTORS
330
110
102
}
330
110
100
AcDbXrecord
280
     1
270
     1
271
     1
  0
XRECORD
  5
CAA
102
{ACAD_REACTORS
330
CA9
102
}
330
CA9
100
AcDbXrecord
280
     1
102
DISPLAYNAME
  1
Imperial24
102
FLAGS
 90
        0
  0
XRECORD
  5
CAE
102
{ACAD_REACTORS
330
CAD
102
}
330
CAD
100
AcDbXrecord
280
     1
102
DISPLAYNAME
  1
Metric50
102
FLAGS
 90
        0
  0
CELLSTYLEMAP
  5
C9F
102
{ACAD_REACTORS
330
886
102
}
330
886
100
AcDbCellStyleMap
 90
        3
300
CELLSTYLE
  1
TABLEFORMAT_BEGIN
 90
        5
170
     1
 91
        0
 92
    32768
 62
   257
 93
        1
300
CONTENTFORMAT
  1
CONTENTFORMAT_BEGIN
 90
        0
 91
        0
 92
      512
 93
        0
300

 40
0.0
140
1.0
 94
        5
 62
     0
340
20C
144
0.25
309
CONTENTFORMAT_END
171
     1
301
MARGIN
  1
CELLMARGIN_BEGIN
 40
0.06
 40
0.06
 40
0.06
 40
0.06
 40
0.18
 40
0.18
309
CELLMARGIN_END
 94
        6
 95
        1
302
GRIDFORMAT
  1
GRIDFORMAT_BEGIN
 90
        0
 91
        1
 62
     0
 92
       -2
340
0
 93
        1
 40
0.045
309
GRIDFORMAT_END
 95
        2
302
GRIDFORMAT
  1
GRIDFORMAT_BEGIN
 90
        0
 91
        1
 62
     0
 92
       -2
340
0
 93
        1
 40
0.045
309
GRIDFORMAT_END
 95
        4
302
GRIDFORMAT
  1
GRIDFORMAT_BEGIN
 90
        0
 91
        1
 62
     0
 92
       -2
340
0
 93
        1
 40
0.045
309
GRIDFORMAT_END
 95
        8
302
GRIDFORMAT
  1
GRIDFORMAT_BEGIN
 90
        0
 91
        1
 62
     0
 92
       -2
340
0
 93
        1
 40
0.045
309
GRIDFORMAT_END
 95
       16
302
GRIDFORMAT
  1
GRIDFORMAT_BEGIN
 90
        0
 91
        1
 62
     0
 92
       -2
340
0
 93
        1
 40
0.045
309
GRIDFORMAT_END
 95
       32
302
GRIDFORMAT
  1
GRIDFORMAT_BEGIN
 90
        0
 91
        1
 62
     0
 92
       -2
340
0
 93
        1
 40
0.045
309
GRIDFORMAT_END
309
TABLEFORMAT_END
  1
CELLSTYLE_BEGIN
 90
        1
 91
        1
300
_TITLE
309
CELLSTYLE_END
300
CELLSTYLE
  1
TABLEFORMAT_BEGIN
 90
        5
170
     1
 91
        0
 92
        0
 62
   257
 93
        1
300
CONTENTFORMAT
  1
CONTENTFORMAT_BEGIN
 90
        0
 91
        0
 92
      512
 93
        0
300

 40
0.0
140
1.0
 94
        4
 62
     0
340
20C
144
0.18
309
CONTENTFORMAT_END
171
     1
301
MARGIN
  1
CELLMARGIN_BEGIN
 40
0.06
 40
0.06
 40
0.06
 40
0.06
 40
0.18
 40
0.18
309
CELLMARGIN_END
 94
        6
 95
        1
302
GRIDFORMAT
  1
GRIDFORMAT_BEGIN
 90
        0
 91
        1
 62
     0
 92
       -2
340
0
 93
        1
 40
0.045
309
GRIDFORMAT_END
 95
        2
302
GRIDFORMAT
  1
GRIDFORMAT_BEGIN
 90
        0
 91
        1
 62
     0
 92
       -2
340
0
 93
        1
 40
0.045
309
GRIDFORMAT_END
 95
        4
302
GRIDFORMAT
  1
GRIDFORMAT_BEGIN
 90
        0
 91
        1
 62
     0
 92
       -2
340
0
 93
        1
 40
0.045
309
GRIDFORMAT_END
 95
        8
302
GRIDFORMAT
  1
GRIDFORMAT_BEGIN
 90
        0
 91
        1
 62
     0
 92
       -2
340
0
 93
        1
 40
0.045
309
GRIDFORMAT_END
 95
       16
302
GRIDFORMAT
  1
GRIDFORMAT_BEGIN
 90
        0
 91
        1
 62
     0
 92
       -2
340
0
 93
        1
 40
0.045
309
GRIDFORMAT_END
 95
       32
302
GRIDFORMAT
  1
GRIDFORMAT_BEGIN
 90
        0
 91
        1
 62
     0
 92
       -2
340
0
 93
        1
 40
0.045
309
GRIDFORMAT_END
309
TABLEFORMAT_END
  1
CELLSTYLE_BEGIN
 90
        2
 91
        1
300
_HEADER
309
CELLSTYLE_END
300
CELLSTYLE
  1
TABLEFORMAT_BEGIN
 90
        5
170
     1
 91
        0
 92
        0
 62
   257
 93
        1
300
CONTENTFORMAT
  1
CONTENTFORMAT_BEGIN
 90
        0
 91
        0
 92
      512
 93
        0
300

 40
0.0
140
1.0
 94
        4
 62
     0
340
20C
144
0.18
309
CONTENTFORMAT_END
171
     1
301
MARGIN
  1
CELLMARGIN_BEGIN
 40
0.06
 40
0.06
 40
0.06
 40
0.06
 40
0.18
 40
0.18
309
CELLMARGIN_END
 94
        6
 95
        1
302
GRIDFORMAT
  1
GRIDFORMAT_BEGIN
 90
        0
 91
        1
 62
     0
 92
       -2
340
0
 93
        1
 40
0.045
309
GRIDFORMAT_END
 95
        2
302
GRIDFORMAT
  1
GRIDFORMAT_BEGIN
 90
        0
 91
        1
 62
     0
 92
       -2
340
0
 93
        1
 40
0.045
309
GRIDFORMAT_END
 95
        4
302
GRIDFORMAT
  1
GRIDFORMAT_BEGIN
 90
        0
 91
        1
 62
     0
 92
       -2
340
0
 93
        1
 40
0.045
309
GRIDFORMAT_END
 95
        8
302
GRIDFORMAT
  1
GRIDFORMAT_BEGIN
 90
        0
 91
        1
 62
     0
 92
       -2
340
0
 93
        1
 40
0.045
309
GRIDFORMAT_END
 95
       16
302
GRIDFORMAT
  1
GRIDFORMAT_BEGIN
 90
        0
 91
        1
 62
     0
 92
       -2
340
0
 93
        1
 40
0.045
309
GRIDFORMAT_END
 95
       32
302
GRIDFORMAT
  1
GRIDFORMAT_BEGIN
 90
        0
 91
        1
 62
     0
 92
       -2
340
0
 93
        1
 40
0.045
309
GRIDFORMAT_END
309
TABLEFORMAT_END
  1
CELLSTYLE_BEGIN
 90
        3
 91
        2
300
_DATA
309
CELLSTYLE_END
  0
CELLSTYLEMAP
  5
C9E
102
{ACAD_REACTORS
330
104
102
}
330
104
100
AcDbCellStyleMap
 90
        3
300
CELLSTYLE
  1
TABLEFORMAT_BEGIN
 90
        5
170
     1
 91
        0
 92
    32768
 62
   257
 93
        1
300
CONTENTFORMAT
  1
CONTENTFORMAT_BEGIN
 90
        0
 91
        0
 92
      512
 93
        0
300

 40
0.0
140
1.0
 94
        5
 62
     0
340
11
144
0.25
309
CONTENTFORMAT_END
171
     1
301
MARGIN
  1
CELLMARGIN_BEGIN
 40
0.06
 40
0.06
 40
0.06
 40
0.06
 40
0.18
 40
0.18
309
CELLMARGIN_END
 94
        6
 95
        1
302
GRIDFORMAT
  1
GRIDFORMAT_BEGIN
 90
        0
 91
        1
 62
     0
 92
       -2
340
0
 93
        0
 40
0.045
309
GRIDFORMAT_END
 95
        2
302
GRIDFORMAT
  1
GRIDFORMAT_BEGIN
 90
        0
 91
        1
 62
     0
 92
       -2
340
0
 93
        0
 40
0.045
309
GRIDFORMAT_END
 95
        4
302
GRIDFORMAT
  1
GRIDFORMAT_BEGIN
 90
        0
 91
        1
 62
     0
 92
       -2
340
0
 93
        0
 40
0.045
309
GRIDFORMAT_END
 95
        8
302
GRIDFORMAT
  1
GRIDFORMAT_BEGIN
 90
        0
 91
        1
 62
     0
 92
       -2
340
0
 93
        0
 40
0.045
309
GRIDFORMAT_END
 95
       16
302
GRIDFORMAT
  1
GRIDFORMAT_BEGIN
 90
        0
 91
        1
 62
     0
 92
       -2
340
0
 93
        0
 40
0.045
309
GRIDFORMAT_END
 95
       32
302
GRIDFORMAT
  1
GRIDFORMAT_BEGIN
 90
        0
 91
        1
 62
     0
 92
       -2
340
0
 93
        0
 40
0.045
309
GRIDFORMAT_END
309
TABLEFORMAT_END
  1
CELLSTYLE_BEGIN
 90
        1
 91
        1
300
_TITLE
309
CELLSTYLE_END
300
CELLSTYLE
  1
TABLEFORMAT_BEGIN
 90
        5
170
     1
 91
        0
 92
        0
 62
   257
 93
        1
300
CONTENTFORMAT
  1
CONTENTFORMAT_BEGIN
 90
        0
 91
        0
 92
      512
 93
        0
300

 40
0.0
140
1.0
 94
        5
 62
     0
340
11
144
0.18
309
CONTENTFORMAT_END
171
     1
301
MARGIN
  1
CELLMARGIN_BEGIN
 40
0.06
 40
0.06
 40
0.06
 40
0.06
 40
0.18
 40
0.18
309
CELLMARGIN_END
 94
        6
 95
        1
302
GRIDFORMAT
  1
GRIDFORMAT_BEGIN
 90
        0
 91
        1
 62
     0
 92
       -2
340
0
 93
        0
 40
0.045
309
GRIDFORMAT_END
 95
        2
302
GRIDFORMAT
  1
GRIDFORMAT_BEGIN
 90
        0
 91
        1
 62
     0
 92
       -2
340
0
 93
        0
 40
0.045
309
GRIDFORMAT_END
 95
        4
302
GRIDFORMAT
  1
GRIDFORMAT_BEGIN
 90
        0
 91
        1
 62
     0
 92
       -2
340
0
 93
        0
 40
0.045
309
GRIDFORMAT_END
 95
        8
302
GRIDFORMAT
  1
GRIDFORMAT_BEGIN
 90
        0
 91
        1
 62
     0
 92
       -2
340
0
 93
        0
 40
0.045
309
GRIDFORMAT_END
 95
       16
302
GRIDFORMAT
  1
GRIDFORMAT_BEGIN
 90
        0
 91
        1
 62
     0
 92
       -2
340
0
 93
        0
 40
0.045
309
GRIDFORMAT_END
 95
       32
302
GRIDFORMAT
  1
GRIDFORMAT_BEGIN
 90
        0
 91
        1
 62
     0
 92
       -2
340
0
 93
        0
 40
0.045
309
GRIDFORMAT_END
309
TABLEFORMAT_END
  1
CELLSTYLE_BEGIN
 90
        2
 91
        1
300
_HEADER
309
CELLSTYLE_END
300
CELLSTYLE
  1
TABLEFORMAT_BEGIN
 90
        5
170
     1
 91
        0
 92
        0
 62
   257
 93
        1
300
CONTENTFORMAT
  1
CONTENTFORMAT_BEGIN
 90
        0
 91
        0
 92
      512
 93
        0
300

 40
0.0
140
1.0
 94
        2
 62
     0
340
11
144
0.18
309
CONTENTFORMAT_END
171
     1
301
MARGIN
  1
CELLMARGIN_BEGIN
 40
0.06
 40
0.06
 40
0.06
 40
0.06
 40
0.18
 40
0.18
309
CELLMARGIN_END
 94
        6
 95
        1
302
GRIDFORMAT
  1
GRIDFORMAT_BEGIN
 90
        0
 91
        1
 62
     0
 92
       -2
340
0
 93
        0
 40
0.045
309
GRIDFORMAT_END
 95
        2
302
GRIDFORMAT
  1
GRIDFORMAT_BEGIN
 90
        0
 91
        1
 62
     0
 92
       -2
340
0
 93
        0
 40
0.045
309
GRIDFORMAT_END
 95
        4
302
GRIDFORMAT
  1
GRIDFORMAT_BEGIN
 90
        0
 91
        1
 62
     0
 92
       -2
340
0
 93
        0
 40
0.045
309
GRIDFORMAT_END
 95
        8
302
GRIDFORMAT
  1
GRIDFORMAT_BEGIN
 90
        0
 91
        1
 62
     0
 92
       -2
340
0
 93
        0
 40
0.045
309
GRIDFORMAT_END
 95
       16
302
GRIDFORMAT
  1
GRIDFORMAT_BEGIN
 90
        0
 91
        1
 62
     0
 92
       -2
340
0
 93
        0
 40
0.045
309
GRIDFORMAT_END
 95
       32
302
GRIDFORMAT
  1
GRIDFORMAT_BEGIN
 90
        0
 91
        1
 62
     0
 92
       -2
340
0
 93
        0
 40
0.045
309
GRIDFORMAT_END
309
TABLEFORMAT_END
  1
CELLSTYLE_BEGIN
 90
        3
 91
        2
300
_DATA
309
CELLSTYLE_END
  0
DMBASEELEMENT
  5
20E
102
{ACAD_XDICTIONARY
360
212
102
}
102
{ACAD_REACTORS
330
20B
102
}
330
20B
100
AcMapDMBaseElement
 70
     1
  1
Kartenbasis
 70
     1
330
20B
100
AcMapDMBaseElement
 70
     2
  1

 70
     2
  1

 70
     1
 40
1.797693134862314E+99
 70
        1
 70
     1
 70
     1
 70
     1
360
211
100
AcMapDMBaseElement
 70
     1
  0
DMDEFAULTSTYLE
  5
20F
102
{ACAD_REACTORS
330
20B
102
}
330
20B
100
AcMapDMDefaultStyle
 70
     1
 90
        1
  1
Vorgabe
100
AcMapDMDefaultStyle
 70
     1
280
   100
 90
        0
1001
AcMapDMDisplayStyleRegapp
1070
     2
1071
        1
1000
Vorgabe
1000

  0
DICTIONARY
  5
212
330
20E
100
AcDbDictionary
280
     1
281
     1
  3
AcMapDMSurrogateStyleSets
360
213
  0
DMSTYLEREFERENCE
  5
211
330
20E
100
AcMapDMStyleReference
 70
     1
 70
     0
340
20F
330
20B
  0
DMSURROGATESTYLESETS
  5
213
102
{ACAD_REACTORS
330
212
102
}
330
212
100
AcMapDMSurrogateStyleSets
 70
     1
  1
Kartenbasis
 70
     1
 40
1.797693134862314E+99
 70
        1
 70
     1
 70
     1
 70
     1
330
211
 70
     0
  0
ENDSEC
  0
SECTION
  2
ACDSDATA
 70
     2
 71
     8
  0
ACDSSCHEMA
 90
        0
  1
AcDb_Thumbnail_Schema
  2
AcDbDs::ID
280
    10
 91
        8
  2
Thumbnail_Data
280
    15
 91
        0
101
ACDSRECORD
 95
        0
 90
        1
  2
AcDbDs::TreatedAsObjectData
280
     1
291
     1
101
ACDSRECORD
 95
        0
 90
        2
  2
AcDbDs::Legacy
280
     1
291
     1
101
ACDSRECORD
  1
AcDbDs::ID
 90
        3
  2
AcDs:Indexable
280
     1
291
     1
101
ACDSRECORD
  1
AcDbDs::ID
 90
        4
  2
AcDbDs::HandleAttribute
280
     7
282
     1
  0
ACDSSCHEMA
 90
        1
  1
AcDbDs::TreatedAsObjectDataSchema
  2
AcDbDs::TreatedAsObjectData
280
     1
 91
        0
  0
ACDSSCHEMA
 90
        2
  1
AcDbDs::LegacySchema
  2
AcDbDs::Legacy
280
     1
 91
        0
  0
ACDSSCHEMA
 90
        3
  1
AcDbDs::IndexedPropertySchema
  2
AcDs:Indexable
280
     1
 91
        0
  0
ACDSSCHEMA
 90
        4
  1
AcDbDs::HandleAttributeSchema
  2
AcDbDs::HandleAttribute
280
     7
 91
        1
284
     1
  0
ACDSRECORD
 90
        0
  2
AcDbDs::ID
280
    10
320
22
  2
Thumbnail_Data
280
    15
 94
     1330
310
89504E470D0A1A0A0000000D49484452000001000000009308030000005629370D00000300504C5445000000FFFFFF0000000000000000000000000000000000000000000000000000000000330000660000990000CC0000FF0033000033330033660033990033CC0033FF0066000066330066660066990066CC0066FF0099
310
000099330099660099990099CC0099FF00CC0000CC3300CC6600CC9900CCCC00CCFF00FF0000FF3300FF6600FF9900FFCC00FFFF3300003300333300663300993300CC3300FF3333003333333333663333993333CC3333FF3366003366333366663366993366CC3366FF3399003399333399663399993399CC3399FF33CC00
310
33CC3333CC6633CC9933CCCC33CCFF33FF0033FF3333FF6633FF9933FFCC33FFFF6600006600336600666600996600CC6600FF6633006633336633666633996633CC6633FF6666006666336666666666996666CC6666FF6699006699336699666699996699CC6699FF66CC0066CC3366CC6666CC9966CCCC66CCFF66FF0066
310
FF3366FF6666FF9966FFCC66FFFF9900009900339900669900999900CC9900FF9933009933339933669933999933CC9933FF9966009966339966669966999966CC9966FF9999009999339999669999999999CC9999FF99CC0099CC3399CC6699CC9999CCCC99CCFF99FF0099FF3399FF6699FF9999FFCC99FFFFCC0000CC00
310
33CC0066CC0099CC00CCCC00FFCC3300CC3333CC3366CC3399CC33CCCC33FFCC6600CC6633CC6666CC6699CC66CCCC66FFCC9900CC9933CC9966CC9999CC99CCCC99FFCCCC00CCCC33CCCC66CCCC99CCCCCCCCCCFFCCFF00CCFF33CCFF66CCFF99CCFFCCCCFFFFFF0000FF0033FF0066FF0099FF00CCFF00FFFF3300FF3333
310
FF3366FF3399FF33CCFF33FFFF6600FF6633FF6666FF6699FF66CCFF66FFFF9900FF9933FF9966FF9999FF99CCFF99FFFFCC00FFCC33FFCC66FFCC99FFCCCCFFCCFFFFFF00FFFF33FFFF66FFFF99FFFFCCFFFFFF0000000D0D0D1A1A1A2828283535354343435050505D5D5D6B6B6B787878868686939393A1A1A1AEAEAEBB
310
BBBBC9C9C9D6D6D6E4E4E4F1F1F1FFFFFF0000000000000000000000000000000000000000000000000000000000003AE5ACE90000003B4944415478DAEDC13101000000C2A0F54F6D0B2FA0000000000000000000000000000000000000000000000000000000000000000000000000E06A93930001A473B9F40000000049
310
454E44AE42608200A7F5075600011080F753200DE0F8DEB51A804C9C062066E55F1740F1C841C5FEEE0FD7D25602582A36ACFECA87809AF5BD987EE676EA1FCEECF6F5B714C0587F50EB06A898C066D2284601A8EAF9552B47EA3EAEEC1A6D786FFD4BE0CC279E0AD5B8721DD50C61BEB2D5996D68A4EC8FFBE35E6F82A816
310
82619BE5F76DEA8FAFFDF1E40432176FF612AF97814D0271417B4114EE6FB576C565072ABEC87EEBAA463B5B4911553298B75F55DBF26D6EFB15E7CDE26BC995639B0A87048BF57FD30BF7E7D9E1B6374EBD6368B173681239759A6C7BEA9662CDE619FD7B5D0EF1B775FF5915FAB4D3FDF353F89E99D3BD9D117DCD4303FC
310
68F3E8741A5C2410E5312D84DAF386C706506B82D95000CBDD4F0DA0F59CE4E0009F3CC2EBB151641AE12545D0E542593A206123E83580AF972A4FF54F2DB0CE85DF437D7115C0B6323998CEF7FBC43C7C3B4CD26BFDD961741DC0C729A2B700243780AF2F6AEB0114FEBAB6BD0F14DC3B79FF3144EF5BE03F7B63E3CF00F5
310
DCFEA501F43047D2E03C804000773E433B08C0F97FF3020000000000000000000000000000C08517606B191C6EB8EDC80000000049454E44AE426082
  0
ENDSEC
  0
EOF
