  0
SECTION
  2
HEADER
  9
$ACADVER
  1
AC1027
  9
$ACADMAINTVER
 70
   125
  9
$DWGCODEPAGE
  3
ANSI_1252
  9
$LASTSAVEDBY
  1
P04857991
  9
$REQUIREDVERSIONS
160
                 0
  9
$INSBASE
 10
0.0
 20
0.0
 30
0.0
  9
$EXTMIN
 10
-24531.09412366323
 20
330621.7817185801
 30
-0.0015258207003583
  9
$EXTMAX
 10
-24146.39321045551
 20
331985.9410087697
 30
0.0000000349246037
  9
$LIMMIN
 10
0.0
 20
0.0
  9
$LIMMAX
 10
12.0
 20
9.0
  9
$ORTHOMODE
 70
     0
  9
$REGENMODE
 70
     1
  9
$FILLMODE
 70
     1
  9
$QTEXTMODE
 70
     0
  9
$MIRRTEXT
 70
     0
  9
$LTSCALE
 40
1.0
  9
$ATTMODE
 70
     1
  9
$TEXTSIZE
 40
0.2
  9
$TRACEWID
 40
0.05
  9
$TEXTSTYLE
  7
Legend
  9
$CLAYER
  8
0
  9
$CELTYPE
  6
ByLayer
  9
$CECOLOR
 62
   256
  9
$CELTSCALE
 40
1.0
  9
$DISPSILH
 70
     0
  9
$DIMSCALE
 40
1.0
  9
$DIMASZ
 40
0.18
  9
$DIMEXO
 40
0.0625
  9
$DIMDLI
 40
0.38
  9
$DIMRND
 40
0.0
  9
$DIMDLE
 40
0.0
  9
$DIMEXE
 40
0.18
  9
$DIMTP
 40
0.0
  9
$DIMTM
 40
0.0
  9
$DIMTXT
 40
0.18
  9
$DIMCEN
 40
0.09
  9
$DIMTSZ
 40
0.0
  9
$DIMTOL
 70
     0
  9
$DIMLIM
 70
     0
  9
$DIMTIH
 70
     1
  9
$DIMTOH
 70
     1
  9
$DIMSE1
 70
     0
  9
$DIMSE2
 70
     0
  9
$DIMTAD
 70
     0
  9
$DIMZIN
 70
     0
  9
$DIMBLK
  1

  9
$DIMASO
 70
     1
  9
$DIMSHO
 70
     1
  9
$DIMPOST
  1

  9
$DIMAPOST
  1

  9
$DIMALT
 70
     0
  9
$DIMALTD
 70
     2
  9
$DIMALTF
 40
25.4
  9
$DIMLFAC
 40
1.0
  9
$DIMTOFL
 70
     0
  9
$DIMTVP
 40
0.0
  9
$DIMTIX
 70
     0
  9
$DIMSOXD
 70
     0
  9
$DIMSAH
 70
     0
  9
$DIMBLK1
  1

  9
$DIMBLK2
  1

  9
$DIMSTYLE
  2
Standard
  9
$DIMCLRD
 70
     0
  9
$DIMCLRE
 70
     0
  9
$DIMCLRT
 70
     0
  9
$DIMTFAC
 40
1.0
  9
$DIMGAP
 40
0.09
  9
$DIMJUST
 70
     0
  9
$DIMSD1
 70
     0
  9
$DIMSD2
 70
     0
  9
$DIMTOLJ
 70
     1
  9
$DIMTZIN
 70
     0
  9
$DIMALTZ
 70
     0
  9
$DIMALTTZ
 70
     0
  9
$DIMUPT
 70
     0
  9
$DIMDEC
 70
     4
  9
$DIMTDEC
 70
     4
  9
$DIMALTU
 70
     2
  9
$DIMALTTD
 70
     2
  9
$DIMTXSTY
  7
Standard
  9
$DIMAUNIT
 70
     0
  9
$DIMADEC
 70
     0
  9
$DIMALTRND
 40
0.0
  9
$DIMAZIN
 70
     0
  9
$DIMDSEP
 70
    46
  9
$DIMATFIT
 70
     3
  9
$DIMFRAC
 70
     0
  9
$DIMLDRBLK
  1

  9
$DIMLUNIT
 70
     2
  9
$DIMLWD
 70
    -2
  9
$DIMLWE
 70
    -2
  9
$DIMTMOVE
 70
     0
  9
$DIMFXL
 40
1.0
  9
$DIMFXLON
 70
     0
  9
$DIMJOGANG
 40
0.7853981633974483
  9
$DIMTFILL
 70
     0
  9
$DIMTFILLCLR
 70
     0
  9
$DIMARCSYM
 70
     0
  9
$DIMLTYPE
  6

  9
$DIMLTEX1
  6

  9
$DIMLTEX2
  6

  9
$DIMTXTDIRECTION
 70
     0
  9
$LUNITS
 70
     2
  9
$LUPREC
 70
     4
  9
$SKETCHINC
 40
0.1
  9
$FILLETRAD
 40
0.0
  9
$AUNITS
 70
     0
  9
$AUPREC
 70
     0
  9
$MENU
  1
.
  9
$ELEVATION
 40
0.0
  9
$PELEVATION
 40
0.0
  9
$THICKNESS
 40
0.0
  9
$LIMCHECK
 70
     0
  9
$CHAMFERA
 40
0.0
  9
$CHAMFERB
 40
0.0
  9
$CHAMFERC
 40
0.0
  9
$CHAMFERD
 40
0.0
  9
$SKPOLY
 70
     0
  9
$TDCREATE
 40
2459389.492465278
  9
$TDUCREATE
 40
2459389.409131945
  9
$TDUPDATE
 40
2459394.531655093
  9
$TDUUPDATE
 40
2459394.448321759
  9
$TDINDWG
 40
0.9226273148
  9
$TDUSRTIMER
 40
0.9226041667
  9
$USRTIMER
 70
     1
  9
$ANGBASE
 50
0.0
  9
$ANGDIR
 70
     0
  9
$PDMODE
 70
     0
  9
$PDSIZE
 40
0.0
  9
$PLINEWID
 40
0.0
  9
$SPLFRAME
 70
     0
  9
$SPLINETYPE
 70
     6
  9
$SPLINESEGS
 70
     8
  9
$HANDSEED
  5
AD1
  9
$SURFTAB1
 70
     6
  9
$SURFTAB2
 70
     6
  9
$SURFTYPE
 70
     6
  9
$SURFU
 70
     6
  9
$SURFV
 70
     6
  9
$UCSBASE
  2

  9
$UCSNAME
  2

  9
$UCSORG
 10
0.0
 20
0.0
 30
0.0
  9
$UCSXDIR
 10
1.0
 20
0.0
 30
0.0
  9
$UCSYDIR
 10
0.0
 20
1.0
 30
0.0
  9
$UCSORTHOREF
  2

  9
$UCSORTHOVIEW
 70
     0
  9
$UCSORGTOP
 10
0.0
 20
0.0
 30
0.0
  9
$UCSORGBOTTOM
 10
0.0
 20
0.0
 30
0.0
  9
$UCSORGLEFT
 10
0.0
 20
0.0
 30
0.0
  9
$UCSORGRIGHT
 10
0.0
 20
0.0
 30
0.0
  9
$UCSORGFRONT
 10
0.0
 20
0.0
 30
0.0
  9
$UCSORGBACK
 10
0.0
 20
0.0
 30
0.0
  9
$PUCSBASE
  2

  9
$PUCSNAME
  2

  9
$PUCSORG
 10
0.0
 20
0.0
 30
0.0
  9
$PUCSXDIR
 10
1.0
 20
0.0
 30
0.0
  9
$PUCSYDIR
 10
0.0
 20
1.0
 30
0.0
  9
$PUCSORTHOREF
  2

  9
$PUCSORTHOVIEW
 70
     0
  9
$PUCSORGTOP
 10
0.0
 20
0.0
 30
0.0
  9
$PUCSORGBOTTOM
 10
0.0
 20
0.0
 30
0.0
  9
$PUCSORGLEFT
 10
0.0
 20
0.0
 30
0.0
  9
$PUCSORGRIGHT
 10
0.0
 20
0.0
 30
0.0
  9
$PUCSORGFRONT
 10
0.0
 20
0.0
 30
0.0
  9
$PUCSORGBACK
 10
0.0
 20
0.0
 30
0.0
  9
$USERI1
 70
     0
  9
$USERI2
 70
     0
  9
$USERI3
 70
     0
  9
$USERI4
 70
     0
  9
$USERI5
 70
     0
  9
$USERR1
 40
0.0
  9
$USERR2
 40
0.0
  9
$USERR3
 40
0.0
  9
$USERR4
 40
0.0
  9
$USERR5
 40
0.0
  9
$WORLDVIEW
 70
     1
  9
$SHADEDGE
 70
     3
  9
$SHADEDIF
 70
    70
  9
$TILEMODE
 70
     1
  9
$MAXACTVP
 70
    64
  9
$PINSBASE
 10
0.0
 20
0.0
 30
0.0
  9
$PLIMCHECK
 70
     0
  9
$PEXTMIN
 10
0.0
 20
0.0
 30
0.0
  9
$PEXTMAX
 10
0.0
 20
0.0
 30
0.0
  9
$PLIMMIN
 10
0.0
 20
0.0
  9
$PLIMMAX
 10
12.0
 20
9.0
  9
$UNITMODE
 70
     0
  9
$VISRETAIN
 70
     1
  9
$PLINEGEN
 70
     0
  9
$PSLTSCALE
 70
     1
  9
$TREEDEPTH
 70
  3020
  9
$CMLSTYLE
  2
Standard
  9
$CMLJUST
 70
     0
  9
$CMLSCALE
 40
1.0
  9
$PROXYGRAPHICS
 70
     1
  9
$MEASUREMENT
 70
     1
  9
$CELWEIGHT
370
    -1
  9
$ENDCAPS
280
     0
  9
$JOINSTYLE
280
     0
  9
$LWDISPLAY
290
     0
  9
$INSUNITS
 70
     1
  9
$HYPERLINKBASE
  1

  9
$STYLESHEET
  1

  9
$XEDIT
290
     1
  9
$CEPSNTYPE
380
     0
  9
$PSTYLEMODE
290
     1
  9
$FINGERPRINTGUID
  2
{64AB614E-DCAE-D841-BC38-59E23EB6FA23}
  9
$VERSIONGUID
  2
{583A98FD-E931-8C4D-A230-4F191E91E5BD}
  9
$EXTNAMES
290
     1
  9
$PSVPSCALE
 40
0.0
  9
$OLESTARTUP
290
     0
  9
$SORTENTS
280
   127
  9
$INDEXCTL
280
     0
  9
$HIDETEXT
280
     1
  9
$XCLIPFRAME
280
     2
  9
$HALOGAP
280
     0
  9
$OBSCOLOR
 70
   257
  9
$OBSLTYPE
280
     0
  9
$INTERSECTIONDISPLAY
280
     0
  9
$INTERSECTIONCOLOR
 70
   257
  9
$DIMASSOC
280
     2
  9
$PROJECTNAME
  1

  9
$CAMERADISPLAY
290
     0
  9
$LENSLENGTH
 40
50.0
  9
$CAMERAHEIGHT
 40
0.0
  9
$STEPSPERSEC
 40
2.0
  9
$STEPSIZE
 40
100.0
  9
$3DDWFPREC
 40
2.0
  9
$PSOLWIDTH
 40
0.25
  9
$PSOLHEIGHT
 40
4.0
  9
$LOFTANG1
 40
1.570796326794896
  9
$LOFTANG2
 40
1.570796326794896
  9
$LOFTMAG1
 40
0.0
  9
$LOFTMAG2
 40
0.0
  9
$LOFTPARAM
 70
     7
  9
$LOFTNORMALS
280
     1
  9
$LATITUDE
 40
37.795
  9
$LONGITUDE
 40
-122.394
  9
$NORTHDIRECTION
 40
0.0
  9
$TIMEZONE
 70
 -8000
  9
$LIGHTGLYPHDISPLAY
280
     1
  9
$TILEMODELIGHTSYNCH
280
     1
  9
$CMATERIAL
347
96
  9
$SOLIDHIST
280
     0
  9
$SHOWHIST
280
     1
  9
$DWFFRAME
280
     2
  9
$DGNFRAME
280
     0
  9
$REALWORLDSCALE
290
     1
  9
$INTERFERECOLOR
 62
     1
  9
$INTERFEREOBJVS
345
A3
  9
$INTERFEREVPVS
346
A0
  9
$CSHADOW
280
     0
  9
$SHADOWPLANELOCATION
 40
0.0
  0
ENDSEC
  0
SECTION
  2
CLASSES
  0
CLASS
  1
ACDBDICTIONARYWDFLT
  2
AcDbDictionaryWithDefault
  3
ObjectDBX Classes
 90
        0
 91
        1
280
     0
281
     0
  0
CLASS
  1
DICTIONARYVAR
  2
AcDbDictionaryVar
  3
ObjectDBX Classes
 90
        0
 91
        9
280
     0
281
     0
  0
CLASS
  1
TABLESTYLE
  2
AcDbTableStyle
  3
ObjectDBX Classes
 90
     4095
 91
        2
280
     0
281
     0
  0
CLASS
  1
MATERIAL
  2
AcDbMaterial
  3
ObjectDBX Classes
 90
     1153
 91
        3
280
     0
281
     0
  0
CLASS
  1
VISUALSTYLE
  2
AcDbVisualStyle
  3
ObjectDBX Classes
 90
     4095
 91
       24
280
     0
281
     0
  0
CLASS
  1
SCALE
  2
AcDbScale
  3
ObjectDBX Classes
 90
     1153
 91
       33
280
     0
281
     0
  0
CLASS
  1
MLEADERSTYLE
  2
AcDbMLeaderStyle
  3
ACDB_MLEADERSTYLE_CLASS
 90
     4095
 91
        2
280
     0
281
     0
  0
CLASS
  1
CELLSTYLEMAP
  2
AcDbCellStyleMap
  3
ObjectDBX Classes
 90
     1152
 91
        6
280
     0
281
     0
  0
CLASS
  1
EXACXREFPANELOBJECT
  2
ExAcXREFPanelObject
  3
EXAC_ESW
 90
     1025
 91
        0
280
     0
281
     0
  0
CLASS
  1
NPOCOLLECTION
  2
AcDbImpNonPersistentObjectsCollection
  3
ObjectDBX Classes
 90
     1153
 91
        0
280
     0
281
     0
  0
CLASS
  1
LAYER_INDEX
  2
AcDbLayerIndex
  3
ObjectDBX Classes
 90
        0
 91
        0
280
     0
281
     0
  0
CLASS
  1
SPATIAL_INDEX
  2
AcDbSpatialIndex
  3
ObjectDBX Classes
 90
        0
 91
        0
280
     0
281
     0
  0
CLASS
  1
IDBUFFER
  2
AcDbIdBuffer
  3
ObjectDBX Classes
 90
        0
 91
        0
280
     0
281
     0
  0
CLASS
  1
ACDBSECTIONVIEWSTYLE
  2
AcDbSectionViewStyle
  3
ObjectDBX Classes
 90
     1025
 91
        2
280
     0
281
     0
  0
CLASS
  1
ACDBDETAILVIEWSTYLE
  2
AcDbDetailViewStyle
  3
ObjectDBX Classes
 90
     1025
 91
        2
280
     0
281
     0
  0
CLASS
  1
DMMAPMANAGER
  2
AcMapDMMapManager
  3
AcMapDisplayManagement
 90
     1024
 91
        1
280
     0
281
     0
  0
CLASS
  1
DMSTYLELIBRARY
  2
AcMapDMStyleLibrary
  3
AcMapDisplayManagement
 90
     1024
 91
        1
280
     0
281
     0
  0
CLASS
  1
DMSTYLECATEGORY
  2
AcMapDMStyleCategory
  3
AcMapDisplayManagement
 90
     1024
 91
        1
280
     0
281
     0
  0
CLASS
  1
DATATABLE
  2
AcDbDataTable
  3
ObjectDBX Classes
 90
        0
 91
        1
280
     0
281
     0
  0
CLASS
  1
MAPRESOURCEMANAGEROBJECT
  2
AcMapResourceManager
  3
AcMapSharedComponents
 90
     1024
 91
        1
280
     0
281
     0
  0
CLASS
  1
MAPGWSUNDOOBJECT
  2
AcMapGWSUndoRecorder
  3
AcMapFeatureSourceManager
 90
     1025
 91
        1
280
     0
281
     0
  0
CLASS
  1
DMMAP
  2
AcMapDMMap
  3
AcMapDisplayManagement
 90
     1024
 91
        1
280
     0
281
     0
  0
CLASS
  1
DMBASEELEMENT
  2
AcMapDMBaseElement
  3
AcMapDisplayManagement
 90
     1024
 91
        1
280
     0
281
     0
  0
CLASS
  1
DMDEFAULTSTYLE
  2
AcMapDMDefaultStyle
  3
AcMapDisplayManagement
 90
     1024
 91
        1
280
     0
281
     0
  0
CLASS
  1
DMSTYLEREFERENCE
  2
AcMapDMStyleReference
  3
AcMapDisplayManagement
 90
     1024
 91
        1
280
     0
281
     0
  0
CLASS
  1
DMSURROGATESTYLESETS
  2
AcMapDMSurrogateStyleSets
  3
AcMapDisplayManagement
 90
     1153
 91
        1
280
     0
281
     0
  0
CLASS
  1
SORTENTSTABLE
  2
AcDbSortentsTable
  3
ObjectDBX Classes
 90
        0
 91
        1
280
     0
281
     0
  0
CLASS
  1
DMSTYLIZEDENTITIESTABLE
  2
AcMapDMStylizedEntitiesTable
  3
AcMapDisplayManagement
 90
     1024
 91
        1
280
     0
281
     0
  0
CLASS
  1
SUN
  2
AcDbSun
  3
SCENEOE
 90
     1153
 91
        1
280
     0
281
     0
  0
CLASS
  1
IRD_DSC_DICT
  2
CIrdDscDict
  3
"IRD"
 90
     1025
 91
        1
280
     0
281
     0
  0
CLASS
  1
IRD_DSC_RECORD
  2
CIrdDscRecord
  3
"IRD"
 90
     1025
 91
        3
280
     0
281
     0
  0
CLASS
  1
IRD_OBJ_RECORD
  2
CIrdObjRecord
  3
"IRD"
 90
     1025
 91
        0
280
     0
281
     0
  0
ENDSEC
  0
SECTION
  2
TABLES
  0
TABLE
  2
VPORT
  5
8
330
0
100
AcDbSymbolTable
 70
     1
1001
ACAD
1000
DbSaveVer
1071
      122
  0
VPORT
  5
94
330
8
100
AcDbSymbolTableRecord
100
AcDbViewportTableRecord
  2
*Active
 70
     0
 10
0.0
 20
0.0
 11
1.0
 21
1.0
 12
-24338.74366705937
 22
331303.8613636749
 13
0.0
 23
0.0
 14
0.5
 24
0.5
 15
0.5
 25
0.5
 16
0.0
 26
0.0
 36
1.0
 17
0.0
 27
0.0
 37
0.0
 40
1376.303141437587
 41
1.736998514115899
 42
50.0
 43
0.0
 44
0.0
 50
0.0
 51
0.0
 71
     0
 72
  1000
 73
     1
 74
     3
 75
     0
 76
     0
 77
     0
 78
     0
281
     0
 65
     1
110
0.0
120
0.0
130
0.0
111
1.0
121
0.0
131
0.0
112
0.0
122
1.0
132
0.0
 79
     0
146
0.0
348
9F
 60
     3
 61
     5
292
     1
282
     1
141
0.0
142
0.0
 63
   250
421
  3355443
361
217
1001
ACAD_NAV_VCDISPLAY
1070
     3
  0
ENDTAB
  0
TABLE
  2
LTYPE
  5
5
330
0
100
AcDbSymbolTable
 70
     3
  0
LTYPE
  5
14
330
5
100
AcDbSymbolTableRecord
100
AcDbLinetypeTableRecord
  2
ByBlock
 70
     0
  3

 72
    65
 73
     0
 40
0.0
  0
LTYPE
  5
15
330
5
100
AcDbSymbolTableRecord
100
AcDbLinetypeTableRecord
  2
ByLayer
 70
     0
  3

 72
    65
 73
     0
 40
0.0
  0
LTYPE
  5
16
330
5
100
AcDbSymbolTableRecord
100
AcDbLinetypeTableRecord
  2
Continuous
 70
     0
  3
Solid line
 72
    65
 73
     0
 40
0.0
  0
LTYPE
  5
265
330
5
100
AcDbSymbolTableRecord
100
AcDbLinetypeTableRecord
  2
STRP1
 70
     0
  3
strichpunktierte linie fuer einbauteile
 72
    65
 73
     4
 40
0.4100000000000001
 49
0.25
 74
     0
 49
-0.06
 74
     0
 49
0.04
 74
     0
 49
-0.06
 74
     0
  0
LTYPE
  5
266
330
5
100
AcDbSymbolTableRecord
100
AcDbLinetypeTableRecord
  2
PT1
 70
     0
  3
punktierte linie - eng
 72
    65
 73
     2
 40
0.07
 49
0.02
 74
     0
 49
-0.05
 74
     0
  0
ENDTAB
  0
TABLE
  2
LAYER
  5
2
102
{ACAD_XDICTIONARY
360
18E
102
}
330
0
100
AcDbSymbolTable
 70
     3
  0
LAYER
  5
10
102
{ACAD_XDICTIONARY
360
E6
102
}
330
2
100
AcDbSymbolTableRecord
100
AcDbLayerTableRecord
  2
0
 70
     0
 62
     7
  6
Continuous
370
    -3
390
F
347
98
348
0
  0
LAYER
  5
50B
330
2
100
AcDbSymbolTableRecord
100
AcDbLayerTableRecord
  2
Straßenverlauf_ACHS
 70
     0
 62
    50
  6
Continuous
370
    -3
390
F
347
98
348
0
  0
LAYER
  5
547
330
2
100
AcDbSymbolTableRecord
100
AcDbLayerTableRecord
  2
Straßenverlauf_FBRD
 70
     0
 62
    10
  6
Continuous
370
    -3
390
F
347
98
348
0
  0
ENDTAB
  0
TABLE
  2
STYLE
  5
3
330
0
100
AcDbSymbolTable
 70
     3
  0
STYLE
  5
11
330
3
100
AcDbSymbolTableRecord
100
AcDbTextStyleTableRecord
  2
Standard
 70
     0
 40
0.0
 41
1.0
 50
0.0
 71
     0
 42
0.2
  3
arial.ttf
  4

1001
ACAD
1000
Arial
1071
       34
  0
STYLE
  5
DC
330
3
100
AcDbSymbolTableRecord
100
AcDbTextStyleTableRecord
  2
Beschriftung
 70
     0
 40
0.0
 41
1.0
 50
0.0
 71
     0
 42
0.2
  3
arial.ttf
  4

1001
AcadAnnotative
1000
AnnotativeData
1002
{
1070
     1
1070
     1
1002
}
1001
ACAD
1000
Arial
1071
       34
  0
STYLE
  5
20C
330
3
100
AcDbSymbolTableRecord
100
AcDbTextStyleTableRecord
  2
Legend
 70
     0
 40
0.0
 41
1.0
 50
0.0
 71
     0
 42
0.2
  3
calibri.ttf
  4

1001
ACAD
1000
Calibri
1071
       80
  0
ENDTAB
  0
TABLE
  2
VIEW
  5
6
330
0
100
AcDbSymbolTable
 70
     1
  0
ENDTAB
  0
TABLE
  2
UCS
  5
7
330
0
100
AcDbSymbolTable
 70
     0
  0
ENDTAB
  0
TABLE
  2
APPID
  5
9
330
0
100
AcDbSymbolTable
 70
    14
  0
APPID
  5
12
330
9
100
AcDbSymbolTableRecord
100
AcDbRegAppTableRecord
  2
ACAD
 70
     0
  0
APPID
  5
DD
330
9
100
AcDbSymbolTableRecord
100
AcDbRegAppTableRecord
  2
AcadAnnoPO
 70
     0
  0
APPID
  5
DE
330
9
100
AcDbSymbolTableRecord
100
AcDbRegAppTableRecord
  2
AcadAnnotative
 70
     0
  0
APPID
  5
DF
330
9
100
AcDbSymbolTableRecord
100
AcDbRegAppTableRecord
  2
ACAD_DSTYLE_DIMJAG
 70
     0
  0
APPID
  5
E0
330
9
100
AcDbSymbolTableRecord
100
AcDbRegAppTableRecord
  2
ACAD_DSTYLE_DIMTALN
 70
     0
  0
APPID
  5
107
330
9
100
AcDbSymbolTableRecord
100
AcDbRegAppTableRecord
  2
ACAD_MLEADERVER
 70
     0
  0
APPID
  5
1A6
330
9
100
AcDbSymbolTableRecord
100
AcDbRegAppTableRecord
  2
ACAD_NAV_VCDISPLAY
 70
     0
  0
APPID
  5
210
330
9
100
AcDbSymbolTableRecord
100
AcDbRegAppTableRecord
  2
AcMapDMDisplayStyleRegapp
 70
     0
  0
APPID
  5
21A
330
9
100
AcDbSymbolTableRecord
100
AcDbRegAppTableRecord
  2
ADE
 70
     0
  0
APPID
  5
21F
330
9
100
AcDbSymbolTableRecord
100
AcDbRegAppTableRecord
  2
DCO15
 70
     0
  0
APPID
  5
221
330
9
100
AcDbSymbolTableRecord
100
AcDbRegAppTableRecord
  2
MapGWS
 70
     0
  0
APPID
  5
32B
330
9
100
AcDbSymbolTableRecord
100
AcDbRegAppTableRecord
  2
ADE_PROJECTION
 70
     0
  0
APPID
  5
343
330
9
100
AcDbSymbolTableRecord
100
AcDbRegAppTableRecord
  2
AcMap_E615D161-C9D7-11d3-839F-0060B0FB6B57
 70
     0
  0
APPID
  5
347
330
9
100
AcDbSymbolTableRecord
100
AcDbRegAppTableRecord
  2
IRD
 70
     0
  0
ENDTAB
  0
TABLE
  2
DIMSTYLE
  5
A
330
0
100
AcDbSymbolTable
 70
     2
100
AcDbDimStyleTable
 71
     2
340
27
340
E1
  0
DIMSTYLE
105
27
330
A
100
AcDbSymbolTableRecord
100
AcDbDimStyleTableRecord
  2
Standard
 70
     0
340
11
  0
DIMSTYLE
105
E1
330
A
100
AcDbSymbolTableRecord
100
AcDbDimStyleTableRecord
  2
Beschriftung
 70
     0
 40
0.0
340
11
1001
AcadAnnotative
1000
AnnotativeData
1002
{
1070
     1
1070
     1
1002
}
1001
ACAD_DSTYLE_DIMJAG
1070
   388
1040
1.5
1001
ACAD_DSTYLE_DIMTALN
1070
   392
1070
     0
  0
ENDTAB
  0
TABLE
  2
BLOCK_RECORD
  5
1
330
0
100
AcDbSymbolTable
 70
     1
  0
BLOCK_RECORD
  5
1F
102
{ACAD_XDICTIONARY
360
15D
102
}
330
1
100
AcDbSymbolTableRecord
100
AcDbBlockTableRecord
  2
*Model_Space
340
22
 70
     0
280
     1
281
     0
  0
BLOCK_RECORD
  5
58
330
1
100
AcDbSymbolTableRecord
100
AcDbBlockTableRecord
  2
*Paper_Space
340
59
 70
     0
280
     1
281
     0
  0
BLOCK_RECORD
  5
5D
330
1
100
AcDbSymbolTableRecord
100
AcDbBlockTableRecord
  2
*Paper_Space0
340
5E
 70
     0
280
     1
281
     0
  0
ENDTAB
  0
ENDSEC
  0
SECTION
  2
BLOCKS
  0
BLOCK
  5
20
330
1F
100
AcDbEntity
  8
0
100
AcDbBlockBegin
  2
*Model_Space
 70
     0
 10
0.0
 20
0.0
 30
0.0
  3
*Model_Space
  1

  0
ENDBLK
  5
21
330
1F
100
AcDbEntity
  8
0
100
AcDbBlockEnd
  0
BLOCK
  5
5A
330
58
100
AcDbEntity
 67
     1
  8
0
100
AcDbBlockBegin
  2
*Paper_Space
 70
     0
 10
0.0
 20
0.0
 30
0.0
  3
*Paper_Space
  1

  0
ENDBLK
  5
5B
330
58
100
AcDbEntity
 67
     1
  8
0
100
AcDbBlockEnd
  0
BLOCK
  5
5F
330
5D
100
AcDbEntity
 67
     1
  8
0
100
AcDbBlockBegin
  2
*Paper_Space0
 70
     0
 10
0.0
 20
0.0
 30
0.0
  3
*Paper_Space0
  1

  0
ENDBLK
  5
60
330
5D
100
AcDbEntity
 67
     1
  8
0
100
AcDbBlockEnd
  0
ENDSEC
  0
SECTION
  2
ENTITIES
  0
LWPOLYLINE
  5
A74
330
1F
100
AcDbEntity
  8
Straßenverlauf_ACHS
100
AcDbPolyline
 90
      466
 70
     0
 43
0.0
 10
-24515.98099999968
 20
330655.6380000003
 10
-24519.57029999979
 20
330881.0653000008
 10
-24519.58629999962
 20
330882.0754000005
 10
-24519.60230000038
 20
330883.0855999999
 10
-24519.61809999962
 20
330884.0956999995
 10
-24519.63360000029
 20
330885.1059000008
 10
-24519.64869999979
 20
330886.1161000002
 10
-24519.66330000013
 20
330887.1262999997
 10
-24519.67729999963
 20
330888.1364999991
 10
-24519.69060000032
 20
330889.1467000004
 10
-24519.70320000034
 20
330890.1568999998
 10
-24519.71490000002
 20
330891.1670999993
 10
-24519.72559999954
 20
330892.1773000006
 10
-24519.73529999983
 20
330893.1875999999
 10
-24519.74380000029
 20
330894.1977999993
 10
-24519.75100000017
 20
330895.2081000004
 10
-24519.75679999963
 20
330896.2183999997
 10
-24519.7611999996
 20
330897.2287000008
 10
-24519.76410000026
 20
330898.2389000003
 10
-24519.76530000009
 20
330899.2491999995
 10
-24519.76470000018
 20
330900.2595000006
 10
-24519.7622999996
 20
330901.2698
 10
-24519.75789999962
 20
330902.2800999992
 10
-24519.75150000025
 20
330903.2904000003
 10
-24519.74299999978
 20
330904.3005999998
 10
-24519.73220000044
 20
330905.3107999992
 10
-24519.71910000034
 20
330906.3210000005
 10
-24519.70359999966
 20
330907.3311999999
 10
-24519.68549999967
 20
330908.3412999996
 10
-24519.66480000038
 20
330909.3513999992
 10
-24519.64140000008
 20
330910.3614000008
 10
-24519.61510000006
 20
330911.3714000006
 10
-24519.58600000013
 20
330912.3813000005
 10
-24519.55379999988
 20
330913.3910000008
 10
-24519.51850000024
 20
330914.4006999992
 10
-24519.48000000045
 20
330915.4102999997
 10
-24519.43819999974
 20
330916.4197000005
 10
-24519.39309999999
 20
330917.4289999996
 10
-24519.34439999983
 20
330918.4381000009
 10
-24519.2921000002
 20
330919.4470000007
 10
-24519.23610000033
 20
330920.4558000006
 10
-24519.1763000004
 20
330921.4642999992
 10
-24519.1127000004
 20
330922.4726
 10
-24519.04509999976
 20
330923.4805999994
 10
-24518.97339999955
 20
330924.4882999994
 10
-24518.89749999996
 20
330925.4957999997
 10
-24518.81740000006
 20
330926.5029000007
 10
-24518.73290000018
 20
330927.5096000005
 10
-24518.64389999956
 20
330928.5160000007
 10
-24518.55040000006
 20
330929.5219000001
 10
-24518.45220000017
 20
330930.5274000001
 10
-24518.34929999988
 20
330931.5325000007
 10
-24518.2416000003
 20
330932.5370000005
 10
-24518.1288999999
 20
330933.5409999993
 10
-24518.0111999996
 20
330934.5443999991
 10
-24516.15990000032
 20
330946.7535999995
 10
-24513.55109999981
 20
330958.8236999996
 10
-24510.1950000003
 20
330970.7076999993
 10
-24506.1046000002
 20
330982.3594000004
 10
-24501.29580000043
 20
330993.7334000003
 10
-24495.78729999997
 20
331004.7855999992
 10
-24489.60059999954
 20
331015.4727999996
 10
-24482.75970000029
 20
331025.7536999993
 10
-24475.29119999986
 20
331035.5879999995
 10
-24467.22420000006
 20
331044.9376999997
 10
-24466.54420000035
 20
331045.6742000003
 10
-24465.86060000025
 20
331046.4072999991
 10
-24465.17360000033
 20
331047.1370999999
 10
-24464.48319999967
 20
331047.8638000005
 10
-24463.78959999979
 20
331048.5875000004
 10
-24463.09289999958
 20
331049.3081999999
 10
-24462.39329999965
 20
331050.0260000006
 10
-24461.69089999981
 20
331050.7411000003
 10
-24460.98589999974
 20
331051.4535000008
 10
-24460.27819999959
 20
331052.1634999998
 10
-24459.56819999963
 20
331052.8708999996
 10
-24458.85580000002
 20
331053.5760999993
 10
-24458.14120000042
 20
331054.2791000009
 10
-24457.42459999956
 20
331054.9799000006
 10
-24456.70600000024
 20
331055.6787999999
 10
-24455.98560000025
 20
331056.3757000007
 10
-24455.26360000018
 20
331057.0709000007
 10
-24454.53990000021
 20
331057.7644999996
 10
-24453.81469999999
 20
331058.4564999994
 10
-24453.08820000012
 20
331059.1470999997
 10
-24452.36050000042
 20
331059.8364000004
 10
-24451.63159999996
 20
331060.5244999994
 10
-24450.90170000028
 20
331061.2115000002
 10
-24450.17090000026
 20
331061.8976000007
 10
-24449.43939999957
 20
331062.5828000009
 10
-24448.70710000023
 20
331063.2673000004
 10
-24447.97439999971
 20
331063.9513000008
 10
-24447.24110000022
 20
331064.6347000003
 10
-24446.5075000003
 20
331065.3178000003
 10
-24445.77369999979
 20
331066.0006000008
 10
-24445.03980000038
 20
331066.6832999997
 10
-24444.29569999967
 20
331067.3756000009
 10
-24443.55159999989
 20
331068.068
 10
-24442.8077999996
 20
331068.7606000006
 10
-24442.06429999974
 20
331069.4536000006
 10
-24441.32129999995
 20
331070.1469999999
 10
-24440.57880000025
 20
331070.8410999999
 10
-24439.83700000029
 20
331071.5358000007
 10
-24439.0959999999
 20
331072.2313999999
 10
-24438.35589999985
 20
331072.9279999994
 10
-24437.61679999996
 20
331073.6257000007
 10
-24436.87889999989
 20
331074.3245000001
 10
-24436.14209999982
 20
331075.0245999992
 10
-24435.4068
 20
331075.7261999995
 10
-24434.67289999966
 20
331076.4293000009
 10
-24433.94060000032
 20
331077.1340999995
 10
-24433.20999999996
 20
331077.8406000007
 10
-24432.48120000027
 20
331078.5491000004
 10
-24431.75439999998
 20
331079.2595000007
 10
-24431.02960000001
 20
331079.9721000009
 10
-24430.30709999986
 20
331080.6867999993
 10
-24429.5867999997
 20
331081.4038999993
 10
-24428.86899999995
 20
331082.1234000009
 10
-24428.15380000044
 20
331082.8454999999
 10
-24427.44120000023
 20
331083.5702999998
 10
-24426.73149999976
 20
331084.2977000009
 10
-24426.02469999995
 20
331085.0281000007
 10
-24425.32100000046
 20
331085.7613999993
 10
-24424.6205000002
 20
331086.4978
 10
-24423.92329999991
 20
331087.2372999992
 10
-24423.2296000002
 20
331087.9801000003
 10
-24422.53949999996
 20
331088.7262999993
 10
-24421.85309999995
 20
331089.4759
 10
-24413.97049999982
 20
331098.6840000004
 10
-24406.67030000035
 20
331108.3605000005
 10
-24399.98029999994
 20
331118.4682999999
 10
-24393.92590000015
 20
331128.9693
 10
-24388.53019999992
 20
331139.8234000002
 10
-24383.8136
 20
331150.9893999994
 10
-24379.79409999959
 20
331162.4247999993
 10
-24376.4868999999
 20
331174.0862000007
 10
-24376.24120000005
 20
331175.0776000005
 10
-24376.00040000025
 20
331176.0701999999
 10
-24375.76429999992
 20
331177.0639999993
 10
-24375.53249999974
 20
331178.0587000009
 10
-24375.3049999997
 20
331179.0545000006
 10
-24375.08139999956
 20
331180.0511000008
 10
-24374.86149999965
 20
331181.0484999996
 10
-24374.64510000031
 20
331182.0467000007
 10
-24374.4319000002
 20
331183.0456000008
 10
-24374.22159999981
 20
331184.0451999997
 10
-24374.01410000026
 20
331185.0452999995
 10
-24373.80900000036
 20
331186.0459000003
 10
-24373.60620000027
 20
331187.0469000004
 10
-24373.40539999958
 20
331188.0483999998
 10
-24373.2061999999
 20
331189.0502000004
 10
-24373.00860000029
 20
331190.0523000006
 10
-24372.81219999958
 20
331191.0546000004
 10
-24372.61679999996
 20
331192.0571999997
 10
-24372.42219999991
 20
331193.0599000007
 10
-24372.22800000012
 20
331194.0625999998
 10
-24372.03409999982
 20
331195.0655000006
 10
-24339.03289999999
 20
331365.7762000002
 10
-24338.84219999984
 20
331366.7629000005
 10
-24338.65139999986
 20
331367.7495000009
 10
-24338.46050000004
 20
331368.7361999992
 10
-24338.26960000023
 20
331369.7227999997
 10
-24338.0784
 20
331370.7094000001
 10
-24337.88709999994
 20
331371.6960000005
 10
-24337.69560000021
 20
331372.6824999992
 10
-24337.50380000006
 20
331373.6689
 10
-24337.31170000043
 20
331374.6553000007
 10
-24337.11919999961
 20
331375.6416999996
 10
-24336.92640000023
 20
331376.6279000006
 10
-24336.73319999967
 20
331377.6140999999
 10
-24336.53949999996
 20
331378.6001999993
 10
-24336.34530000016
 20
331379.5862000007
 10
-24336.15060000029
 20
331380.5721000005
 10
-24335.95540000033
 20
331381.5579000003
 10
-24335.7594999997
 20
331382.5436000005
 10
-24335.56300000008
 20
331383.5291000009
 10
-24335.3657999998
 20
331384.5144999997
 10
-24335.16789999977
 20
331385.4997000005
 10
-24334.9693
 20
331386.4847999998
 10
-24334.76979999989
 20
331387.4697999992
 10
-24334.56960000005
 20
331388.4546000008
 10
-24334.36840000004
 20
331389.4392000009
 10
-24334.16640000045
 20
331390.4235999994
 10
-24333.96339999978
 20
331391.4078000002
 10
-24333.7594999997
 20
331392.3917999994
 10
-24333.55449999962
 20
331393.3756000009
 10
-24333.34850000032
 20
331394.3592000008
 10
-24333.14140000008
 20
331395.3425999992
 10
-24332.93319999985
 20
331396.3257
 10
-24332.7237999998
 20
331397.3085999992
 10
-24332.51319999993
 20
331398.2912000008
 10
-24332.3013000004
 20
331399.273600001
 10
-24332.08820000011
 20
331400.2555999998
 10
-24331.87380000018
 20
331401.237400001
 10
-24331.65799999982
 20
331402.2189000007
 10
-24331.44089999981
 20
331403.2000999991
 10
-24331.22229999956
 20
331404.1809999999
 10
-24331.00229999982
 20
331405.1615999993
 10
-24330.7807
 20
331406.1417999994
 10
-24330.55759999994
 20
331407.1216000002
 10
-24330.33299999963
 20
331408.1010999996
 10
-24330.10670000035
 20
331409.0802999996
 10
-24329.87889999989
 20
331410.0590000004
 10
-24329.6492999997
 20
331411.0373999998
 10
-24329.4179999996
 20
331412.0153000001
 10
-24329.18489999976
 20
331412.9929000009
 10
-24328.95010000002
 20
331413.9700000007
 10
-24328.71339999977
 20
331414.9465999995
 10
-24328.4748999998
 20
331415.9229000007
 10
-24328.23450000026
 20
331416.8986000009
 10
-24327.99210000038
 20
331417.8739000001
 10
-24327.74770000018
 20
331418.8487
 10
-24327.50140000042
 20
331419.8228999991
 10
-24327.25299999956
 20
331420.7967000008
 10
-24323.43200000003
 20
331434.8057000004
 10
-24319.1799999997
 20
331448.6899999995
 10
-24318.33770000003
 20
331451.2704000008
 10
-24314.57820000034
 20
331462.6762000006
 10
-24309.57430000045
 20
331476.9443999995
 10
-24304.03479999956
 20
331491.0133999996
 10
-24297.96750000026
 20
331504.8629000001
 10
-24291.38109999988
 20
331518.4732000009
 10
-24284.28500000015
 20
331531.8248999994
 10
-24283.7918999996
 20
331532.7092000004
 10
-24283.2966
 20
331533.5922999997
 10
-24282.79910000041
 20
331534.4741999992
 10
-24282.29959999956
 20
331535.3549000006
 10
-24281.79810000025
 20
331536.2344000005
 10
-24281.29459999968
 20
331537.1128000002
 10
-24280.78909999971
 20
331537.9901999999
 10
-24280.2818
 20
331538.8663999998
 10
-24279.77269999962
 20
331539.7415999994
 10
-24279.26180000044
 20
331540.6157000009
 10
-24278.74920000043
 20
331541.4889000003
 10
-24278.23489999958
 20
331542.3609999996
 10
-24277.71899999958
 20
331543.2322000005
 10
-24277.20150000043
 20
331544.1024999991
 10
-24276.68250000011
 20
331544.9718999993
 10
-24276.16199999955
 20
331545.8402999994
 10
-24275.64010000043
 20
331546.7080000006
 10
-24275.11689999979
 20
331547.5747999996
 10
-24274.59229999967
 20
331548.4408
 10
-24274.06649999972
 20
331549.3060999997
 10
-24273.53949999996
 20
331550.1706000008
 10
-24273.0111999996
 20
331551.0343999994
 10
-24272.48190000002
 20
331551.8975000009
 10
-24271.95150000043
 20
331552.7599999998
 10
-24271.42009999976
 20
331553.6217999998
 10
-24270.88769999985
 20
331554.4829999991
 10
-24270.3543999996
 20
331555.3436999992
 10
-24269.82019999996
 20
331556.2038000003
 10
-24269.28519999981
 20
331557.0634000004
 10
-24268.74949999992
 20
331557.9224999994
 10
-24268.21300000046
 20
331558.7811999992
 10
-24267.67580000032
 20
331559.6394999996
 10
-24267.13800000027
 20
331560.4973000009
 10
-24266.59960000031
 20
331561.3548000008
 10
-24266.06070000027
 20
331562.2119999994
 10
-24265.52130000014
 20
331563.0689000003
 10
-24264.98149999976
 20
331563.9254999999
 10
-24264.44130000006
 20
331564.7818
 10
-24263.90079999995
 20
331565.6379000004
 10
-24263.35989999957
 20
331566.4938999992
 10
-24262.81879999954
 20
331567.3497000002
 10
-24262.27759999968
 20
331568.2053999994
 10
-24261.73620000016
 20
331569.0610000007
 10
-24261.19460000005
 20
331569.9165000003
 10
-24260.65309999976
 20
331570.7719999999
 10
-24258.87480000034
 20
331573.5810000003
 10
-24258.33660000004
 20
331574.4311999996
 10
-24257.79839999974
 20
331575.2815000005
 10
-24257.2603000002
 20
331576.1317999996
 10
-24256.72229999956
 20
331576.9822000004
 10
-24256.18450000044
 20
331577.8325999994
 10
-24255.64680000022
 20
331578.6831999999
 10
-24255.10940000042
 20
331579.5339000002
 10
-24254.57230000012
 20
331580.3848000002
 10
-24254.0354000004
 20
331581.2358999997
 10
-24253.49890000001
 20
331582.0872000009
 10
-24252.96279999986
 20
331582.9387999997
 10
-24252.42709999997
 20
331583.7906
 10
-24251.89190000016
 20
331584.6426999998
 10
-24251.35720000044
 20
331585.4951000009
 10
-24250.82299999986
 20
331586.3478999995
 10
-24250.2893000003
 20
331587.2009999995
 10
-24249.75629999954
 20
331588.0545000006
 10
-24249.2240000004
 20
331588.9083999991
 10
-24248.69230000023
 20
331589.7628000006
 10
-24248.16139999963
 20
331590.6175999996
 10
-24247.63119999971
 20
331591.4727999996
 10
-24247.10190000013
 20
331592.3286000006
 10
-24246.57340000011
 20
331593.1849000007
 10
-24246.04569999967
 20
331594.0417
 10
-24245.51900000032
 20
331594.8991000001
 10
-24244.99330000021
 20
331595.7570999991
 10
-24244.46860000025
 20
331596.6158000008
 10
-24243.94489999954
 20
331597.4749999997
 10
-24243.42229999974
 20
331598.3348999992
 10
-24242.90079999995
 20
331599.1954999995
 10
-24242.38049999997
 20
331600.0568000004
 10
-24241.86139999982
 20
331600.9189
 10
-24241.34350000043
 20
331601.7816000004
 10
-24240.82689999975
 20
331602.6451999992
 10
-24240.31170000043
 20
331603.5095000007
 10
-24239.79779999982
 20
331604.3746000007
 10
-24239.28529999964
 20
331605.2405999992
 10
-24238.77419999987
 20
331606.1074000001
 10
-24238.26460000034
 20
331606.9750999995
 10
-24237.75659999996
 20
331607.8436999992
 10
-24237.25009999983
 20
331608.7131999992
 10
-24236.74519999977
 20
331609.5835999996
 10
-24236.24199999962
 20
331610.4550000001
 10
-24235.74039999954
 20
331611.3274000008
 10
-24235.24060000014
 20
331612.2006999999
 10
-24234.74260000046
 20
331613.0750999991
 10
-24234.24629999977
 20
331613.9505000003
 10
-24233.75189999957
 20
331614.8268999998
 10
-24233.25939999986
 20
331615.7043999993
 10
-24232.76889999956
 20
331616.5830000006
 10
-24232.28029999975
 20
331617.4627
 10
-24231.79370000027
 20
331618.3434999995
 10
-24231.30929999985
 20
331619.2254000009
 10
-24230.82689999975
 20
331620.1085000001
 10
-24230.34659999982
 20
331620.9927999992
 10
-24229.8685999997
 20
331621.8783
 10
-24229.39269999973
 20
331622.7649000008
 10
-24228.91920000036
 20
331623.6527999994
 10
-24228.44799999986
 20
331624.5418999996
 10
-24227.97910000011
 20
331625.4322999995
 10
-24227.51269999985
 20
331626.3238999993
 10
-24227.04870000016
 20
331627.2168000006
 10
-24226.58710000012
 20
331628.1108999998
 10
-24226.12820000015
 20
331629.0064000003
 10
-24225.67179999966
 20
331629.9032000006
 10
-24225.21800000034
 20
331630.8014000003
 10
-24224.76690000016
 20
331631.7008999996
 10
-24224.31850000005
 20
331632.6017000005
 10
-24223.87289999984
 20
331633.5039000009
 10
-24223.43010000046
 20
331634.4075000007
 10
-24222.99010000005
 20
331635.3125
 10
-24222.55300000031
 20
331636.2188000009
 10
-24222.11890000012
 20
331637.1265999992
 10
-24221.68769999966
 20
331638.0358000007
 10
-24221.25960000045
 20
331638.9464999996
 10
-24220.83449999988
 20
331639.8586
 10
-24220.41260000039
 20
331640.7720999997
 10
-24219.99380000029
 20
331641.6871000007
 10
-24219.57830000017
 20
331642.6034999993
 10
-24219.1660000002
 20
331643.5215000008
 10
-24218.75700000021
 20
331644.4408999998
 10
-24218.35140000004
 20
331645.3617000003
 10
-24217.94919999968
 20
331646.2840999998
 10
-24217.55040000006
 20
331647.2080000006
 10
-24217.15510000009
 20
331648.1334000007
 10
-24216.76339999959
 20
331649.0602000002
 10
-24212.01460000034
 20
331661.2002000008
 10
-24207.88019999955
 20
331673.5629999992
 10
-24204.37060000002
 20
331686.1174999998
 10
-24204.12669999991
 20
331687.0903999992
 10
-24203.88650000002
 20
331688.0640999992
 10
-24203.64989999961
 20
331689.0386999995
 10
-24203.41679999977
 20
331690.0142000001
 10
-24203.18709999975
 20
331690.9904999994
 10
-24202.96079999954
 20
331691.9674999994
 10
-24202.7377000004
 20
331692.9452999998
 10
-24202.51769999973
 20
331693.9238000009
 10
-24202.30080000032
 20
331694.9030000009
 10
-24202.08690000046
 20
331695.8828999997
 10
-24201.87590000034
 20
331696.8632999994
 10
-24201.66779999994
 20
331697.8443999999
 10
-24201.46229999978
 20
331698.8260999992
 10
-24201.25949999969
 20
331699.8082999997
 10
-24201.05920000002
 20
331700.7909999993
 10
-24200.86149999965
 20
331701.7742999997
 10
-24200.66610000003
 20
331702.7579999995
 10
-24200.47300000023
 20
331703.7421000004
 10
-24200.28210000042
 20
331704.7267000005
 10
-24200.09329999984
 20
331705.7116999999
 10
-24199.90649999958
 20
331706.6971000005
 10
-24199.72169999965
 20
331707.6829000004
 10
-24199.53880000021
 20
331708.6689999998
 10
-24199.35759999976
 20
331709.6554000006
 10
-24199.17810000014
 20
331710.6421000008
 10
-24199.00019999966
 20
331711.6292000004
 10
-24198.82380000036
 20
331712.6163999997
 10
-24198.64890000038
 20
331713.6040000003
 10
-24198.47520000022
 20
331714.5918000006
 10
-24198.30279999971
 20
331715.5798000005
 10
-24198.13159999996
 20
331716.568
 10
-24197.96140000038
 20
331717.5562999994
 10
-24197.79220000003
 20
331718.5449000001
 10
-24197.62380000018
 20
331719.5336000007
 10
-24197.45629999973
 20
331720.5223999992
 10
-24197.28949999996
 20
331721.5113999993
 10
-24197.1233000001
 20
331722.5004999992
 10
-24196.95760000032
 20
331723.4896000009
 10
-24196.79239999969
 20
331724.4788000007
 10
-24196.62750000041
 20
331725.4681000002
 10
-24196.4628999997
 20
331726.4573999997
 10
-24196.29849999957
 20
331727.4467999991
 10
-24196.1342000002
 20
331728.4362000004
 10
-24170.41309999954
 20
331883.3037000001
 10
-24170.24670000002
 20
331884.3059000001
 10
-24170.08019999974
 20
331885.3080000002
 10
-24169.91339999996
 20
331886.3101000004
 10
-24169.74650000036
 20
331887.3121000007
 10
-24169.57909999974
 20
331888.3140999992
 10
-24169.41139999964
 20
331889.3160999995
 10
-24169.24309999961
 20
331890.3179000002
 10
-24169.07419999968
 20
331891.3195999992
 10
-24168.90469999984
 20
331892.3212000001
 10
-24168.73429999966
 20
331893.3226999995
 10
-24168.56309999991
 20
331894.3241000008
 10
-24168.3909
 20
331895.3252000008
 10
-24168.21769999992
 20
331896.3261999992
 10
-24168.04339999985
 20
331897.3269999996
 10
-24167.86780000013
 20
331898.3276000004
 10
-24167.69099999964
 20
331899.3278999999
 10
-24167.51269999985
 20
331900.3280999996
 10
-24167.33299999964
 20
331901.3278999999
 10
-24167.15180000011
 20
331902.3275000006
 10
-24166.96889999975
 20
331903.3267000001
 10
-24166.78419999965
 20
331904.3256999999
 10
-24166.59779999964
 20
331905.3243000005
 10
-24166.40940000024
 20
331906.3224999998
 10
-24166.21910000034
 20
331907.3203999997
 10
-24166.02670000028
 20
331908.3179000002
 10
-24165.83210000023
 20
331909.3149999995
 10
-24165.6353000002
 20
331910.3115999997
 10
-24165.43620000035
 20
331911.3077000007
 10
-24165.23469999992
 20
331912.3034000006
 10
-24165.03060000017
 20
331913.2985999994
 10
-24164.82400000002
 20
331914.2931999993
 10
-24164.6146999998
 20
331915.2873
 10
-24164.40270000044
 20
331916.2807999999
 10
-24164.18780000042
 20
331917.2737000008
 10
-24163.96999999974
 20
331918.265900001
 10
-24163.74920000043
 20
331919.2575000003
 10
-24163.52529999986
 20
331920.2484000009
 10
-24163.29829999991
 20
331921.2385000009
 10
-24163.06799999997
 20
331922.2279000003
 10
-24162.83430000022
 20
331923.2166000009
 10
-24162.59719999973
 20
331924.2043999992
 10
-24162.35670000035
 20
331925.1914000009
 10
-24162.11249999981
 20
331926.1775000003
 10
-24161.8646999998
 20
331927.1625999995
 10
-24161.61309999973
 20
331928.1469000001
 10
-24161.35769999959
 20
331929.1301000007
 10
-24161.09839999955
 20
331930.1122999993
 10
-24160.8350999998
 20
331931.0934999995
 10
-24160.56780000031
 20
331932.0735
 10
-24160.29619999975
 20
331933.0524000005
 10
-24160.02049999963
 20
331934.0300999992
 10
-24159.74039999954
 20
331935.0066
 10
-24159.45590000041
 20
331935.9818999991
 10
-24159.16700000037
 20
331936.9558000006
 10
-24158.87349999975
 20
331937.9283000008
 10
-24158.57550000027
 20
331938.8994999993
 10
-24158.27269999963
 20
331939.8692000006
 10
-24157.96509999968
 20
331940.8373000007
 10
-24157.65259999968
 20
331941.8039999996
 10
-24157.33530000038
 20
331942.7689999994
 10
-24157.01290000044
 20
331943.7323000002
 10
-24153.97840000037
 20
331952.0812999998
 10
-24150.56199999992
 20
331960.2814000007
 10
-24146.77089999989
 20
331968.3150999993
  0
LWPOLYLINE
  5
A75
330
1F
100
AcDbEntity
  8
Straßenverlauf_FBRD
100
AcDbPolyline
 90
       22
 70
     0
 43
0.0
 10
-24522.67609999981
 20
330629.5324000009
 10
-24521.94979999959
 20
330629.8441000004
 10
-24521.2818
 20
330630.2663000002
 10
-24520.68850000016
 20
330630.7884999998
 10
-24520.18499999959
 20
330631.3976000008
 10
-24519.78380000033
 20
330632.0785000008
 10
-24519.49480000045
 20
330632.8140999992
 10
-24519.32540000044
 20
330633.5859999992
 10
-24519.27969999984
 20
330634.375
 10
-24519.7304999996
 20
330655.5782999993
 10
-24521.21119999979
 20
330748.5744000003
 10
-24521.26200000011
 20
330749.0787000005
 10
-24521.39709999971
 20
330749.5671999995
 10
-24521.61239999998
 20
330750.0261000004
 10
-24521.90189999994
 20
330750.4420999997
 10
-24522.25729999971
 20
330750.8035000005
 10
-24522.66849999968
 20
330751.0998999998
 10
-24523.12370000035
 20
330751.3227999993
 10
-24523.60989999958
 20
330751.4659000002
 10
-24524.54970000033
 20
330751.6579999999
 10
-24528.97510000039
 20
330751.8272999991
 10
-24530.18489999976
 20
330751.8736000005
1001
AcMap_E615D161-C9D7-11d3-839F-0060B0FB6B57
1071
        1
1071
       13
  0
LWPOLYLINE
  5
A76
330
1F
100
AcDbEntity
  8
Straßenverlauf_FBRD
100
AcDbPolyline
 90
        6
 70
     0
 43
0.0
 10
-24508.16830000002
 20
330651.7625999991
 10
-24507.82899999991
 20
330651.9132000004
 10
-24507.51090000011
 20
330652.1044999995
 10
-24506.55790000036
 20
330652.7611999996
 10
-24506.0970999999
 20
330653.0788000003
 10
-24505.55879999977
 20
330653.5548000001
1001
AcMap_E615D161-C9D7-11d3-839F-0060B0FB6B57
1071
        1
1071
       13
  0
LWPOLYLINE
  5
A77
330
1F
100
AcDbEntity
  8
Straßenverlauf_FBRD
100
AcDbPolyline
 90
        4
 70
     0
 43
0.0
 10
-24508.16830000002
 20
330651.7625999991
 10
-24510.50719999988
 20
330798.6598000005
 10
-24510.56400000025
 20
330802.2261999994
 10
-24511.0521999998
 20
330832.8863999993
1001
AcMap_E615D161-C9D7-11d3-839F-0060B0FB6B57
1071
        1
1071
       13
  0
LWPOLYLINE
  5
A78
330
1F
100
AcDbEntity
  8
Straßenverlauf_FBRD
100
AcDbPolyline
 90
        6
 70
     0
 43
0.0
 10
-24510.67169999983
 20
330651.9530999996
 10
-24510.19950000011
 20
330651.7414999996
 10
-24509.69799999986
 20
330651.6141999998
 10
-24509.18209999986
 20
330651.5748999995
 10
-24508.6671000002
 20
330651.6249000002
 10
-24508.16830000002
 20
330651.7625999991
1001
AcMap_E615D161-C9D7-11d3-839F-0060B0FB6B57
1071
        1
1071
       13
  0
LWPOLYLINE
  5
A79
330
1F
100
AcDbEntity
  8
Straßenverlauf_FBRD
100
AcDbPolyline
 90
        4
 70
     0
 43
0.0
 10
-24510.67169999983
 20
330651.9530999996
 10
-24512.97090000007
 20
330796.3556999993
 10
-24513.06350000016
 20
330802.1766999998
 10
-24513.53070000001
 20
330831.5185000003
1001
AcMap_E615D161-C9D7-11d3-839F-0060B0FB6B57
1071
        1
1071
       13
  0
LWPOLYLINE
  5
A7A
330
1F
100
AcDbEntity
  8
Straßenverlauf_FBRD
100
AcDbPolyline
 90
       16
 70
     0
 43
0.0
 10
-24510.67169999983
 20
330651.9530999996
 10
-24511.04609999992
 20
330652.1997999996
 10
-24511.37959999964
 20
330652.4995000009
 10
-24511.66469999962
 20
330652.8454999999
 10
-24511.89510000031
 20
330653.2302000002
 10
-24512.06549999956
 20
330653.6449999996
 10
-24512.17219999991
 20
330654.0804999992
 10
-24512.21279999987
 20
330654.5270000007
 10
-24514.39639999997
 20
330791.6688000001
 10
-24514.57969999965
 20
330803.1801999994
 10
-24514.97369999998
 20
330827.9243000001
 10
-24514.92320000008
 20
330828.7172999996
 10
-24514.74770000018
 20
330829.4922000003
 10
-24514.45170000009
 20
330830.2295999993
 10
-24514.04250000045
 20
330830.9107000009
 10
-24513.53070000001
 20
330831.5185000003
1001
AcMap_E615D161-C9D7-11d3-839F-0060B0FB6B57
1071
        1
1071
       13
  0
LWPOLYLINE
  5
A7B
330
1F
100
AcDbEntity
  8
Straßenverlauf_FBRD
100
AcDbPolyline
 90
      114
 70
     0
 43
0.0
 10
-24530.21669999976
 20
330753.8732999992
 10
-24527.2165000001
 20
330753.9517000001
 10
-24524.05869999993
 20
330754.2594000008
 10
-24523.57070000004
 20
330754.3480999991
 10
-24523.10410000011
 20
330754.5160000008
 10
-24522.67140000034
 20
330754.7586000004
 10
-24522.28469999973
 20
330755.0690000002
 10
-24521.95440000016
 20
330755.4389999994
 10
-24521.68950000033
 20
330755.8583000004
 10
-24521.49729999993
 20
330756.3155000006
 10
-24521.38310000021
 20
330756.7981000003
 10
-24521.34999999963
 20
330757.2929999996
 10
-24523.3197999997
 20
330881.0055999998
 10
-24523.32780000009
 20
330881.5059999992
 10
-24523.33569999971
 20
330882.0065000001
 10
-24523.34370000008
 20
330882.5069999993
 10
-24523.3515999997
 20
330883.0077
 10
-24523.35940000042
 20
330883.5085000005
 10
-24523.36720000021
 20
330884.0092999992
 10
-24523.37490000017
 20
330884.5102999993
 10
-24523.38260000013
 20
330885.0112999995
 10
-24523.39010000043
 20
330885.5123999995
 10
-24523.39759999979
 20
330886.0135999993
 10
-24523.40490000043
 20
330886.5149000008
 10
-24523.41210000031
 20
330887.0163000003
 10
-24523.41920000035
 20
330887.5177999996
 10
-24523.42609999981
 20
330888.0194000006
 10
-24523.4327999996
 20
330888.5209999998
 10
-24523.43939999957
 20
330889.0228000004
 10
-24523.44570000004
 20
330889.5245999992
 10
-24523.45189999975
 20
330890.0265999996
 10
-24523.45789999981
 20
330890.5285999999
 10
-24523.46360000037
 20
330891.0307
 10
-24523.46910000034
 20
330891.5329
 10
-24523.47439999972
 20
330892.0351999999
 10
-24523.47939999961
 20
330892.5375999995
 10
-24523.4841
 20
330893.0401000008
 10
-24523.48849999998
 20
330893.5427000001
 10
-24523.49270000029
 20
330894.0452999995
 10
-24523.49650000036
 20
330894.5481000003
 10
-24523.5
 20
330895.0508999993
 10
-24523.50320000015
 20
330895.5538999998
 10
-24523.50600000005
 20
330896.0569000002
 10
-24523.50850000046
 20
330896.5600000006
 10
-24523.51059999969
 20
330897.0632000007
 10
-24523.51240000036
 20
330897.5665000007
 10
-24523.51370000001
 20
330898.0699000005
 10
-24523.51460000035
 20
330898.5734000002
 10
-24523.51520000026
 20
330899.0769999996
 10
-24523.51530000009
 20
330899.5806000009
 10
-24523.51489999983
 20
330900.0844000001
 10
-24523.51410000026
 20
330900.5881999992
 10
-24523.51290000044
 20
330901.0921
 10
-24523.51109999977
 20
330901.5961000007
 10
-24523.50889999978
 20
330902.1001999993
 10
-24523.50619999971
 20
330902.6043999996
 10
-24523.50289999973
 20
330903.1086999997
 10
-24523.49909999967
 20
330903.6129999999
 10
-24523.49480000045
 20
330904.1174999997
 10
-24523.49000000022
 20
330904.6219999995
 10
-24523.48460000008
 20
330905.1265999992
 10
-24523.47860000003
 20
330905.6313000005
 10
-24523.47200000007
 20
330906.136
 10
-24523.46490000002
 20
330906.640900001
 10
-24523.45710000023
 20
330907.1458
 10
-24523.4486999996
 20
330907.6508000009
 10
-24523.43960000016
 20
330908.1558999997
 10
-24523.4299999997
 20
330908.6611000001
 10
-24523.41959999968
 20
330909.1663000007
 10
-24523.40859999973
 20
330909.6715999991
 10
-24523.39690000005
 20
330910.1769999993
 10
-24523.38449999969
 20
330910.6823999993
 10
-24523.3713999996
 20
330911.1879999992
 10
-24523.35759999975
 20
330911.6936000008
 10
-24523.34310000017
 20
330912.1992000007
 10
-24523.32780000009
 20
330912.7049000003
 10
-24523.31180000026
 20
330913.2106999997
 10
-24523.29499999993
 20
330913.7166000009
 10
-24523.27740000002
 20
330914.2225000002
 10
-24523.25899999961
 20
330914.7284999993
 10
-24523.23979999963
 20
330915.2345000003
 10
-24523.21980000008
 20
330915.7405999992
 10
-24523.19900000002
 20
330916.2467999999
 10
-24523.17729999963
 20
330916.7530000005
 10
-24523.15479999967
 20
330917.2591999993
 10
-24523.1314000003
 20
330917.7654999998
 10
-24523.10709999967
 20
330918.2719000001
 10
-24523.0820000004
 20
330918.7783000004
 10
-24523.05590000003
 20
330919.2847000007
 10
-24523.0290000001
 20
330919.7912000009
 10
-24523.00109999999
 20
330920.297700001
 10
-24522.97219999973
 20
330920.8043000009
 10
-24522.94249999989
 20
330921.3109000009
 10
-24522.91170000006
 20
330921.8175000009
 10
-24522.87999999989
 20
330922.3242000007
 10
-24522.84729999956
 20
330922.8308000006
 10
-24522.81359999999
 20
330923.3375000004
 10
-24522.77890000027
 20
330923.8443
 10
-24522.74309999961
 20
330924.3509999998
 10
-24522.70629999973
 20
330924.8577999994
 10
-24522.66849999968
 20
330925.3644999992
 10
-24522.62959999964
 20
330925.8713000007
 10
-24522.58970000036
 20
330926.3781000004
 10
-24522.54860000033
 20
330926.8848999999
 10
-24522.53340000007
 20
330927.0673999991
 10
-24522.53639999963
 20
330928.4283000007
 10
-24522.76999999956
 20
330929.7689999994
 10
-24523.22750000004
 20
330931.0507999994
 10
-24523.8956000004
 20
330932.2364000008
 10
-24524.75509999972
 20
330933.2916000001
 10
-24525.78089999966
 20
330934.1859000009
 10
-24526.94350000005
 20
330934.8934000004
 10
-24528.20920000039
 20
330935.3936000001
 10
-24529.54129999969
 20
330935.6720000002
1001
AcMap_E615D161-C9D7-11d3-839F-0060B0FB6B57
1071
        1
1071
       13
  0
LWPOLYLINE
  5
A7C
330
1F
100
AcDbEntity
  8
Straßenverlauf_FBRD
100
AcDbPolyline
 90
        5
 70
     0
 43
0.0
 10
-24513.53070000001
 20
330831.5185000003
 10
-24512.99149999954
 20
330831.9910000004
 10
-24512.39030000009
 20
330832.3815000001
 10
-24511.73940000031
 20
330832.6820000001
 10
-24511.0521999998
 20
330832.8863999993
1001
AcMap_E615D161-C9D7-11d3-839F-0060B0FB6B57
1071
        1
1071
       13
  0
LWPOLYLINE
  5
A7D
330
1F
100
AcDbEntity
  8
Straßenverlauf_FBRD
100
AcDbPolyline
 90
       20
 70
     0
 43
0.0
 10
-24511.0521999998
 20
330832.8863999993
 10
-24510.47699999996
 20
330832.9785999991
 10
-24509.89499999955
 20
330833.0033
 10
-24508.4020999996
 20
330832.8672000003
 10
-24506.94629999995
 20
330832.5096000005
 10
-24505.56039999984
 20
330831.9383000005
 10
-24504.27539999969
 20
330831.1662000008
 10
-24503.1202999996
 20
330830.2106999998
 10
-24502.12100000028
 20
330829.0932999998
 10
-24501.29989999998
 20
330827.8390999995
 10
-24495.24170000013
 20
330816.8695999999
 10
-24494.83490000013
 20
330815.9626000002
 10
-24494.58339999989
 20
330815.0009000004
 10
-24494.49409999978
 20
330814.0109000002
 10
-24494.56950000022
 20
330813.0197999999
 10
-24494.80750000011
 20
330812.0547000002
 10
-24495.20160000026
 20
330811.1421000007
 10
-24495.74089999963
 20
330810.3070999999
 10
-24496.41069999989
 20
330809.5725999996
 10
-24497.19259999972
 20
330808.9587999992
1001
AcMap_E615D161-C9D7-11d3-839F-0060B0FB6B57
1071
        1
1071
       13
  0
LWPOLYLINE
  5
A7E
330
1F
100
AcDbEntity
  8
Straßenverlauf_FBRD
100
AcDbPolyline
 90
       18
 70
     0
 43
0.0
 10
-24511.13719999976
 20
330838.2241999991
 10
-24510.42329999991
 20
330837.8857000005
 10
-24509.66500000004
 20
330837.6638999992
 10
-24505.67360000033
 20
330836.8319000006
 10
-24504.02689999994
 20
330836.3377000001
 10
-24502.48909999989
 20
330835.5687000007
 10
-24501.10580000002
 20
330834.547700001
 10
-24499.91789999977
 20
330833.3048000001
 10
-24498.96040000021
 20
330831.8768000007
 10
-24493.58579999953
 20
330822.1449999996
 10
-24492.61340000015
 20
330820.6985
 10
-24491.40460000001
 20
330819.4428000003
 10
-24489.99610000011
 20
330818.4160999991
 10
-24488.4308000002
 20
330817.6494999994
 10
-24486.75609999988
 20
330817.1664000005
 10
-24485.02300000005
 20
330816.9813999999
 10
-24483.28409999982
 20
330817.1000999994
 10
-24481.57400000002
 20
330817.3680000007
1001
AcMap_E615D161-C9D7-11d3-839F-0060B0FB6B57
1071
        1
1071
       13
  0
LWPOLYLINE
  5
A7F
330
1F
100
AcDbEntity
  8
Straßenverlauf_FBRD
100
AcDbPolyline
 90
      110
 70
     0
 43
0.0
 10
-24511.13719999976
 20
330838.2241999991
 10
-24511.82129999995
 20
330881.1886
 10
-24511.82919999957
 20
330881.6888999995
 10
-24511.83719999995
 20
330882.1889999993
 10
-24511.84509999957
 20
330882.6888999995
 10
-24511.85300000012
 20
330883.1886
 10
-24511.86079999991
 20
330883.6882000007
 10
-24511.8685999997
 20
330884.1875000001
 10
-24511.87629999965
 20
330884.6866999995
 10
-24511.88389999978
 20
330885.1856999993
 10
-24511.89140000008
 20
330885.6844999996
 10
-24511.89879999962
 20
330886.1831
 10
-24511.90610000026
 20
330886.6816000008
 10
-24511.91330000013
 20
330887.1798000001
 10
-24511.92030000035
 20
330887.6778999996
 10
-24511.92709999997
 20
330888.1757999994
 10
-24511.93379999977
 20
330888.6735999994
 10
-24511.9402999999
 20
330889.1711
 10
-24511.94660000037
 20
330889.6685000006
 10
-24511.95280000009
 20
330890.1656
 10
-24511.95870000031
 20
330890.6625999995
 10
-24511.96430000011
 20
330891.1594999992
 10
-24511.96980000008
 20
330891.6560999993
 10
-24511.97499999963
 20
330892.1525999997
 10
-24511.97989999969
 20
330892.6488000006
 10
-24511.98460000008
 20
330893.1448999997
 10
-24511.98890000023
 20
330893.640900001
 10
-24511.99299999978
 20
330894.1366000008
 10
-24511.99679999985
 20
330894.6322000009
 10
-24512.00030000042
 20
330895.1274999995
 10
-24512.00339999981
 20
330895.6227000003
 10
-24512.00619999971
 20
330896.1177999992
 10
-24512.00860000029
 20
330896.6126000006
 10
-24512.01070000045
 20
330897.1072000004
 10
-24512.01240000036
 20
330897.6017000005
 10
-24512.01370000001
 20
330898.0960000009
 10
-24512.01470000018
 20
330898.5900999997
 10
-24512.01520000026
 20
330899.0840000008
 10
-24512.01530000009
 20
330899.5778000002
 10
-24512.01489999983
 20
330900.0713
 10
-24512.01410000027
 20
330900.5647
 10
-24512.01290000044
 20
330901.0579000004
 10
-24512.0111999996
 20
330901.5508999993
 10
-24512.00899999961
 20
330902.0437000003
 10
-24512.0064000003
 20
330902.5363999996
 10
-24512.00320000015
 20
330903.0287999995
 10
-24511.99949999992
 20
330903.5210999996
 10
-24511.9952999996
 20
330904.0131999999
 10
-24511.99060000014
 20
330904.5051000007
 10
-24511.98529999983
 20
330904.9967999999
 10
-24511.97950000036
 20
330905.4882999994
 10
-24511.97310000006
 20
330905.9795999993
 10
-24511.96609999985
 20
330906.4706999996
 10
-24511.95859999955
 20
330906.9616999999
 10
-24511.95040000044
 20
330907.4524000008
 10
-24511.94159999956
 20
330907.943
 10
-24511.93219999969
 20
330908.4332999997
 10
-24511.92219999991
 20
330908.9234999996
 10
-24511.9115000004
 20
330909.4134
 10
-24511.90020000003
 20
330909.9032000005
 10
-24511.88819999993
 20
330910.3927999996
 10
-24511.87550000008
 20
330910.8820999991
 10
-24511.86220000032
 20
330911.3713000007
 10
-24511.84810000006
 20
330911.8603000007
 10
-24511.83330000006
 20
330912.3489999995
 10
-24511.81780000031
 20
330912.8376000002
 10
-24511.80159999989
 20
330913.3258999996
 10
-24511.7845999999
 20
330913.8140999992
 10
-24511.76690000016
 20
330914.3019999992
 10
-24511.74839999993
 20
330914.7896999996
 10
-24511.72919999994
 20
330915.2772000004
 10
-24511.70909999963
 20
330915.7644999996
 10
-24511.68829999957
 20
330916.2515999992
 10
-24511.66660000011
 20
330916.7383999992
 10
-24511.64410000015
 20
330917.2250999995
 10
-24511.62079999968
 20
330917.7115000002
 10
-24511.59669999964
 20
330918.1976999994
 10
-24511.5717000002
 20
330918.6835999992
 10
-24511.54580000043
 20
330919.1693999991
 10
-24511.51910000015
 20
330919.6548999995
 10
-24511.49139999971
 20
330920.1401000005
 10
-24511.46289999969
 20
330920.6251999997
 10
-24511.43350000028
 20
330921.1099999994
 10
-24511.40319999959
 20
330921.5944999997
 10
-24511.37189999968
 20
330922.0788000003
 10
-24511.33970000036
 20
330922.5628999993
 10
-24511.30649999995
 20
330923.0467000008
 10
-24511.27240000013
 20
330923.5303000007
 10
-24511.23739999998
 20
330924.0135999993
 10
-24511.20129999984
 20
330924.4967
 10
-24511.1643000003
 20
330924.9794999995
 10
-24511.12619999983
 20
330925.4619999994
 10
-24511.08719999995
 20
330925.9442999997
 10
-24511.04710000008
 20
330926.4263000005
 10
-24511.00600000005
 20
330926.9079999999
 10
-24510.96380000003
 20
330927.3894999996
 10
-24510.92059999984
 20
330927.8706999999
 10
-24510.87629999966
 20
330928.3516000006
 10
-24510.83100000024
 20
330928.8322
 10
-24510.7845999999
 20
330929.3125999999
 10
-24510.73709999956
 20
330929.7926000003
 10
-24510.68840000033
 20
330930.2723999992
 10
-24510.63870000001
 20
330930.7518000007
 10
-24510.58779999987
 20
330931.2310000006
 10
-24510.53579999972
 20
330931.7097999994
 10
-24510.48269999958
 20
330932.1883000006
 10
-24510.42839999963
 20
330932.6666000001
 10
-24510.37289999984
 20
330933.1445000005
 10
-24510.31630000006
 20
330933.6220999994
 10
-24509.38850000035
 20
330940.3453000002
1001
AcMap_E615D161-C9D7-11d3-839F-0060B0FB6B57
1071
        1
1071
       13
  0
LWPOLYLINE
  5
A80
330
1F
100
AcDbEntity
  8
Straßenverlauf_FBRD
100
AcDbPolyline
 90
        6
 70
     0
 43
0.0
 10
-24513.69450000022
 20
330841.8066000007
 10
-24513.30420000013
 20
330840.7451000009
 10
-24512.93169999961
 20
330839.9853000008
 10
-24512.43630000018
 20
330839.2993000001
 10
-24511.83239999972
 20
330838.7065999993
 10
-24511.13719999976
 20
330838.2241999991
1001
AcMap_E615D161-C9D7-11d3-839F-0060B0FB6B57
1071
        1
1071
       13
  0
LWPOLYLINE
  5
A81
330
1F
100
AcDbEntity
  8
Straßenverlauf_FBRD
100
AcDbPolyline
 90
      110
 70
     0
 43
0.0
 10
-24513.69450000022
 20
330841.8066000007
 10
-24514.3208999997
 20
330881.1488000006
 10
-24514.32890000008
 20
330881.6491
 10
-24514.33690000046
 20
330882.1492999997
 10
-24514.34480000008
 20
330882.6493999995
 10
-24514.3526999997
 20
330883.1492999998
 10
-24514.36050000042
 20
330883.6491
 10
-24514.36830000021
 20
330884.1488000006
 10
-24514.37600000017
 20
330884.6482999996
 10
-24514.38360000029
 20
330885.1478000004
 10
-24514.39109999966
 20
330885.6470999997
 10
-24514.39850000013
 20
330886.1462999992
 10
-24514.40579999983
 20
330886.645300001
 10
-24514.41299999971
 20
330887.1443000008
 10
-24514.41999999993
 20
330887.643100001
 10
-24514.42690000031
 20
330888.1417999995
 10
-24514.4336000001
 20
330888.6403999999
 10
-24514.44010000024
 20
330889.1389000006
 10
-24514.44639999978
 20
330889.6371999998
 10
-24514.45260000043
 20
330890.1353999991
 10
-24514.45849999972
 20
330890.6335000005
 10
-24514.46420000028
 20
330891.1315000002
 10
-24514.46960000042
 20
330891.6293000002
 10
-24514.47479999997
 20
330892.1271000002
 10
-24514.47979999985
 20
330892.6247000005
 10
-24514.48450000025
 20
330893.1221999992
 10
-24514.48890000023
 20
330893.6195000001
 10
-24514.49299999978
 20
330894.1168000009
 10
-24514.49670000002
 20
330894.6139000003
 10
-24514.50019999966
 20
330895.1108999997
 10
-24514.50339999981
 20
330895.6077999994
 10
-24514.50619999971
 20
330896.1044999995
 10
-24514.50860000029
 20
330896.6011999995
 10
-24514.51070000045
 20
330897.0976999999
 10
-24514.51240000036
 20
330897.5941000003
 10
-24514.51370000001
 20
330898.0902999993
 10
-24514.51470000018
 20
330898.5865000003
 10
-24514.51520000026
 20
330899.0824999996
 10
-24514.51530000009
 20
330899.578400001
 10
-24514.51489999984
 20
330900.0742000006
 10
-24514.51410000026
 20
330900.5698000007
 10
-24514.51290000044
 20
330901.0653000008
 10
-24514.5111999996
 20
330901.5606999994
 10
-24514.50899999962
 20
330902.0559999999
 10
-24514.50629999954
 20
330902.5512000006
 10
-24514.50310000032
 20
330903.0461999998
 10
-24514.49940000009
 20
330903.5410999991
 10
-24514.49519999977
 20
330904.0358000006
 10
-24514.4905000003
 20
330904.5305000004
 10
-24514.4852
 20
330905.0250000004
 10
-24514.47929999977
 20
330905.5194000006
 10
-24514.4729000004
 20
330906.0135999993
 10
-24514.46580000036
 20
330906.5077
 10
-24514.45820000023
 20
330907.0017000009
 10
-24514.45000000019
 20
330907.4955000002
 10
-24514.44120000024
 20
330907.9891999998
 10
-24514.43169999961
 20
330908.4827999995
 10
-24514.4216
 20
330908.9762999993
 10
-24514.41089999955
 20
330909.4695999995
 10
-24514.39950000029
 20
330909.9627000001
 10
-24514.38740000036
 20
330910.4557000008
 10
-24514.37459999975
 20
330910.9485999998
 10
-24514.36120000016
 20
330911.4414000009
 10
-24514.34700000007
 20
330911.9340000004
 10
-24514.33210000023
 20
330912.4264000003
 10
-24514.31649999972
 20
330912.9187000003
 10
-24514.3002000004
 20
330913.4109000005
 10
-24514.28309999965
 20
330913.9028999992
 10
-24514.26520000026
 20
330914.3947000001
 10
-24514.24650000036
 20
330914.8863999993
 10
-24514.22709999979
 20
330915.3780000005
 10
-24514.20689999964
 20
330915.8693000004
 10
-24514.18589999993
 20
330916.3606000003
 10
-24514.16399999987
 20
330916.8517000005
 10
-24514.14140000008
 20
330917.3425999992
 10
-24514.11780000012
 20
330917.8333000001
 10
-24514.09350000043
 20
330918.3238999993
 10
-24514.06819999963
 20
330918.8143000007
 10
-24514.0421000002
 20
330919.3045000006
 10
-24514.01510000043
 20
330919.7946000006
 10
-24513.98730000015
 20
330920.2844999992
 10
-24513.95849999972
 20
330920.7741999999
 10
-24513.92879999988
 20
330921.2638000008
 10
-24513.89809999988
 20
330921.7531000004
 10
-24513.86649999954
 20
330922.2423000001
 10
-24513.8339999998
 20
330922.7313000001
 10
-24513.8004999999
 20
330923.2201000006
 10
-24513.76609999966
 20
330923.7086999994
 10
-24513.73060000036
 20
330924.1971000004
 10
-24513.69419999979
 20
330924.6853000001
 10
-24513.65670000017
 20
330925.1732999999
 10
-24513.61830000021
 20
330925.6612
 10
-24513.57880000025
 20
330926.1488000006
 10
-24513.53830000013
 20
330926.6361999996
 10
-24513.49670000002
 20
330927.1232999992
 10
-24513.45399999991
 20
330927.6103000008
 10
-24513.41029999964
 20
330928.0969999992
 10
-24513.36560000014
 20
330928.5835999996
 10
-24513.31969999988
 20
330929.0699000005
 10
-24513.27269999962
 20
330929.5559000001
 10
-24513.22460000031
 20
330930.0417999998
 10
-24513.17540000006
 20
330930.5274000001
 10
-24513.125
 20
330931.0127000008
 10
-24513.07359999977
 20
330931.4978000001
 10
-24513.02089999989
 20
330931.9826999996
 10
-24512.96710000001
 20
330932.4672999997
 10
-24512.91210000031
 20
330932.9517000001
 10
-24512.85589999985
 20
330933.4357999992
 10
-24512.79849999957
 20
330933.9196000006
 10
-24512.16650000028
 20
330938.6885000002
1001
AcMap_E615D161-C9D7-11d3-839F-0060B0FB6B57
1071
        1
1071
       13
  0
LWPOLYLINE
  5
A82
330
1F
100
AcDbEntity
  8
Straßenverlauf_FBRD
100
AcDbPolyline
 90
       19
 70
     0
 43
0.0
 10
-24530.08050000016
 20
330937.7665999998
 10
-24526.29619999975
 20
330938.7407000009
 10
-24525.51219999977
 20
330938.9426000007
 10
-24524.4254999999
 20
330939.3199000005
 10
-24523.41530000046
 20
330939.8701000009
 10
-24522.50879999995
 20
330940.578400001
 10
-24521.7304999996
 20
330941.4255
 10
-24521.1015999997
 20
330942.3886999991
 10
-24520.63879999984
 20
330943.4419
 10
-24520.35479999985
 20
330944.5566000007
 10
-24518.72240000032
 20
330953.1017000005
 10
-24516.72310000006
 20
330961.5683999993
 10
-24514.36060000025
 20
330969.9410999995
 10
-24514.08980000019
 20
330971.1610000003
 10
-24514.01240000036
 20
330972.4081999995
 10
-24514.12999999989
 20
330973.6523000002
 10
-24514.44000000041
 20
330974.8628000003
 10
-24514.9347000001
 20
330976.0102999993
 10
-24515.46499999985
 20
330977.0160000008
1001
AcMap_E615D161-C9D7-11d3-839F-0060B0FB6B57
1071
        1
1071
       13
  0
LWPOLYLINE
  5
A83
330
1F
100
AcDbEntity
  8
Straßenverlauf_FBRD
100
AcDbPolyline
 90
      116
 70
     0
 43
0.0
 10
-24512.16650000028
 20
330938.6885000002
 10
-24512.94400000013
 20
330937.7931999993
 10
-24513.55920000002
 20
330936.7794000003
 10
-24513.99450000003
 20
330935.6764000003
 10
-24514.23739999998
 20
330934.5156999994
 10
-24514.28789999988
 20
330934.0980999991
 10
-24514.34570000041
 20
330933.6105000004
 10
-24514.40230000019
 20
330933.1227000002
 10
-24514.45770000014
 20
330932.6347000003
 10
-24514.51190000027
 20
330932.1464000009
 10
-24514.56500000041
 20
330931.6579999999
 10
-24514.61689999979
 20
330931.1692999993
 10
-24514.66760000028
 20
330930.6804000009
 10
-24514.71710000001
 20
330930.1912999992
 10
-24514.76559999958
 20
330929.7019999996
 10
-24514.81290000025
 20
330929.2125000004
 10
-24514.8591
 20
330928.7227999997
 10
-24514.90419999976
 20
330928.2328999993
 10
-24514.94820000045
 20
330927.7427999993
 10
-24514.99110000022
 20
330927.2524999995
 10
-24515.03299999982
 20
330926.7621
 10
-24515.07380000036
 20
330926.2714000009
 10
-24515.11349999998
 20
330925.7806000002
 10
-24515.15220000036
 20
330925.2896999996
 10
-24515.18989999965
 20
330924.7984999996
 10
-24515.2265999997
 20
330924.3071999997
 10
-24515.26219999977
 20
330923.8158
 10
-24515.29690000042
 20
330923.3241000008
 10
-24515.33059999999
 20
330922.8322999999
 10
-24515.36330000032
 20
330922.3403999992
 10
-24515.39510000031
 20
330921.8483000007
 10
-24515.42590000015
 20
330921.3561000004
 10
-24515.45579999965
 20
330920.8637000006
 10
-24515.48479999974
 20
330920.3710999992
 10
-24515.51279999968
 20
330919.8784999997
 10
-24515.53990000021
 20
330919.3857000005
 10
-24515.56620000023
 20
330918.8926999997
 10
-24515.59159999993
 20
330918.3995999993
 10
-24515.61610000022
 20
330917.9064000007
 10
-24515.63970000017
 20
330917.4131000005
 10
-24515.66249999963
 20
330916.9196000006
 10
-24515.68439999968
 20
330916.4260000009
 10
-24515.70559999999
 20
330915.9322999995
 10
-24515.72589999996
 20
330915.4384000004
 10
-24515.74540000037
 20
330914.9443999995
 10
-24515.76420000009
 20
330914.4503000006
 10
-24515.78210000042
 20
330913.9561000001
 10
-24515.79930000007
 20
330913.4617999998
 10
-24515.81570000015
 20
330912.9673999996
 10
-24515.83139999956
 20
330912.4727999997
 10
-24515.84640000016
 20
330911.9781999998
 10
-24515.86060000025
 20
330911.4834000002
 10
-24515.87409999967
 20
330910.988500001
 10
-24515.88690000027
 20
330910.4934999999
 10
-24515.89910000004
 20
330909.9984000009
 10
-24515.91050000023
 20
330909.5032000002
 10
-24515.92129999958
 20
330909.0078999997
 10
-24515.93140000012
 20
330908.5124999993
 10
-24515.94089999981
 20
330908.0170000009
 10
-24515.94979999959
 20
330907.5214000009
 10
-24515.95799999964
 20
330907.0256999992
 10
-24515.9656999996
 20
330906.5298999995
 10
-24515.97269999981
 20
330906.034
 10
-24515.97919999994
 20
330905.5380000007
 10
-24515.98510000017
 20
330905.0418999996
 10
-24515.99039999954
 20
330904.5457000006
 10
-24515.99519999977
 20
330904.0493999999
 10
-24515.99940000009
 20
330903.5530999992
 10
-24516.00310000032
 20
330903.0566000007
 10
-24516.00629999954
 20
330902.5600000005
 10
-24516.00899999961
 20
330902.0634000004
 10
-24516.0111999996
 20
330901.5666000005
 10
-24516.01290000044
 20
330901.0698000007
 10
-24516.01410000026
 20
330900.5728999991
 10
-24516.01489999983
 20
330900.0758999996
 10
-24516.01530000009
 20
330899.5788000003
 10
-24516.01520000026
 20
330899.0815999993
 10
-24516.01470000018
 20
330898.5843000002
 10
-24516.01370000001
 20
330898.0868999995
 10
-24516.01240000035
 20
330897.5895000008
 10
-24516.01070000045
 20
330897.0919000004
 10
-24516.00860000029
 20
330896.5943
 10
-24516.00609999988
 20
330896.0965999999
 10
-24516.00329999998
 20
330895.5987999998
 10
-24516.00019999966
 20
330895.1009
 10
-24515.99670000002
 20
330894.6029000003
 10
-24515.99289999995
 20
330894.1049000007
 10
-24515.9888000004
 20
330893.6066999994
 10
-24515.98440000042
 20
330893.1085000001
 10
-24515.97970000003
 20
330892.610200001
 10
-24515.97479999997
 20
330892.1118000001
 10
-24515.96949999966
 20
330891.6132999994
 10
-24515.96410000045
 20
330891.1147000008
 10
-24515.95839999989
 20
330890.6160000005
 10
-24515.95249999967
 20
330890.1173000001
 10
-24515.94629999995
 20
330889.6184
 10
-24515.94000000041
 20
330889.1195000001
 10
-24515.93350000027
 20
330888.6205000002
 10
-24515.92679999955
 20
330888.1214000005
 10
-24515.9199000001
 20
330887.6221999992
 10
-24515.91289999988
 20
330887.1229999997
 10
-24515.9057
 20
330886.6236000005
 10
-24515.8984000003
 20
330886.1241999995
 10
-24515.89099999983
 20
330885.6246000007
 10
-24515.8833999997
 20
330885.125
 10
-24515.87579999957
 20
330884.6252999995
 10
-24515.86809999962
 20
330884.1254999992
 10
-24515.86029999983
 20
330883.6257000007
 10
-24515.85250000004
 20
330883.1257000007
 10
-24515.84460000042
 20
330882.6256000009
 10
-24515.83669999987
 20
330882.1254999992
 10
-24515.82870000042
 20
330881.6252999995
 10
-24515.82070000004
 20
330881.125
 10
-24515.34350000042
 20
330851.1490000002
 10
-24514.89059999958
 20
330846.4122000002
 10
-24513.69450000022
 20
330841.8066000007
1001
AcMap_E615D161-C9D7-11d3-839F-0060B0FB6B57
1071
        1
1071
       13
  0
LWPOLYLINE
  5
A84
330
1F
100
AcDbEntity
  8
Straßenverlauf_FBRD
100
AcDbPolyline
 90
        4
 70
     0
 43
0.0
 10
-24509.38850000035
 20
330940.3453000002
 10
-24510.39690000005
 20
330939.9397999999
 10
-24511.33040000033
 20
330939.3829999995
 10
-24512.16650000028
 20
330938.6885000002
1001
AcMap_E615D161-C9D7-11d3-839F-0060B0FB6B57
1071
        1
1071
       13
  0
LWPOLYLINE
  5
A85
330
1F
100
AcDbEntity
  8
Straßenverlauf_FBRD
100
AcDbPolyline
 90
        4
 70
     0
 43
0.0
 10
-24501.13900000043
 20
330941.4100000001
 10
-24508.07780000009
 20
330940.6229999997
 10
-24508.73979999963
 20
330940.5155999996
 10
-24509.38850000035
 20
330940.3453000002
1001
AcMap_E615D161-C9D7-11d3-839F-0060B0FB6B57
1071
        1
1071
       13
  0
LWPOLYLINE
  5
A86
330
1F
100
AcDbEntity
  8
Straßenverlauf_FBRD
100
AcDbPolyline
 90
        6
 70
     0
 43
0.0
 10
-24508.56639999989
 20
330945.1956999991
 10
-24507.72699999995
 20
330944.6586000007
 10
-24506.81989999954
 20
330944.2462000009
 10
-24505.86340000015
 20
330943.9667000007
 10
-24504.87689999957
 20
330943.8258999996
 10
-24501.1453999998
 20
330943.5623000004
1001
AcMap_E615D161-C9D7-11d3-839F-0060B0FB6B57
1071
        1
1071
       13
  0
LWPOLYLINE
  5
A87
330
1F
100
AcDbEntity
  8
Straßenverlauf_FBRD
100
AcDbPolyline
 90
      142
 70
     0
 43
0.0
 10
-24508.56639999989
 20
330945.1956999991
 10
-24506.06520000007
 20
330956.8127999995
 10
-24502.84360000026
 20
330968.2510000002
 10
-24498.91430000029
 20
330979.4658000003
 10
-24494.29239999969
 20
330990.4134999998
 10
-24488.99610000011
 20
331001.0512000006
 10
-24483.04600000009
 20
331011.3375000004
 10
-24476.46530000027
 20
331021.2323000003
 10
-24469.27969999984
 20
331030.6969000008
 10
-24461.51719999965
 20
331039.6944999993
 10
-24461.19079999998
 20
331040.0488000009
 10
-24460.86340000015
 20
331040.4024999999
 10
-24460.53479999956
 20
331040.7556999996
 10
-24460.20519999974
 20
331041.1083000005
 10
-24459.87459999975
 20
331041.4604000003
 10
-24459.54289999977
 20
331041.8118999992
 10
-24459.21019999962
 20
331042.1629000008
 10
-24458.87650000025
 20
331042.5133999996
 10
-24458.54179999977
 20
331042.8632999994
 10
-24458.20610000007
 20
331043.2127999999
 10
-24457.86950000003
 20
331043.5617999993
 10
-24457.53189999983
 20
331043.9102999997
 10
-24457.19340000022
 20
331044.2583000008
 10
-24456.85390000045
 20
331044.6059000008
 10
-24456.51360000018
 20
331044.9530999996
 10
-24456.17239999958
 20
331045.2997999993
 10
-24455.83029999957
 20
331045.6460999996
 10
-24455.48730000016
 20
331045.9920000006
 10
-24455.14350000024
 20
331046.3375000004
 10
-24454.79889999982
 20
331046.6827000007
 10
-24454.4534
 20
331047.0274
 10
-24454.10720000043
 20
331047.3717999999
 10
-24453.76020000037
 20
331047.7159000002
 10
-24453.4123999998
 20
331048.0595999994
 10
-24453.06379999966
 20
331048.4030000008
 10
-24452.71449999977
 20
331048.7462000009
 10
-24452.36450000014
 20
331049.0889999997
 10
-24452.01370000001
 20
331049.4315000009
 10
-24451.66220000014
 20
331049.7738000006
 10
-24451.31010000035
 20
331050.1158000008
 10
-24450.9572999999
 20
331050.4575999994
 10
-24450.60379999969
 20
331050.7991000005
 10
-24450.24969999958
 20
331051.1404999998
 10
-24449.89489999972
 20
331051.4815999996
 10
-24449.53959999978
 20
331051.8225999997
 10
-24449.18360000011
 20
331052.1633000001
 10
-24448.82699999958
 20
331052.5040000007
 10
-24448.46989999991
 20
331052.8443999999
 10
-24448.11220000032
 20
331053.1848000009
 10
-24447.7538999999
 20
331053.5250000004
 10
-24447.39510000032
 20
331053.8651000001
 10
-24447.03579999972
 20
331054.2051999997
 10
-24446.67599999998
 20
331054.5450999998
 10
-24446.31570000015
 20
331054.8849999998
 10
-24445.95490000025
 20
331055.2248
 10
-24445.59370000009
 20
331055.5646000002
 10
-24445.23190000001
 20
331055.9044000004
 10
-24444.86980000045
 20
331056.2442000005
 10
-24444.50719999988
 20
331056.5840000008
 10
-24444.14419999998
 20
331056.923800001
 10
-24443.78089999966
 20
331057.2636999991
 10
-24443.4171000002
 20
331057.6035999992
 10
-24443.0530000003
 20
331057.9436000008
 10
-24442.68850000017
 20
331058.2836000007
 10
-24442.32359999977
 20
331058.6238000002
 10
-24441.95849999972
 20
331058.9640999995
 10
-24441.59300000035
 20
331059.3044000007
 10
-24441.22719999962
 20
331059.6449999996
 10
-24440.86110000033
 20
331059.9857000001
 10
-24440.49480000045
 20
331060.3265000005
 10
-24440.12820000015
 20
331060.6676000003
 10
-24439.76140000019
 20
331061.0088
 10
-24439.39489999972
 20
331061.3497000002
 10
-24439.02819999959
 20
331061.6908
 10
-24438.6612999998
 20
331062.0321999993
 10
-24438.29430000018
 20
331062.3738000002
 10
-24437.92709999997
 20
331062.7157000006
 10
-24437.5597000001
 20
331063.0578000006
 10
-24437.1922000004
 20
331063.4002
 10
-24436.8245000001
 20
331063.7430000007
 10
-24436.45669999998
 20
331064.0861000009
 10
-24436.08889999986
 20
331064.4295000006
 10
-24435.72090000007
 20
331064.7731999998
 10
-24435.35290000029
 20
331065.1173000001
 10
-24434.98479999974
 20
331065.4617999997
 10
-24434.61670000013
 20
331065.8067000006
 10
-24434.24849999976
 20
331066.1521000006
 10
-24433.88030000031
 20
331066.4978000001
 10
-24433.51219999977
 20
331066.8440000006
 10
-24433.14400000032
 20
331067.1906000003
 10
-24432.77579999994
 20
331067.5376999994
 10
-24432.40770000033
 20
331067.8851999995
 10
-24432.03959999979
 20
331068.2333000005
 10
-24431.6716
 20
331068.5819000006
 10
-24431.30370000005
 20
331068.9309999999
 10
-24430.93589999993
 20
331069.2806000002
 10
-24430.56819999963
 20
331069.6307999995
 10
-24430.2006000001
 20
331069.9815999996
 10
-24429.83320000023
 20
331070.3330000006
 10
-24429.46590000019
 20
331070.6849000008
 10
-24429.09869999998
 20
331071.0374999997
 10
-24428.73180000018
 20
331071.3906999995
 10
-24428.36500000022
 20
331071.7445
 10
-24427.99849999976
 20
331072.0989999995
 10
-24427.63219999988
 20
331072.4540999998
 10
-24427.26609999966
 20
331072.8100000006
 10
-24426.90029999986
 20
331073.1665000003
 10
-24426.53469999973
 20
331073.5238000006
 10
-24426.16949999985
 20
331073.8817999997
 10
-24425.80449999962
 20
331074.2404999994
 10
-24425.43989999965
 20
331074.5999999997
 10
-24425.0756000001
 20
331074.9602000006
 10
-24424.71160000004
 20
331075.3213
 10
-24424.34800000023
 20
331075.6831000001
 10
-24423.98479999974
 20
331076.0457000006
 10
-24423.62200000044
 20
331076.4091999997
 10
-24423.25960000045
 20
331076.7734999992
 10
-24422.89759999979
 20
331077.1386999991
 10
-24422.53610000014
 20
331077.5046999995
 10
-24422.17499999981
 20
331077.8716000002
 10
-24421.81450000033
 20
331078.2393999994
 10
-24421.45440000016
 20
331078.6081000008
 10
-24421.09480000008
 20
331078.9778000005
 10
-24420.73570000008
 20
331079.3483000007
 10
-24420.37719999999
 20
331079.7199000009
 10
-24420.01929999981
 20
331080.0922999997
 10
-24419.66189999972
 20
331080.4658000004
 10
-24419.30510000046
 20
331080.8401999995
 10
-24418.94900000002
 20
331081.2157000005
 10
-24418.59339999966
 20
331081.5921
 10
-24418.23859999981
 20
331081.9695999995
 10
-24417.88430000003
 20
331082.3482000009
 10
-24417.53079999983
 20
331082.7277000007
 10
-24417.17800000031
 20
331083.1084000003
 10
-24416.82589999959
 20
331083.4901000001
 10
-24416.47449999955
 20
331083.8728999999
 10
-24416.12390000001
 20
331084.2567999996
 10
-24408.35649999976
 20
331093.3000000008
 10
-24401.12959999964
 20
331102.7807
 10
-24394.46779999975
 20
331112.6667
 10
-24388.39389999956
 20
331122.9243000001
 10
-24382.92839999963
 20
331133.5186999999
1001
AcMap_E615D161-C9D7-11d3-839F-0060B0FB6B57
1071
        1
1071
       13
  0
LWPOLYLINE
  5
A88
330
1F
100
AcDbEntity
  8
Straßenverlauf_FBRD
100
AcDbPolyline
 90
        4
 70
     0
 43
0.0
 10
-24510.64319999982
 20
330947.6753000003
 10
-24510.08270000015
 20
330946.7441000008
 10
-24509.38480000012
 20
330945.9109000005
 10
-24508.56639999989
 20
330945.1956999991
1001
AcMap_E615D161-C9D7-11d3-839F-0060B0FB6B57
1071
        1
1071
       13
  0
LWPOLYLINE
  5
A89
330
1F
100
AcDbEntity
  8
Straßenverlauf_FBRD
100
AcDbPolyline
 90
      142
 70
     0
 43
0.0
 10
-24510.64319999982
 20
330947.6753000003
 10
-24508.04069999978
 20
330959.1950000003
 10
-24504.73759999964
 20
330970.5337000006
 10
-24500.74629999977
 20
330981.6488000006
 10
-24496.08179999981
 20
330992.4986000005
 10
-24490.76150000002
 20
331003.0424000006
 10
-24484.80559999961
 20
331013.2404999994
 10
-24478.23620000016
 20
331023.0548000001
 10
-24471.07809999958
 20
331032.4483000003
 10
-24463.35819999967
 20
331041.3858000003
 10
-24463.02759999968
 20
331041.7447999995
 10
-24462.6958999997
 20
331042.1031
 10
-24462.36319999956
 20
331042.4606999998
 10
-24462.02960000001
 20
331042.8177000005
 10
-24461.69489999954
 20
331043.1740000006
 10
-24461.35919999983
 20
331043.5296999999
 10
-24461.02259999979
 20
331043.8848000001
 10
-24460.68510000035
 20
331044.2392999995
 10
-24460.34659999982
 20
331044.5932
 10
-24460.00719999988
 20
331044.9465999994
 10
-24459.66689999961
 20
331045.2993000001
 10
-24459.32579999976
 20
331045.6514999997
 10
-24458.98369999975
 20
331046.0032000002
 10
-24458.64080000017
 20
331046.3542999998
 10
-24458.29710000008
 20
331046.7049000003
 10
-24457.95249999966
 20
331047.0550999995
 10
-24457.60720000043
 20
331047.4046999999
 10
-24457.26099999994
 20
331047.7537999992
 10
-24456.9140999997
 20
331048.1024999992
 10
-24456.56639999989
 20
331048.4507
 10
-24456.21800000034
 20
331048.7983999998
 10
-24455.86880000029
 20
331049.1457000003
 10
-24455.51889999956
 20
331049.4925999996
 10
-24455.16830000002
 20
331049.8390999995
 10
-24454.81699999981
 20
331050.1852000002
 10
-24454.46499999985
 20
331050.5309999995
 10
-24454.11239999998
 20
331050.8762999996
 10
-24453.7592000002
 20
331051.2213000003
 10
-24453.40529999975
 20
331051.5659999996
 10
-24453.05069999956
 20
331051.9102999997
 10
-24452.69560000021
 20
331052.2543000002
 10
-24452.33990000002
 20
331052.5979999994
 10
-24451.98359999992
 20
331052.9415000007
 10
-24451.62679999974
 20
331053.2846000009
 10
-24451.26939999964
 20
331053.6274999995
 10
-24450.91139999963
 20
331053.9702000003
 10
-24450.55300000031
 20
331054.3125999998
 10
-24450.19400000013
 20
331054.6547999997
 10
-24449.83459999971
 20
331054.9967999999
 10
-24449.47470000014
 20
331055.3386000004
 10
-24449.11429999955
 20
331055.6801999994
 10
-24448.75349999964
 20
331056.0217000004
 10
-24448.39219999965
 20
331056.3629999999
 10
-24448.03050000034
 20
331056.7041999996
 10
-24447.66839999985
 20
331057.0452999994
 10
-24447.30590000004
 20
331057.3861999996
 10
-24446.9430999998
 20
331057.7270999998
 10
-24446.57980000041
 20
331058.0679000002
 10
-24446.21630000044
 20
331058.4086000007
 10
-24445.85230000038
 20
331058.7492999994
 10
-24445.48809999973
 20
331059.0899999999
 10
-24445.12359999959
 20
331059.4306000006
 10
-24444.75870000012
 20
331059.7711999994
 10
-24444.39360000007
 20
331060.1118999999
 10
-24444.02819999959
 20
331060.4526000004
 10
-24443.66249999963
 20
331060.7932999991
 10
-24443.29669999983
 20
331061.1340999995
 10
-24442.93049999978
 20
331061.4748999999
 10
-24442.5641999999
 20
331061.8158
 10
-24442.19770000037
 20
331062.1568999998
 10
-24441.83100000024
 20
331062.4979999997
 10
-24441.46410000045
 20
331062.8392999992
 10
-24441.09769999981
 20
331063.1801999994
 10
-24440.73110000044
 20
331063.5211999994
 10
-24440.36440000031
 20
331063.8624000009
 10
-24439.99760000035
 20
331064.2037000004
 10
-24439.63069999963
 20
331064.5452999994
 10
-24439.26370000001
 20
331064.8871
 10
-24438.89659999963
 20
331065.2291000001
 10
-24438.52950000018
 20
331065.5713
 10
-24438.1623999998
 20
331065.9137999993
 10
-24437.79519999959
 20
331066.2566
 10
-24437.4280000003
 20
331066.5997000002
 10
-24437.06080000009
 20
331066.943
 10
-24436.69359999988
 20
331067.2866999992
 10
-24436.32639999967
 20
331067.6306999996
 10
-24435.95930000022
 20
331067.9749999997
 10
-24435.59219999984
 20
331068.3197000008
 10
-24435.22520000022
 20
331068.6647999995
 10
-24434.85830000043
 20
331069.0101999995
 10
-24434.49149999954
 20
331069.3561000004
 10
-24434.12469999958
 20
331069.7022999991
 10
-24433.75810000021
 20
331070.0490000006
 10
-24433.39159999974
 20
331070.3961999994
 10
-24433.02529999986
 20
331070.7436999996
 10
-24432.65919999964
 20
331071.0918000005
 10
-24432.29320000019
 20
331071.4404000007
 10
-24431.92740000039
 20
331071.7894000001
 10
-24431.56180000026
 20
331072.1390000005
 10
-24431.19649999961
 20
331072.4890999999
 10
-24430.83139999956
 20
331072.8397000004
 10
-24430.4665000001
 20
331073.1908999998
 10
-24430.10190000013
 20
331073.5426000003
 10
-24429.73759999965
 20
331073.8949999996
 10
-24429.37349999975
 20
331074.2478999999
 10
-24429.00980000012
 20
331074.6015000008
 10
-24428.64639999997
 20
331074.9557000008
 10
-24428.28330000024
 20
331075.3104999997
 10
-24427.92059999984
 20
331075.6659999993
 10
-24427.55829999968
 20
331076.0220999998
 10
-24427.19629999995
 20
331076.3790000006
 10
-24426.8348000003
 20
331076.7365000006
 10
-24426.47369999997
 20
331077.0946999993
 10
-24426.11290000006
 20
331077.4537000005
 10
-24425.75270000007
 20
331077.8134000004
 10
-24425.39290000033
 20
331078.1739000008
 10
-24425.03349999991
 20
331078.5351
 10
-24424.67470000032
 20
331078.8970999997
 10
-24424.31639999989
 20
331079.2599
 10
-24423.95859999955
 20
331079.6235000007
 10
-24423.60130000021
 20
331079.9879000001
 10
-24423.24459999986
 20
331080.3531
 10
-24422.88850000035
 20
331080.7192000002
 10
-24422.53289999999
 20
331081.0862000007
 10
-24422.1780000003
 20
331081.4539999999
 10
-24421.8236999996
 20
331081.8226999995
 10
-24421.46999999974
 20
331082.1922999994
 10
-24421.11699999962
 20
331082.5627999995
 10
-24420.76460000035
 20
331082.9342
 10
-24420.41289999988
 20
331083.3066000007
 10
-24420.06199999992
 20
331083.6798999999
 10
-24419.71169999987
 20
331084.0541999992
 10
-24419.36230000016
 20
331084.4294000008
 10
-24419.01350000035
 20
331084.8057000004
 10
-24418.66559999995
 20
331085.1829000004
 10
-24418.31840000022
 20
331085.5611000005
 10
-24417.97200000007
 20
331085.9404000007
 10
-24410.40629999992
 20
331094.7412000001
 10
-24403.35900000017
 20
331103.9623000007
 10
-24396.85329999961
 20
331113.5732000005
 10
-24390.91060000006
 20
331123.5419999994
 10
-24385.55080000032
 20
331133.8359999992
1001
AcMap_E615D161-C9D7-11d3-839F-0060B0FB6B57
1071
        1
1071
       13
  0
LWPOLYLINE
  5
A8A
330
1F
100
AcDbEntity
  8
Straßenverlauf_FBRD
100
AcDbPolyline
 90
      237
 70
     0
 43
0.0
 10
-24510.44930000044
 20
330989.3085999992
 10
-24509.41940000002
 20
330989.6295999997
 10
-24508.45110000018
 20
330990.1051000003
 10
-24507.56730000023
 20
330990.7237
 10
-24506.7890999997
 20
330991.4707999993
 10
-24506.13489999995
 20
330992.3285000008
 10
-24505.6202999996
 20
330993.2765999995
 10
-24500.92669999972
 20
331003.0659999997
 10
-24495.71339999978
 20
331012.5887000002
 10
-24489.99540000036
 20
331021.8171999995
 10
-24483.78920000047
 20
331030.7247000002
 10
-24477.11290000007
 20
331039.2854999993
 10
-24469.98570000008
 20
331047.4748
 10
-24469.6398
 20
331047.8504000008
 10
-24469.2929999996
 20
331048.2249999996
 10
-24468.94550000038
 20
331048.5986000002
 10
-24468.5970999999
 20
331048.9713000003
 10
-24468.24799999967
 20
331049.3430000004
 10
-24467.89809999987
 20
331049.7138000001
 10
-24467.54750000033
 20
331050.0836999994
 10
-24467.19610000029
 20
331050.4527000003
 10
-24466.84399999957
 20
331050.8209000007
 10
-24466.49129999988
 20
331051.1881000009
 10
-24466.13790000044
 20
331051.5545000006
 10
-24465.78380000032
 20
331051.92
 10
-24465.4291000003
 20
331052.2847000007
 10
-24465.0736999996
 20
331052.6486000009
 10
-24464.71779999975
 20
331053.0117000006
 10
-24464.36120000016
 20
331053.3739999999
 10
-24464.00409999955
 20
331053.7355000005
 10
-24463.64639999997
 20
331054.0962000005
 10
-24463.2882000003
 20
331054.4561999999
 10
-24462.92949999962
 20
331054.8155000005
 10
-24462.57029999979
 20
331055.1740000006
 10
-24462.21059999988
 20
331055.5318
 10
-24461.85039999988
 20
331055.8889000006
 10
-24461.4896999998
 20
331056.2454000004
 10
-24461.1286000004
 20
331056.6011999995
 10
-24460.76709999982
 20
331056.9562999997
 10
-24460.40510000009
 20
331057.3107999992
 10
-24460.04279999994
 20
331057.6645999998
 10
-24459.68010000046
 20
331058.0178999995
 10
-24459.31699999981
 20
331058.3705000002
 10
-24458.95349999983
 20
331058.7226
 10
-24458.58980000019
 20
331059.0741000008
 10
-24458.2257000003
 20
331059.4250000008
 10
-24457.86129999999
 20
331059.7753999997
 10
-24457.49660000019
 20
331060.1252999995
 10
-24457.13159999996
 20
331060.4747000001
 10
-24456.76640000008
 20
331060.8235999998
 10
-24456.40089999978
 20
331061.1720000003
 10
-24456.03519999981
 20
331061.5199999996
 10
-24455.66930000018
 20
331061.8674999997
 10
-24455.30319999996
 20
331062.2145000007
 10
-24454.93690000009
 20
331062.5612000003
 10
-24454.57039999962
 20
331062.9074000008
 10
-24454.20380000025
 20
331063.2533
 10
-24453.83700000029
 20
331063.5987
 10
-24453.47009999957
 20
331063.9439000004
 10
-24453.10309999995
 20
331064.2885999997
 10
-24452.73599999957
 20
331064.6330999993
 10
-24452.36880000029
 20
331064.9771999996
 10
-24452.00150000025
 20
331065.3210000005
 10
-24451.6342000002
 20
331065.6645999998
 10
-24451.26680000033
 20
331066.0077999998
 10
-24450.89940000046
 20
331066.3509
 10
-24450.53199999966
 20
331066.6937000006
 10
-24450.16459999979
 20
331067.0362
 10
-24449.79719999992
 20
331067.3785999995
 10
-24449.42989999987
 20
331067.7206999995
 10
-24449.0625
 20
331068.0626999996
 10
-24448.69529999979
 20
331068.4045000002
 10
-24448.32809999958
 20
331068.7460999992
 10
-24447.96100000013
 20
331069.0877000001
 10
-24447.59389999974
 20
331069.4290999994
 10
-24447.22759999987
 20
331069.7697999999
 10
-24446.86139999982
 20
331070.1105000005
 10
-24446.49540000036
 20
331070.4510999992
 10
-24446.12949999981
 20
331070.7916000001
 10
-24445.76379999984
 20
331071.1320999992
 10
-24445.39819999971
 20
331071.4725000002
 10
-24445.03280000016
 20
331071.8129999992
 10
-24444.66760000028
 20
331072.1534000002
 10
-24444.30269999989
 20
331072.4938999992
 10
-24443.93790000025
 20
331072.8344000001
 10
-24443.57340000011
 20
331073.1749000009
 10
-24443.20920000039
 20
331073.5154999998
 10
-24442.84520000033
 20
331073.8561000004
 10
-24442.48149999976
 20
331074.1969000008
 10
-24442.11809999961
 20
331074.5376999993
 10
-24441.75499999989
 20
331074.8786999993
 10
-24441.39219999965
 20
331075.2197999992
 10
-24441.02979999967
 20
331075.5610000007
 10
-24440.66770000011
 20
331075.9024
 10
-24440.30599999987
 20
331076.2438999992
 10
-24439.94460000005
 20
331076.5855999999
 10
-24439.58370000031
 20
331076.9275000003
 10
-24439.22310000006
 20
331077.2697000001
 10
-24438.86290000007
 20
331077.6119999998
 10
-24438.50320000015
 20
331077.9546000008
 10
-24438.14389999956
 20
331078.2974999995
 10
-24437.78509999998
 20
331078.6405999996
 10
-24437.42669999972
 20
331078.9839999993
 10
-24437.06890000031
 20
331079.3276000005
 10
-24436.71150000021
 20
331079.6715999991
 10
-24436.3546000002
 20
331080.015900001
 10
-24435.99830000009
 20
331080.3605000005
 10
-24435.64250000008
 20
331080.7054999993
 10
-24435.28720000014
 20
331081.0507999994
 10
-24434.93250000011
 20
331081.3965000008
 10
-24434.5784
 20
331081.7425999996
 10
-24434.2248999998
 20
331082.0890999995
 10
-24433.87200000044
 20
331082.4360000007
 10
-24433.51970000006
 20
331082.7832999994
 10
-24433.1679999996
 20
331083.1309999991
 10
-24432.81699999981
 20
331083.4792
 10
-24432.46669999976
 20
331083.8278999999
 10
-24432.11699999962
 20
331084.1769999993
 10
-24431.76800000016
 20
331084.5265999996
 10
-24431.41970000044
 20
331084.8767000009
 10
-24431.07220000029
 20
331085.2272999995
 10
-24430.72539999988
 20
331085.5785000008
 10
-24430.37930000015
 20
331085.9300999996
 10
-24430.03399999998
 20
331086.2822999992
 10
-24429.68950000033
 20
331086.6350999996
 10
-24429.34580000025
 20
331086.9883999993
 10
-24429.00289999973
 20
331087.3423999995
 10
-24428.66079999972
 20
331087.6969000008
 10
-24428.31950000022
 20
331088.0519999992
 10
-24427.97910000011
 20
331088.4077000004
 10
-24427.63960000034
 20
331088.7640000004
 10
-24427.30090000015
 20
331089.1209999994
 10
-24426.96320000012
 20
331089.4787000008
 10
-24426.62629999965
 20
331089.8369999994
 10
-24426.29040000029
 20
331090.1959000007
 10
-24425.95550000016
 20
331090.5556000006
 10
-24425.62150000036
 20
331090.9158999995
 10
-24425.28839999996
 20
331091.2770000007
 10
-24424.95639999956
 20
331091.6386999991
 10
-24424.62540000025
 20
331092.0011999999
 10
-24416.89309999999
 20
331101.0337000006
 10
-24409.73220000044
 20
331110.5255999994
 10
-24403.16980000027
 20
331120.4407000002
 10
-24397.23089999985
 20
331130.7412999999
 10
-24391.93809999991
 20
331141.3883999996
 10
-24387.31149999984
 20
331152.3413999994
 10
-24383.36859999969
 20
331163.5587000008
 10
-24380.12449999992
 20
331174.9977000002
 10
-24380.00329999998
 20
331175.4838999994
 10
-24379.88329999987
 20
331175.9705999997
 10
-24379.76449999958
 20
331176.4579000008
 10
-24379.64680000022
 20
331176.9455999993
 10
-24379.53019999992
 20
331177.4339000005
 10
-24379.41459999978
 20
331177.9227000009
 10
-24379.30009999965
 20
331178.4119000007
 10
-24379.18659999967
 20
331178.9015999995
 10
-24379.07400000002
 20
331179.3917999994
 10
-24378.96250000037
 20
331179.8824000005
 10
-24378.8518000003
 20
331180.3735000007
 10
-24378.74199999962
 20
331180.8650000003
 10
-24378.63310000021
 20
331181.3570000008
 10
-24378.52500000037
 20
331181.8493000008
 10
-24378.41779999994
 20
331182.3421000001
 10
-24378.31130000017
 20
331182.8353000004
 10
-24378.20550000016
 20
331183.3289000001
 10
-24378.10049999971
 20
331183.8228999992
 10
-24377.9961000001
 20
331184.3171999995
 10
-24377.89240000025
 20
331184.8120000008
 10
-24377.7893000003
 20
331185.3070999999
 10
-24377.68680000026
 20
331185.8025000002
 10
-24377.58490000013
 20
331186.2982999999
 10
-24377.48359999992
 20
331186.7945000008
 10
-24377.38269999996
 20
331187.2909999993
 10
-24377.28230000008
 20
331187.7877999992
 10
-24377.18230000045
 20
331188.2850000002
 10
-24377.08279999998
 20
331188.7825000007
 10
-24376.98369999975
 20
331189.2802000008
 10
-24376.88489999995
 20
331189.7783000004
 10
-24376.78639999963
 20
331190.2766999994
 10
-24376.68819999974
 20
331190.7753999997
 10
-24376.59030000027
 20
331191.2743999996
 10
-24376.49270000029
 20
331191.7737000007
 10
-24376.39520000014
 20
331192.2731999997
 10
-24376.29789999966
 20
331192.7730000001
 10
-24376.20069999993
 20
331193.2730999999
 10
-24376.10369999986
 20
331193.7733999994
 10
-24376.0066999998
 20
331194.2740000002
 10
-24375.90979999956
 20
331194.7748000007
 10
-24375.81290000025
 20
331195.2759000007
 10
-24375.71600000001
 20
331195.7772000004
 10
-24355.48230000027
 20
331300.443
 10
-24353.03729999997
 20
331315.0382000003
 10
-24347.40510000009
 20
331354.7173999995
 10
-24344.90440000035
 20
331370.5254999996
 10
-24341.90280000027
 20
331386.2462000009
 10
-24341.78519999981
 20
331386.8318000008
 10
-24341.58550000005
 20
331387.8221000005
 10
-24341.38489999995
 20
331388.8125
 10
-24341.18350000028
 20
331389.8029999994
 10
-24340.98120000027
 20
331390.7935000006
 10
-24340.77790000011
 20
331391.7840999998
 10
-24340.57359999977
 20
331392.7748000008
 10
-24340.36830000021
 20
331393.7651000004
 10
-24340.16189999971
 20
331394.7558999994
 10
-24339.95440000016
 20
331395.7467
 10
-24339.74569999985
 20
331396.7375000008
 10
-24339.53579999972
 20
331397.7282999996
 10
-24339.32469999977
 20
331398.7191000003
 10
-24339.11239999999
 20
331399.7098999993
 10
-24338.89869999979
 20
331400.7006999999
 10
-24338.68369999994
 20
331401.6915000007
 10
-24338.46740000043
 20
331402.6821999997
 10
-24338.24959999975
 20
331403.6729000006
 10
-24338.03029999975
 20
331404.6634999999
 10
-24337.80960000027
 20
331405.6541000009
 10
-24337.58729999978
 20
331406.6446000003
 10
-24337.36349999998
 20
331407.6349999998
 10
-24337.13800000027
 20
331408.6251999997
 10
-24336.91100000031
 20
331409.6153999996
 10
-24336.68219999969
 20
331410.6054999996
 10
-24336.45170000009
 20
331411.5954
 10
-24336.21939999983
 20
331412.5852000006
 10
-24335.98539999966
 20
331413.5747999996
 10
-24335.74949999992
 20
331414.5642000009
 10
-24335.51169999968
 20
331415.5535000004
 10
-24335.27199999988
 20
331416.5426000003
 10
-24335.03039999958
 20
331417.5314000007
 10
-24334.78679999989
 20
331418.5200999994
 10
-24334.54119999986
 20
331419.5085000005
 10
-24334.29349999968
 20
331420.4966000002
 10
-24334.04370000027
 20
331421.4845000003
 10
-24333.79229999986
 20
331422.4701000005
 10
-24333.54330000002
 20
331423.4376999997
 10
-24333.1183000002
 20
331425.9403000008
 10
-24333.12139999959
 20
331428.4788000006
 10
-24333.55250000023
 20
331430.9803
 10
-24334.3992999997
 20
331433.3734000009
1001
AcMap_E615D161-C9D7-11d3-839F-0060B0FB6B57
1071
        1
1071
       13
  0
LWPOLYLINE
  5
A8B
330
1F
100
AcDbEntity
  8
Straßenverlauf_FBRD
100
AcDbPolyline
 90
        3
 70
     0
 43
0.0
 10
-24381.1464999998
 20
331132.6090999991
 10
-24382.66569999978
 20
331133.3772
 10
-24382.92839999963
 20
331133.5186999999
1001
AcMap_E615D161-C9D7-11d3-839F-0060B0FB6B57
1071
        1
1071
       13
  0
LWPOLYLINE
  5
A8C
330
1F
100
AcDbEntity
  8
Straßenverlauf_FBRD
100
AcDbPolyline
 90
        5
 70
     0
 43
0.0
 10
-24382.92839999963
 20
331133.5186999999
 10
-24383.55439999979
 20
331133.7634999995
 10
-24384.21270000003
 20
331133.9001000003
 10
-24384.88439999987
 20
331133.9244999998
 10
-24385.55080000032
 20
331133.8359999992
1001
AcMap_E615D161-C9D7-11d3-839F-0060B0FB6B57
1071
        1
1071
       13
  0
LWPOLYLINE
  5
A8D
330
1F
100
AcDbEntity
  8
Straßenverlauf_FBRD
100
AcDbPolyline
 90
      152
 70
     0
 43
0.0
 10
-24385.55080000032
 20
331133.8359999992
 10
-24386.1174999997
 20
331133.6667999998
 10
-24386.65309999976
 20
331133.4158999995
 10
-24387.14589999989
 20
331133.0887000002
 10
-24387.58499999996
 20
331132.6925000008
 10
-24387.9609000003
 20
331132.2357999999
 10
-24388.26530000009
 20
331131.7287000008
 10
-24393.43429999985
 20
331122.1281000003
 10
-24399.11789999996
 20
331112.8227999993
 10
-24405.29930000007
 20
331103.8406000007
 10
-24411.96019999962
 20
331095.2080000006
 10
-24419.08090000041
 20
331086.9505000003
 10
-24419.42470000032
 20
331086.5741000008
 10
-24419.76939999964
 20
331086.1985999998
 10
-24420.11479999963
 20
331085.8239999991
 10
-24420.46109999996
 20
331085.4505000003
 10
-24420.80819999985
 20
331085.0778000001
 10
-24421.15600000043
 20
331084.7061000001
 10
-24421.5047000004
 20
331084.3353000004
 10
-24421.85400000028
 20
331083.9653999992
 10
-24422.20409999974
 20
331083.5963000003
 10
-24422.55480000004
 20
331083.2281999998
 10
-24422.90629999992
 20
331082.8608999998
 10
-24423.25850000046
 20
331082.4945
 10
-24423.61129999999
 20
331082.1289000009
 10
-24423.96470000036
 20
331081.7641000003
 10
-24424.31879999954
 20
331081.4001000002
 10
-24424.67339999974
 20
331081.0370000005
 10
-24425.02869999968
 20
331080.6745999996
 10
-24425.3844999997
 20
331080.3129999992
 10
-24425.74100000039
 20
331079.9520999994
 10
-24426.0979000004
 20
331079.5920000002
 10
-24426.45540000033
 20
331079.2325999998
 10
-24426.81340000033
 20
331078.8739999999
 10
-24427.17190000042
 20
331078.5161000006
 10
-24427.53089999966
 20
331078.1588000003
 10
-24427.89030000009
 20
331077.8022000008
 10
-24428.25019999966
 20
331077.4463
 10
-24428.61060000025
 20
331077.0910999999
 10
-24428.97130000032
 20
331076.7365000006
 10
-24429.33249999955
 20
331076.3825000003
 10
-24429.69409999996
 20
331076.0291000009
 10
-24430.05599999987
 20
331075.6764000003
 10
-24430.41830000002
 20
331075.3242000006
 10
-24430.78100000043
 20
331074.9726
 10
-24431.14400000032
 20
331074.6215000004
 10
-24431.50729999971
 20
331074.2709999998
 10
-24431.87090000045
 20
331073.9210000001
 10
-24432.23489999958
 20
331073.5714999996
 10
-24432.5990000004
 20
331073.2226
 10
-24432.96349999961
 20
331072.8740999997
 10
-24433.32820000034
 20
331072.5261000004
 10
-24433.6930999998
 20
331072.1785000004
 10
-24434.05829999969
 20
331071.8313999996
 10
-24434.42370000016
 20
331071.4846999999
 10
-24434.78920000047
 20
331071.1384999994
 10
-24435.15490000043
 20
331070.7926000003
 10
-24435.52080000006
 20
331070.4471000005
 10
-24435.88690000027
 20
331070.102
 10
-24436.25310000032
 20
331069.7573000007
 10
-24436.6194000002
 20
331069.4129000008
 10
-24436.98579999991
 20
331069.0688000005
 10
-24437.35230000038
 20
331068.7250999995
 10
-24437.71889999974
 20
331068.3816
 10
-24438.08550000004
 20
331068.0384
 10
-24438.45220000017
 20
331067.6954999995
 10
-24438.81900000013
 20
331067.3529000003
 10
-24439.18580000009
 20
331067.0105000009
 10
-24439.55250000022
 20
331066.6684000008
 10
-24439.91930000018
 20
331066.3264000007
 10
-24440.28610000014
 20
331065.9847
 10
-24440.6529000001
 20
331065.643100001
 10
-24441.01960000023
 20
331065.3016999997
 10
-24441.3861999996
 20
331064.9605
 10
-24441.7527999999
 20
331064.6194000002
 10
-24442.11930000037
 20
331064.2785000001
 10
-24442.48570000008
 20
331063.9375999998
 10
-24442.85259999987
 20
331063.5963000004
 10
-24443.21939999983
 20
331063.2551000007
 10
-24443.58609999996
 20
331062.9140000008
 10
-24443.95249999967
 20
331062.5728999991
 10
-24444.3189000003
 20
331062.2317999993
 10
-24444.68499999959
 20
331061.8907999992
 10
-24445.05090000015
 20
331061.5497999992
 10
-24445.41669999995
 20
331061.2089000009
 10
-24445.78220000025
 20
331060.8679000009
 10
-24446.14740000013
 20
331060.5267999992
 10
-24446.51250000019
 20
331060.1856999993
 10
-24446.87719999999
 20
331059.8445999995
 10
-24447.24170000013
 20
331059.5033999998
 10
-24447.60589999985
 20
331059.1621000003
 10
-24447.96970000025
 20
331058.8206999991
 10
-24448.33330000006
 20
331058.4792
 10
-24448.69649999962
 20
331058.1374999993
 10
-24449.05939999968
 20
331057.7957000006
 10
-24449.42190000042
 20
331057.4537000004
 10
-24449.78399999999
 20
331057.1116000004
 10
-24450.14580000006
 20
331056.7693000007
 10
-24450.50710000005
 20
331056.4266999997
 10
-24450.86799999979
 20
331056.0840000007
 10
-24451.2285000002
 20
331055.7410000004
 10
-24451.58860000037
 20
331055.3978000005
 10
-24451.94809999969
 20
331055.0543000009
 10
-24452.30719999969
 20
331054.7105000001
 10
-24452.66579999961
 20
331054.3663999997
 10
-24453.02390000038
 20
331054.0220999997
 10
-24453.38150000013
 20
331053.6774000004
 10
-24453.73859999981
 20
331053.3323999997
 10
-24454.09509999957
 20
331052.9869999998
 10
-24454.45110000018
 20
331052.6413000002
 10
-24454.80640000012
 20
331052.2951999996
 10
-24455.16119999997
 20
331051.9486999996
 10
-24455.51539999992
 20
331051.6018000003
 10
-24455.86890000012
 20
331051.2545999997
 10
-24456.22190000024
 20
331050.9068
 10
-24456.57409999985
 20
331050.5587000009
 10
-24456.92580000032
 20
331050.2101000007
 10
-24457.27670000028
 20
331049.8609999996
 10
-24457.62689999957
 20
331049.5114999991
 10
-24457.97649999987
 20
331049.1613999996
 10
-24458.32529999968
 20
331048.8109000008
 10
-24458.67329999991
 20
331048.4597999994
 10
-24459.02070000023
 20
331048.1082000006
 10
-24459.36720000021
 20
331047.7561000008
 10
-24459.71300000045
 20
331047.4034000002
 10
-24460.05790000036
 20
331047.0501000006
 10
-24460.4020999996
 20
331046.6963
 10
-24460.74540000036
 20
331046.3418000006
 10
-24461.0878999997
 20
331045.9868000001
 10
-24461.42949999962
 20
331045.6312000007
 10
-24461.77029999998
 20
331045.2749000006
 10
-24462.11010000017
 20
331044.9179999996
 10
-24462.44909999985
 20
331044.5603999999
 10
-24462.78710000031
 20
331044.2021999993
 10
-24463.12420000043
 20
331043.8432999999
 10
-24463.46030000039
 20
331043.4836999998
 10
-24463.79540000018
 20
331043.1234000009
 10
-24464.12959999963
 20
331042.7623999995
 10
-24464.46279999986
 20
331042.4006999992
 10
-24471.93230000045
 20
331033.7752000001
 10
-24478.8825000003
 20
331024.7259999998
 10
-24485.28930000029
 20
331015.2843999993
 10
-24491.13080000039
 20
331005.4828999993
 10
-24496.38669999969
 20
330995.3553
 10
-24501.03890000004
 20
330984.9364999999
 10
-24505.07129999995
 20
330974.2627000008
 10
-24508.46999999974
 20
330963.3704000004
 10
-24511.22339999955
 20
330952.2973999996
 10
-24511.37660000008
 20
330951.1215000004
 10
-24511.32909999974
 20
330949.9366999995
 10
-24511.08220000006
 20
330948.7767999992
 10
-24510.64319999982
 20
330947.6753000003
1001
AcMap_E615D161-C9D7-11d3-839F-0060B0FB6B57
1071
        1
1071
       13
  0
LWPOLYLINE
  5
A8E
330
1F
100
AcDbEntity
  8
Straßenverlauf_FBRD
100
AcDbPolyline
 90
        3
 70
     0
 43
0.0
 10
-24380.14290000033
 20
331139.5798000005
 10
-24379.33700000029
 20
331138.9616999999
 10
-24378.43840000033
 20
331138.4882999994
1001
AcMap_E615D161-C9D7-11d3-839F-0060B0FB6B57
1071
        1
1071
       13
  0
LWPOLYLINE
  5
A8F
330
1F
100
AcDbEntity
  8
Straßenverlauf_FBRD
100
AcDbPolyline
 90
       47
 70
     0
 43
0.0
 10
-24380.14290000033
 20
331139.5798000005
 10
-24375.80759999994
 20
331150.238500001
 10
-24372.07909999974
 20
331161.1241999995
 10
-24368.9693
 20
331172.2026000005
 10
-24368.84100000002
 20
331172.7173999995
 10
-24368.71420000028
 20
331173.2321000006
 10
-24368.5887000002
 20
331173.7467
 10
-24368.46449999977
 20
331174.2610999998
 10
-24368.34169999976
 20
331174.7752999999
 10
-24368.22020000033
 20
331175.2893000003
 10
-24368.0998999998
 20
331175.8030999992
 10
-24367.98080000002
 20
331176.3167000003
 10
-24367.8629999999
 20
331176.8300999999
 10
-24367.74629999977
 20
331177.3432999999
 10
-24367.63069999963
 20
331177.8563000002
 10
-24367.51620000042
 20
331178.3688999992
 10
-24367.40270000044
 20
331178.8814000003
 10
-24367.29030000046
 20
331179.3935000003
 10
-24367.17889999971
 20
331179.9054000005
 10
-24367.06840000022
 20
331180.4169999994
 10
-24366.95880000014
 20
331180.9284000006
 10
-24366.85020000022
 20
331181.4394000005
 10
-24366.74239999987
 20
331181.9500999991
 10
-24366.63540000003
 20
331182.4605
 10
-24366.52919999976
 20
331182.9705999997
 10
-24366.42370000016
 20
331183.4802999999
 10
-24366.31900000013
 20
331183.9897000008
 10
-24366.21499999985
 20
331184.4987000004
 10
-24366.11170000024
 20
331185.0074000005
 10
-24366.00899999961
 20
331185.5157999993
 10
-24365.9068
 20
331186.0237000008
 10
-24365.80530000012
 20
331186.5313000009
 10
-24365.70430000033
 20
331187.0384999998
 10
-24365.60369999986
 20
331187.5453999993
 10
-24365.50370000023
 20
331188.0517999996
 10
-24365.40409999993
 20
331188.5578000005
 10
-24365.30489999987
 20
331189.0634000004
 10
-24365.20600000024
 20
331189.5686000009
 10
-24365.10749999992
 20
331190.0734000001
 10
-24365.00939999986
 20
331190.5777000003
 10
-24364.9115000004
 20
331191.0815999993
 10
-24364.81379999965
 20
331191.5851000008
 10
-24364.71640000027
 20
331192.0880999994
 10
-24364.61909999978
 20
331192.5907000006
 10
-24364.52199999988
 20
331193.0928000007
 10
-24364.42499999981
 20
331193.5944999997
 10
-24335.76620000042
 20
331341.8423999995
1001
AcMap_E615D161-C9D7-11d3-839F-0060B0FB6B57
1071
        1
1071
       13
  0
LWPOLYLINE
  5
A90
330
1F
100
AcDbEntity
  8
Straßenverlauf_FBRD
100
AcDbPolyline
 90
        4
 70
     0
 43
0.0
 10
-24381.78110000026
 20
331142.080600001
 10
-24381.37820000015
 20
331141.1588000004
 10
-24380.82699999958
 20
331140.3173999992
 10
-24380.14290000033
 20
331139.5798000005
1001
AcMap_E615D161-C9D7-11d3-839F-0060B0FB6B57
1071
        1
1071
       13
  0
LWPOLYLINE
  5
A91
330
1F
100
AcDbEntity
  8
Straßenverlauf_FBRD
100
AcDbPolyline
 90
       47
 70
     0
 43
0.0
 10
-24381.78110000026
 20
331142.080600001
 10
-24377.77099999972
 20
331152.1330999993
 10
-24374.30539999995
 20
331162.3861999996
 10
-24371.39439999964
 20
331172.8102000002
 10
-24371.26759999991
 20
331173.3188000005
 10
-24371.14219999966
 20
331173.8274000008
 10
-24371.01819999982
 20
331174.3361000009
 10
-24370.89539999981
 20
331174.8446999994
 10
-24370.77400000021
 20
331175.3531999998
 10
-24370.65380000044
 20
331175.8618000001
 10
-24370.53469999973
 20
331176.3703000006
 10
-24370.4168999996
 20
331176.8786999993
 10
-24370.30020000041
 20
331177.3870000001
 10
-24370.18460000027
 20
331177.895300001
 10
-24370.07010000013
 20
331178.4035
 10
-24369.95660000015
 20
331178.9115999993
 10
-24369.84410000034
 20
331179.4196000006
 10
-24369.73259999976
 20
331179.9274000004
 10
-24369.62210000027
 20
331180.4352000002
 10
-24369.51250000018
 20
331180.9428000003
 10
-24369.40380000044
 20
331181.4502000008
 10
-24369.29590000026
 20
331181.9574999996
 10
-24369.18879999966
 20
331182.4647000004
 10
-24369.08260000032
 20
331182.9716999997
 10
-24368.97699999996
 20
331183.4784999993
 10
-24368.8722000001
 20
331183.9850999993
 10
-24368.76809999999
 20
331184.4915999994
 10
-24368.66469999962
 20
331184.9978
 10
-24368.56190000009
 20
331185.5039000008
 10
-24368.45969999954
 20
331186.0097000003
 10
-24368.35800000001
 20
331186.5153000001
 10
-24368.25690000039
 20
331187.0207000003
 10
-24368.15629999991
 20
331187.5259000007
 10
-24368.05620000046
 20
331188.0307999999
 10
-24367.95650000032
 20
331188.5354999994
 10
-24367.85720000044
 20
331189.0398999993
 10
-24367.75820000004
 20
331189.5440999996
 10
-24367.65969999973
 20
331190.0480000004
 10
-24367.56140000001
 20
331190.5515999999
 10
-24367.46339999978
 20
331191.0549999998
 10
-24367.36560000014
 20
331191.5580000003
 10
-24367.26809999999
 20
331192.0607999992
 10
-24367.17080000043
 20
331192.5633000005
 10
-24367.07359999977
 20
331193.0655000006
 10
-24366.97649999987
 20
331193.5673999992
 10
-24366.87959999964
 20
331194.0690000002
 10
-24338.26449999958
 20
331342.0907000006
1001
AcMap_E615D161-C9D7-11d3-839F-0060B0FB6B57
1071
        1
1071
       13
  0
LWPOLYLINE
  5
A92
330
1F
100
AcDbEntity
  8
Straßenverlauf_FBRD
100
AcDbPolyline
 90
        4
 70
     0
 43
0.0
 10
-24333.91339999996
 20
331340.1594999991
 10
-24335.19199999981
 20
331341.4045000002
 10
-24335.46590000018
 20
331341.6407999993
 10
-24335.76620000042
 20
331341.8423999995
1001
AcMap_E615D161-C9D7-11d3-839F-0060B0FB6B57
1071
        1
1071
       13
  0
LWPOLYLINE
  5
A93
330
1F
100
AcDbEntity
  8
Straßenverlauf_FBRD
100
AcDbPolyline
 90
        6
 70
     0
 43
0.0
 10
-24335.76620000042
 20
331341.8423999995
 10
-24336.23340000026
 20
331342.0648999997
 10
-24336.73180000019
 20
331342.2038000002
 10
-24337.24670000002
 20
331342.2548999991
 10
-24337.76269999985
 20
331342.2169000004
 10
-24338.26449999958
 20
331342.0907000006
1001
AcMap_E615D161-C9D7-11d3-839F-0060B0FB6B57
1071
        1
1071
       13
  0
LWPOLYLINE
  5
A94
330
1F
100
AcDbEntity
  8
Straßenverlauf_FBRD
100
AcDbPolyline
 90
       59
 70
     0
 43
0.0
 10
-24338.26449999958
 20
331342.0907000006
 10
-24338.67619999964
 20
331341.9130000007
 10
-24339.05680000037
 20
331341.6760000009
 10
-24339.39780000038
 20
331341.3849
 10
-24339.69159999956
 20
331341.0461999998
 10
-24339.93169999961
 20
331340.6675000005
 10
-24340.11259999965
 20
331340.2572000008
 10
-24340.23039999977
 20
331339.8246
 10
-24368.35230000038
 20
331194.3537000008
 10
-24368.44930000044
 20
331193.8521999997
 10
-24368.54629999958
 20
331193.3504000008
 10
-24368.64340000041
 20
331192.8484000005
 10
-24368.74069999997
 20
331192.3463000004
 10
-24368.83820000012
 20
331191.8439000007
 10
-24368.93580000009
 20
331191.3412999995
 10
-24369.03369999956
 20
331190.8385000005
 10
-24369.13179999963
 20
331190.3355999999
 10
-24369.23020000011
 20
331189.8324999996
 10
-24369.32899999991
 20
331189.3290999998
 10
-24369.42810000014
 20
331188.8257
 10
-24369.52759999968
 20
331188.3220000007
 10
-24369.62750000041
 20
331187.8182999995
 10
-24369.72790000029
 20
331187.3143000007
 10
-24369.82880000025
 20
331186.8103000001
 10
-24369.93010000046
 20
331186.3059999999
 10
-24370.03199999966
 20
331185.8016999997
 10
-24370.1344999997
 20
331185.2972999998
 10
-24370.23759999965
 20
331184.7927000001
 10
-24370.34130000044
 20
331184.2880000007
 10
-24370.44579999987
 20
331183.7831999995
 10
-24370.55090000015
 20
331183.2784000002
 10
-24370.65670000017
 20
331182.7733999994
 10
-24370.76329999976
 20
331182.2684000004
 10
-24370.87069999985
 20
331181.7632999998
 10
-24370.97890000045
 20
331181.2581999991
 10
-24371.08800000046
 20
331180.7530000005
 10
-24371.19799999986
 20
331180.2477000002
 10
-24371.3088999996
 20
331179.7424999998
 10
-24371.42080000043
 20
331179.2370999996
 10
-24371.53369999956
 20
331178.7317999993
 10
-24371.64759999979
 20
331178.2265000008
 10
-24371.76250000019
 20
331177.7212000005
 10
-24371.87849999964
 20
331177.2158000004
 10
-24371.99560000002
 20
331176.7105000001
 10
-24372.11390000023
 20
331176.2052999996
 10
-24372.23330000043
 20
331175.6999999993
 10
-24372.35400000028
 20
331175.1948000007
 10
-24372.47589999996
 20
331174.6897
 10
-24372.59910000022
 20
331174.1845999993
 10
-24372.72360000014
 20
331173.6797000003
 10
-24372.84939999972
 20
331173.1747999993
 10
-24375.33000000008
 20
331164.1703999992
 10
-24378.22759999987
 20
331155.2915000003
 10
-24381.53579999972
 20
331146.5571999998
 10
-24381.86010000017
 20
331145.6983000003
 10
-24382.04959999956
 20
331144.8001000006
 10
-24382.09979999997
 20
331143.8834000006
 10
-24382.00960000046
 20
331142.9697999991
 10
-24381.78110000026
 20
331142.080600001
1001
AcMap_E615D161-C9D7-11d3-839F-0060B0FB6B57
1071
        1
1071
       13
  0
LWPOLYLINE
  5
A95
330
1F
100
AcDbEntity
  8
Straßenverlauf_FBRD
100
AcDbPolyline
 90
        3
 70
     0
 43
0.0
 10
-24332.65110000037
 20
331345.9332999997
 10
-24334.11120000016
 20
331348.0998
 10
-24334.45150000043
 20
331348.6432000008
1001
AcMap_E615D161-C9D7-11d3-839F-0060B0FB6B57
1071
        1
1071
       13
  0
LWPOLYLINE
  5
A96
330
1F
100
AcDbEntity
  8
Straßenverlauf_FBRD
100
AcDbPolyline
 90
      375
 70
     0
 43
0.0
 10
-24334.45150000043
 20
331348.6432000008
 10
-24331.42379999999
 20
331364.3052999992
 10
-24331.3284
 20
331364.7985999994
 10
-24331.23309999984
 20
331365.2917999998
 10
-24331.13769999985
 20
331365.7849000004
 10
-24331.04239999968
 20
331366.2780000008
 10
-24330.9469999997
 20
331366.7709999997
 10
-24330.85170000047
 20
331367.2639000007
 10
-24330.75629999954
 20
331367.7567999997
 10
-24330.66089999955
 20
331368.2495000009
 10
-24330.56549999956
 20
331368.7422000003
 10
-24330.46999999974
 20
331369.2347999998
 10
-24330.37449999992
 20
331369.7272999995
 10
-24330.2790000001
 20
331370.2197999992
 10
-24330.18350000028
 20
331370.7120999993
 10
-24330.08779999986
 20
331371.2043999993
 10
-24329.99220000021
 20
331371.6965999995
 10
-24329.8964999998
 20
331372.1886999998
 10
-24329.80069999956
 20
331372.6807000004
 10
-24329.70480000042
 20
331373.1725999993
 10
-24329.60890000034
 20
331373.6644000002
 10
-24329.51290000044
 20
331374.1561999992
 10
-24329.4168999996
 20
331374.6478000004
 10
-24329.32070000004
 20
331375.1393999998
 10
-24329.22449999955
 20
331375.6308999993
 10
-24329.12810000032
 20
331376.1221999992
 10
-24329.03170000017
 20
331376.613500001
 10
-24328.93520000018
 20
331377.1046999991
 10
-24328.8384999996
 20
331377.5957999993
 10
-24328.74179999996
 20
331378.0867999997
 10
-24328.64489999972
 20
331378.5777000003
 10
-24328.54789999966
 20
331379.0684999992
 10
-24328.45079999976
 20
331379.5592
 10
-24328.3535000002
 20
331380.0496999994
 10
-24328.25619999971
 20
331380.5402000006
 10
-24328.15859999974
 20
331381.0306000002
 10
-24328.06099999976
 20
331381.5208999999
 10
-24327.96310000028
 20
331382.0110999998
 10
-24327.86519999988
 20
331382.5011
 10
-24327.76699999999
 20
331382.9911000003
 10
-24327.66870000027
 20
331383.4810000007
 10
-24327.57029999979
 20
331383.9706999995
 10
-24327.47159999982
 20
331384.4603000004
 10
-24327.37280000001
 20
331384.9498999994
 10
-24327.27379999962
 20
331385.4393000007
 10
-24327.17459999956
 20
331385.9286000003
 10
-24327.07529999968
 20
331386.4177999999
 10
-24326.9757000003
 20
331386.9068000001
 10
-24326.87590000033
 20
331387.3958000001
 10
-24326.77589999978
 20
331387.8846000005
 10
-24326.67580000032
 20
331388.3732999992
 10
-24326.57540000044
 20
331388.8619
 10
-24326.47479999997
 20
331389.3504000009
 10
-24326.37390000001
 20
331389.8388000001
 10
-24326.27290000021
 20
331390.3269999996
 10
-24326.1716
 20
331390.8150999993
 10
-24326.0700000003
 20
331391.3030999992
 10
-24326.02529999986
 20
331391.5175999999
 10
-24325.96829999984
 20
331391.7909999993
 10
-24325.86620000005
 20
331392.2786999997
 10
-24325.76400000043
 20
331392.7663000003
 10
-24325.66139999964
 20
331393.2537999992
 10
-24325.55869999994
 20
331393.7411000002
 10
-24325.45559999999
 20
331394.2282999997
 10
-24325.35230000038
 20
331394.7153999992
 10
-24325.24870000035
 20
331395.2024000008
 10
-24325.14479999989
 20
331395.6892000009
 10
-24325.04069999978
 20
331396.1757999994
 10
-24324.93630000017
 20
331396.6623999998
 10
-24324.83150000032
 20
331397.1488000006
 10
-24324.72649999987
 20
331397.6349999998
 10
-24324.62119999994
 20
331398.1212000009
 10
-24324.51559999958
 20
331398.6071000007
 10
-24324.4095999999
 20
331399.0930000004
 10
-24324.30339999962
 20
331399.5787000005
 10
-24324.19680000004
 20
331400.0642000009
 10
-24324.08990000002
 20
331400.5495999996
 10
-24323.98269999959
 20
331401.0349000004
 10
-24323.87519999966
 20
331401.5199999996
 10
-24323.76730000041
 20
331402.0048999991
 10
-24323.65909999981
 20
331402.4897000007
 10
-24323.5504999999
 20
331402.9744000007
 10
-24323.44159999956
 20
331403.4589000009
 10
-24323.3322999999
 20
331403.9431999996
 10
-24323.22269999981
 20
331404.4274000004
 10
-24323.1127000004
 20
331404.9113999997
 10
-24323.00239999965
 20
331405.3953000009
 10
-24322.89159999974
 20
331405.8790000006
 10
-24322.78050000034
 20
331406.3625000008
 10
-24322.66899999976
 20
331406.8458999992
 10
-24322.55719999969
 20
331407.3290999998
 10
-24322.44489999954
 20
331407.8122000005
 10
-24322.33229999989
 20
331408.2950999998
 10
-24322.21920000017
 20
331408.7777999993
 10
-24322.10580000002
 20
331409.2602999993
 10
-24321.99189999979
 20
331409.7426999994
 10
-24321.87760000024
 20
331410.2248999998
 10
-24321.76300000027
 20
331410.7069000006
 10
-24321.64780000038
 20
331411.1886999999
 10
-24321.53230000008
 20
331411.6703999993
 10
-24321.41640000045
 20
331412.1519000009
 10
-24321.29999999982
 20
331412.6331999992
 10
-24321.18310000003
 20
331413.1142999996
 10
-24321.06589999981
 20
331413.5953000002
 10
-24320.94820000045
 20
331414.0759999995
 10
-24320.83000000007
 20
331414.5566000007
 10
-24320.71140000038
 20
331415.0370000005
 10
-24320.59229999967
 20
331415.5172000006
 10
-24320.47269999981
 20
331415.9971999992
 10
-24320.3526999997
 20
331416.477
 10
-24320.23230000027
 20
331416.9565999993
 10
-24320.11129999999
 20
331417.4360000007
 10
-24319.98990000039
 20
331417.9152000007
 10
-24319.86789999995
 20
331418.3943000008
 10
-24319.7455000002
 20
331418.8730999995
 10
-24315.98749999981
 20
331432.6511000004
 10
-24311.80559999961
 20
331446.3063999992
 10
-24310.97719999962
 20
331448.8443000001
 10
-24307.21779999975
 20
331460.2500999998
 10
-24302.31089999992
 20
331474.2419000007
 10
-24296.8786000004
 20
331488.0382000004
 10
-24290.92879999988
 20
331501.6194000002
 10
-24284.46999999974
 20
331514.966
 10
-24277.51140000019
 20
331528.0590000004
 10
-24277.27249999996
 20
331528.488
 10
-24277.03309999965
 20
331528.9168999996
 10
-24276.79310000036
 20
331529.3454999999
 10
-24276.55250000023
 20
331529.7739000004
 10
-24276.31130000018
 20
331530.2020999995
 10
-24276.06960000005
 20
331530.6302000005
 10
-24275.82730000001
 20
331531.0580000002
 10
-24275.58449999988
 20
331531.4856000003
 10
-24275.34109999985
 20
331531.9131000005
 10
-24275.09719999973
 20
331532.3403999992
 10
-24274.85280000046
 20
331532.7675000001
 10
-24274.60780000035
 20
331533.1943999995
 10
-24274.36230000016
 20
331533.6212000009
 10
-24274.11639999971
 20
331534.0478000008
 10
-24273.86990000028
 20
331534.4741999992
 10
-24273.62289999984
 20
331534.9004999995
 10
-24273.37540000025
 20
331535.3265000005
 10
-24273.12739999965
 20
331535.7524999995
 10
-24272.87899999972
 20
331536.1782000009
 10
-24272.63009999972
 20
331536.6039000005
 10
-24272.38069999963
 20
331537.0293000005
 10
-24272.13080000039
 20
331537.4547000006
 10
-24271.88049999997
 20
331537.8797999994
 10
-24271.6297000004
 20
331538.3048999999
 10
-24271.37849999964
 20
331538.7296999991
 10
-24271.12689999957
 20
331539.1545000002
 10
-24270.87480000034
 20
331539.5790999998
 10
-24270.62229999993
 20
331540.0035999995
 10
-24270.3694000002
 20
331540.4279999994
 10
-24270.11600000039
 20
331540.8521999997
 10
-24269.86220000032
 20
331541.2763000001
 10
-24269.60809999984
 20
331541.7003000006
 10
-24269.3535000002
 20
331542.1241999995
 10
-24269.09850000031
 20
331542.5480000005
 10
-24268.8432
 20
331542.9715999999
 10
-24268.58750000037
 20
331543.3951999992
 10
-24268.33139999956
 20
331543.8187000007
 10
-24268.07490000036
 20
331544.2420000006
 10
-24267.8180999998
 20
331544.6653000005
 10
-24267.56089999992
 20
331545.0884000007
 10
-24267.3032999998
 20
331545.5114999991
 10
-24267.04540000018
 20
331545.9344999995
 10
-24266.78720000014
 20
331546.3574000001
 10
-24266.52859999985
 20
331546.7803000007
 10
-24266.26970000006
 20
331547.2029999998
 10
-24266.01049999986
 20
331547.6257000007
 10
-24265.75100000016
 20
331548.0482999999
 10
-24265.49110000022
 20
331548.4707999993
 10
-24265.23099999968
 20
331548.8933000006
 10
-24264.97049999982
 20
331549.3157000002
 10
-24264.70980000031
 20
331549.7380999997
 10
-24264.4486999996
 20
331550.1603999995
 10
-24264.18740000017
 20
331550.5826999992
 10
-24263.92580000032
 20
331551.0048999992
 10
-24263.66390000004
 20
331551.4271000009
 10
-24263.40180000011
 20
331551.8491999991
 10
-24263.13939999976
 20
331552.2712999992
 10
-24262.87679999973
 20
331552.6933999993
 10
-24262.61390000023
 20
331553.1153999996
 10
-24262.3507000003
 20
331553.5373999998
 10
-24262.08739999961
 20
331553.9594
 10
-24261.82380000036
 20
331554.3814000003
 10
-24261.55989999976
 20
331554.8033000008
 10
-24261.29590000026
 20
331555.2252999991
 10
-24261.03160000034
 20
331555.6471999996
 10
-24260.76709999982
 20
331556.0691999998
 10
-24260.50250000041
 20
331556.4911000002
 10
-24260.23759999965
 20
331556.9130000007
 10
-24259.97259999998
 20
331557.3350000009
 10
-24259.70729999989
 20
331557.7568999995
 10
-24259.44189999998
 20
331558.1788999998
 10
-24259.1763000004
 20
331558.6009
 10
-24258.91050000023
 20
331559.0229000002
 10
-24258.64460000023
 20
331559.4449000005
 10
-24258.37849999964
 20
331559.8670000006
 10
-24258.11230000015
 20
331560.2891000007
 10
-24257.8459999999
 20
331560.7112000007
 10
-24257.57940000016
 20
331561.1334000006
 10
-24257.31280000042
 20
331561.5556000006
 10
-24257.04600000009
 20
331561.9778000005
 10
-24256.77909999993
 20
331562.4001000002
 10
-24256.51209999994
 20
331562.8224999998
 10
-24256.24500000011
 20
331563.2448999994
 10
-24255.97780000046
 20
331563.6674000007
 10
-24255.71050000005
 20
331564.0899
 10
-24255.4430999998
 20
331564.5124999992
 10
-24255.17559999973
 20
331564.9352000002
 10
-24254.90799999982
 20
331565.3578999993
 10
-24254.64039999992
 20
331565.7807999998
 10
-24254.37270000018
 20
331566.2037000004
 10
-24254.10489999969
 20
331566.6267000009
 10
-24252.32660000026
 20
331569.4356999993
 10
-24252.05910000019
 20
331569.8584000003
 10
-24251.79140000045
 20
331570.2811999992
 10
-24251.52379999962
 20
331570.7039999999
 10
-24251.25609999988
 20
331571.1269000005
 10
-24250.98840000015
 20
331571.549900001
 10
-24250.72059999965
 20
331571.9729999993
 10
-24250.45289999992
 20
331572.3961999994
 10
-24250.18510000035
 20
331572.8194999993
 10
-24249.91729999986
 20
331573.2429000009
 10
-24249.64950000029
 20
331573.6664000005
 10
-24249.38179999962
 20
331574.0899
 10
-24249.11400000006
 20
331574.5135999993
 10
-24248.84619999956
 20
331574.9374000002
 10
-24248.57849999983
 20
331575.361300001
 10
-24248.31070000026
 20
331575.7853999995
 10
-24248.0429999996
 20
331576.2094999999
 10
-24247.77529999986
 20
331576.6337999999
 10
-24247.50769999996
 20
331577.0581000001
 10
-24247.24010000006
 20
331577.4825999998
 10
-24246.97250000015
 20
331577.9072999992
 10
-24246.70500000007
 20
331578.3321000003
 10
-24246.43759999983
 20
331578.7569999993
 10
-24246.17019999959
 20
331579.1820000001
 10
-24245.90280000027
 20
331579.6072000005
 10
-24245.63559999969
 20
331580.0325000007
 10
-24245.36840000004
 20
331580.4580000006
 10
-24245.10120000038
 20
331580.8836000003
 10
-24244.83420000039
 20
331581.3093999997
 10
-24244.56730000023
 20
331581.7353000008
 10
-24244.30040000006
 20
331582.1613999997
 10
-24244.03359999973
 20
331582.5877
 10
-24243.76699999999
 20
331583.0141000003
 10
-24243.50040000025
 20
331583.4407000002
 10
-24243.23400000017
 20
331583.8674999997
 10
-24242.96760000009
 20
331584.2943999991
 10
-24242.70139999967
 20
331584.7215
 10
-24242.43530000001
 20
331585.1488000006
 10
-24242.16940000001
 20
331585.5763000008
 10
-24241.90359999985
 20
331586.0040000007
 10
-24241.63790000044
 20
331586.4318000004
 10
-24241.37239999976
 20
331586.8598999996
 10
-24241.10699999984
 20
331587.2881000005
 10
-24240.84179999959
 20
331587.7164999992
 10
-24240.57670000009
 20
331588.1451999992
 10
-24240.31180000026
 20
331588.5739999991
 10
-24240.04710000009
 20
331589.0030000005
 10
-24239.78249999974
 20
331589.4322999996
 10
-24239.51809999999
 20
331589.8617000003
 10
-24239.2538999999
 20
331590.2914000004
 10
-24238.9899000004
 20
331590.7213000004
 10
-24238.72609999962
 20
331591.1513999999
 10
-24238.46250000037
 20
331591.5818000008
 10
-24238.19909999985
 20
331592.0122999996
 10
-24237.93589999993
 20
331592.4430999999
 10
-24237.67289999966
 20
331592.8740999997
 10
-24237.41009999998
 20
331593.3054000009
 10
-24237.14759999979
 20
331593.7368999999
 10
-24236.88520000037
 20
331594.1686000004
 10
-24236.62320000027
 20
331594.6006000005
 10
-24236.36129999999
 20
331595.0328000002
 10
-24236.09970000014
 20
331595.4652999994
 10
-24235.83839999977
 20
331595.8980000001
 10
-24235.57730000001
 20
331596.3310000002
 10
-24235.31639999989
 20
331596.7642000001
 10
-24235.05590000003
 20
331597.1976999995
 10
-24234.79550000001
 20
331597.6315000002
 10
-24234.53550000023
 20
331598.0655000005
 10
-24234.27579999994
 20
331598.4998000003
 10
-24234.01630000025
 20
331598.9342999999
 10
-24233.75710000005
 20
331599.3692000006
 10
-24233.49820000026
 20
331599.8043000009
 10
-24233.2396999998
 20
331600.2397000008
 10
-24232.98139999993
 20
331600.6753000003
 10
-24232.72339999955
 20
331601.111300001
 10
-24232.46569999959
 20
331601.5474999994
 10
-24232.20839999989
 20
331601.9839999993
 10
-24231.95139999967
 20
331602.4209000003
 10
-24231.69469999988
 20
331602.8579999991
 10
-24231.43840000034
 20
331603.2953999993
 10
-24231.18240000028
 20
331603.7331000007
 10
-24230.92669999972
 20
331604.1710999999
 10
-24230.67140000034
 20
331604.6094000004
 10
-24230.41650000028
 20
331605.0480000004
 10
-24230.16189999972
 20
331605.4869999997
 10
-24229.90770000033
 20
331605.9262000006
 10
-24229.65380000044
 20
331606.3658000008
 10
-24229.40039999969
 20
331606.8056000005
 10
-24229.1473000003
 20
331607.2457999997
 10
-24228.89460000023
 20
331607.6863000002
 10
-24228.64230000041
 20
331608.1272
 10
-24228.39039999992
 20
331608.5682999995
 10
-24228.13879999984
 20
331609.0098000002
 10
-24227.88779999968
 20
331609.4517000002
 10
-24227.63709999994
 20
331609.8937999998
 10
-24227.38680000044
 20
331610.3363000006
 10
-24227.13700000011
 20
331610.7792000007
 10
-24226.88760000001
 20
331611.2224000003
 10
-24226.63860000018
 20
331611.6658999995
 10
-24226.39010000043
 20
331612.1097999998
 10
-24226.14199999999
 20
331612.5539999995
 10
-24225.89439999964
 20
331612.9986000006
 10
-24225.64719999954
 20
331613.4434999991
 10
-24225.40050000046
 20
331613.8888000008
 10
-24225.15429999959
 20
331614.3344
 10
-24224.90849999991
 20
331614.7804000006
 10
-24224.6632000003
 20
331615.2268000003
 10
-24224.41839999985
 20
331615.6734999996
 10
-24224.17410000041
 20
331616.1206
 10
-24223.93030000012
 20
331616.568
 10
-24223.68699999992
 20
331617.0159000009
 10
-24223.44419999979
 20
331617.4640999996
 10
-24223.20189999975
 20
331617.9126999993
 10
-24222.96009999979
 20
331618.3616000004
 10
-24222.71889999974
 20
331618.8109000009
 10
-24222.47809999995
 20
331619.2607000005
 10
-24222.2379999999
 20
331619.7107999996
 10
-24221.9983000001
 20
331620.1612
 10
-24221.7592000002
 20
331620.6120999996
 10
-24221.52070000023
 20
331621.0634000004
 10
-24221.28270000033
 20
331621.5150000007
 10
-24221.04519999959
 20
331621.9671000001
 10
-24220.80840000045
 20
331622.4195000008
 10
-24220.57210000046
 20
331622.8724000007
 10
-24220.33640000038
 20
331623.3256000001
 10
-24220.10130000022
 20
331623.7793000006
 10
-24219.86670000013
 20
331624.2333000005
 10
-24219.63279999979
 20
331624.6877999995
 10
-24219.39950000029
 20
331625.1426
 10
-24219.16679999978
 20
331625.5978999995
 10
-24218.9347000001
 20
331626.0536000002
 10
-24218.70320000034
 20
331626.5096000005
 10
-24218.47229999956
 20
331626.9660999998
 10
-24218.24210000038
 20
331627.4231000003
 10
-24218.01250000019
 20
331627.8804000002
 10
-24217.7834999999
 20
331628.3380999994
 10
-24217.55520000029
 20
331628.7962999996
 10
-24217.32760000043
 20
331629.2548999991
 10
-24217.10059999954
 20
331629.7138999999
 10
-24216.87430000026
 20
331630.1733999998
 10
-24216.64869999979
 20
331630.6331999991
 10
-24216.42370000016
 20
331631.0934999995
 10
-24216.19940000027
 20
331631.5543000009
 10
-24215.97580000013
 20
331632.0154
 10
-24215.75289999973
 20
331632.477
 10
-24215.5307
 20
331632.9389999994
 10
-24215.30920000002
 20
331633.4014999997
 10
-24215.0884999996
 20
331633.8643999994
 10
-24214.86840000004
 20
331634.3277000003
 10
-24214.64910000004
 20
331634.7915000003
 10
-24214.43049999978
 20
331635.2556999996
 10
-24214.21270000003
 20
331635.7204
 10
-24213.99550000019
 20
331636.1854999997
 10
-24213.77919999976
 20
331636.6510000005
 10
-24213.56359999999
 20
331637.1170000006
 10
-24213.34869999997
 20
331637.5834999997
 10
-24213.13470000029
 20
331638.0503000003
 10
-24213.02089999989
 20
331638.2995999996
 10
-24212.92140000034
 20
331638.5176999997
 10
-24212.81599999964
 20
331638.7497000005
1001
AcMap_E615D161-C9D7-11d3-839F-0060B0FB6B57
1071
        1
1071
       13
  0
LWPOLYLINE
  5
A97
330
1F
100
AcDbEntity
  8
Straßenverlauf_FBRD
100
AcDbPolyline
 90
        4
 70
     0
 43
0.0
 10
-24336.34410000034
 20
331352.0247000009
 10
-24335.95179999992
 20
331351.1287999992
 10
-24335.47389999963
 20
331350.2755999993
 10
-24334.45150000043
 20
331348.6432000008
1001
AcMap_E615D161-C9D7-11d3-839F-0060B0FB6B57
1071
        1
1071
       13
  0
LWPOLYLINE
  5
A98
330
1F
100
AcDbEntity
  8
Straßenverlauf_FBRD
100
AcDbPolyline
 90
      373
 70
     0
 43
0.0
 10
-24336.34410000034
 20
331352.0247000009
 10
-24333.87829999998
 20
331364.7797999997
 10
-24333.78299999982
 20
331365.2730999999
 10
-24333.68759999983
 20
331365.7663000003
 10
-24333.59229999967
 20
331366.2595000007
 10
-24333.49689999968
 20
331366.7526999991
 10
-24333.40149999969
 20
331367.2457999997
 10
-24333.3060999997
 20
331367.7388000004
 10
-24333.2106999997
 20
331368.2317999993
 10
-24333.11529999972
 20
331368.7248
 10
-24333.01979999989
 20
331369.2177000009
 10
-24332.92430000007
 20
331369.7105000001
 10
-24332.82880000025
 20
331370.2032999993
 10
-24332.73319999967
 20
331370.6960000005
 10
-24332.63760000002
 20
331371.1886
 10
-24332.54200000037
 20
331371.6811999996
 10
-24332.44620000012
 20
331372.1736999993
 10
-24332.35039999988
 20
331372.6662000008
 10
-24332.25459999964
 20
331373.1586000006
 10
-24332.15869999957
 20
331373.6509000007
 10
-24332.06269999966
 20
331374.1432000008
 10
-24331.96659999993
 20
331374.6353999992
 10
-24331.87040000036
 20
331375.1274999995
 10
-24331.77419999987
 20
331375.6195999999
 10
-24331.67779999971
 20
331376.1116000004
 10
-24331.58139999956
 20
331376.6034999993
 10
-24331.48479999974
 20
331377.0953000002
 10
-24331.38819999993
 20
331377.5870999992
 10
-24331.29140000045
 20
331378.0788000002
 10
-24331.19450000022
 20
331378.5704999995
 10
-24331.09750000015
 20
331379.0620000009
 10
-24331.00040000025
 20
331379.5535000004
 10
-24330.90309999976
 20
331380.0449000002
 10
-24330.80570000038
 20
331380.5362
 10
-24330.70820000023
 20
331381.0274999999
 10
-24330.61050000042
 20
331381.5186999999
 10
-24330.51269999985
 20
331382.0098000002
 10
-24330.41469999962
 20
331382.5008000005
 10
-24330.31659999956
 20
331382.9916999992
 10
-24330.2182
 20
331383.4824999999
 10
-24330.11980000045
 20
331383.9733000007
 10
-24330.02109999955
 20
331384.4638999999
 10
-24329.92229999975
 20
331384.9545000009
 10
-24329.82330000028
 20
331385.4450000003
 10
-24329.72410000023
 20
331385.9353999999
 10
-24329.64279999957
 20
331386.3366
 10
-24329.62469999958
 20
331386.4256999996
 10
-24329.5251000002
 20
331386.9159999993
 10
-24329.42530000024
 20
331387.4060999994
 10
-24329.32529999968
 20
331387.8960999995
 10
-24329.22510000039
 20
331388.3860999998
 10
-24329.12469999958
 20
331388.8759000003
 10
-24329.02410000004
 20
331389.3657000009
 10
-24328.92320000008
 20
331389.8553999998
 10
-24328.82220000029
 20
331390.3449000008
 10
-24328.72080000024
 20
331390.8344000001
 10
-24328.61930000037
 20
331391.3236999996
 10
-24328.51750000008
 20
331391.8129999992
 10
-24328.41540000029
 20
331392.302100001
 10
-24328.31309999991
 20
331392.7912000008
 10
-24328.29169999994
 20
331392.8935000003
 10
-24328.21059999988
 20
331393.2800999991
 10
-24328.10780000035
 20
331393.7689999994
 10
-24328.0047000004
 20
331394.2577
 10
-24327.90139999986
 20
331394.7463000007
 10
-24327.7977
 20
331395.2348999996
 10
-24327.69379999955
 20
331395.7233000007
 10
-24327.58970000036
 20
331396.2116000001
 10
-24327.4852
 20
331396.6996999998
 10
-24327.38040000014
 20
331397.1877999995
 10
-24327.27539999969
 20
331397.6757999994
 10
-24327.16999999993
 20
331398.1635999996
 10
-24327.06429999974
 20
331398.6513000001
 10
-24326.95839999989
 20
331399.1389000006
 10
-24326.85209999978
 20
331399.6263999995
 10
-24326.74550000019
 20
331400.1138000004
 10
-24326.63850000035
 20
331400.6009999998
 10
-24326.53129999992
 20
331401.0880999994
 10
-24326.42370000016
 20
331401.5750999991
 10
-24326.31570000015
 20
331402.0620000009
 10
-24326.20749999955
 20
331402.5486999992
 10
-24326.0987999998
 20
331403.0352999997
 10
-24325.98990000039
 20
331403.5218000003
 10
-24325.88049999997
 20
331404.0080999993
 10
-24325.77080000006
 20
331404.4943000004
 10
-24325.66079999972
 20
331404.9803999998
 10
-24325.55030000024
 20
331405.4663999993
 10
-24325.43950000033
 20
331405.9521999992
 10
-24325.3284
 20
331406.4377999995
 10
-24325.21679999959
 20
331406.9233999997
 10
-24325.10489999969
 20
331407.4088000003
 10
-24324.9924999997
 20
331407.8939999994
 10
-24324.87980000023
 20
331408.3791000005
 10
-24324.76659999974
 20
331408.8641
 10
-24324.65309999976
 20
331409.3488999996
 10
-24324.53920000047
 20
331409.8335999996
 10
-24324.42480000015
 20
331410.3180999998
 10
-24324.30999999959
 20
331410.8024000005
 10
-24324.19479999971
 20
331411.2866999991
 10
-24324.07919999957
 20
331411.7707000003
 10
-24323.96310000028
 20
331412.2545999997
 10
-24323.84659999982
 20
331412.7383999993
 10
-24323.72970000002
 20
331413.2219999991
 10
-24323.61230000015
 20
331413.7053999994
 10
-24323.4944000002
 20
331414.1886999998
 10
-24323.37609999999
 20
331414.6718000007
 10
-24323.25739999954
 20
331415.1546999999
 10
-24323.13819999993
 20
331415.6374999992
 10
-24323.01850000024
 20
331416.1201000009
 10
-24322.89829999954
 20
331416.6026000008
 10
-24322.77770000044
 20
331417.0847999994
 10
-24322.65660000034
 20
331417.5669
 10
-24322.53500000015
 20
331418.0489000007
 10
-24322.41289999988
 20
331418.5306000002
 10
-24322.29040000029
 20
331419.0121999998
 10
-24322.16729999986
 20
331419.4935999997
 10
-24318.38900000043
 20
331433.3461000007
 10
-24314.18450000044
 20
331447.0753000006
 10
-24313.3515999997
 20
331449.6269000005
 10
-24309.59210000001
 20
331461.0327000004
 10
-24304.65390000027
 20
331475.1137000006
 10
-24299.18699999992
 20
331488.9978999999
 10
-24293.19930000044
 20
331502.6656999998
 10
-24286.69940000027
 20
331516.0974000003
 10
-24279.69639999978
 20
331529.2738000006
 10
-24279.45600000024
 20
331529.7054999992
 10
-24279.21509999968
 20
331530.1371
 10
-24278.97360000014
 20
331530.5682999995
 10
-24278.73149999976
 20
331530.9993999992
 10
-24278.48890000023
 20
331531.4301999994
 10
-24278.24569999986
 20
331531.8607999999
 10
-24278.00200000033
 20
331532.2910999991
 10
-24277.75769999996
 20
331532.7213000003
 10
-24277.51300000027
 20
331533.1512000002
 10
-24277.26769999973
 20
331533.5810000003
 10
-24277.02190000005
 20
331534.0105000008
 10
-24276.77560000029
 20
331534.4397999999
 10
-24276.52869999968
 20
331534.8688999992
 10
-24276.28139999975
 20
331535.2978000008
 10
-24276.03359999973
 20
331535.7265000008
 10
-24275.78529999964
 20
331536.1549999994
 10
-24275.53660000023
 20
331536.5833000001
 10
-24275.28729999997
 20
331537.0113999993
 10
-24275.03760000039
 20
331537.4393000007
 10
-24274.78749999963
 20
331537.8670000006
 10
-24274.53689999972
 20
331538.2946000006
 10
-24274.28579999972
 20
331538.7219999992
 10
-24274.03430000041
 20
331539.1491999999
 10
-24273.78230000008
 20
331539.5761999991
 10
-24273.53000000026
 20
331540.0031000004
 10
-24273.27720000036
 20
331540.4298000001
 10
-24273.02400000021
 20
331540.8563000001
 10
-24272.77029999998
 20
331541.2827000004
 10
-24272.51630000025
 20
331541.7089000009
 10
-24272.26180000044
 20
331542.1349
 10
-24272.00700000021
 20
331542.5607999992
 10
-24271.75179999974
 20
331542.9866000004
 10
-24271.49619999994
 20
331543.4122000001
 10
-24271.24019999988
 20
331543.8377
 10
-24270.98390000034
 20
331544.2630000003
 10
-24270.72719999962
 20
331544.6882000007
 10
-24270.47009999957
 20
331545.1131999996
 10
-24270.21270000004
 20
331545.5382000003
 10
-24269.95490000024
 20
331545.9629999995
 10
-24269.69680000004
 20
331546.3875999991
 10
-24269.43829999957
 20
331546.8122000005
 10
-24269.17949999962
 20
331547.2367000003
 10
-24268.92040000018
 20
331547.6610000003
 10
-24268.66100000031
 20
331548.0852000006
 10
-24268.40130000003
 20
331548.5092999991
 10
-24268.14120000042
 20
331548.9332999997
 10
-24267.88090000022
 20
331549.3573000003
 10
-24267.6202999996
 20
331549.7810999993
 10
-24267.35940000043
 20
331550.2048000004
 10
-24267.09819999989
 20
331550.6283999999
 10
-24266.83669999987
 20
331551.0519999993
 10
-24266.57490000036
 20
331551.4754000008
 10
-24266.31290000025
 20
331551.8988000006
 10
-24266.05059999973
 20
331552.3221000005
 10
-24265.78809999954
 20
331552.7454000004
 10
-24265.52529999987
 20
331553.1686000005
 10
-24265.26229999959
 20
331553.5917000007
 10
-24264.99899999984
 20
331554.0146999992
 10
-24264.73560000025
 20
331554.4376999997
 10
-24264.47180000041
 20
331554.8606000003
 10
-24264.20789999981
 20
331555.2835000008
 10
-24263.94379999954
 20
331555.7062999997
 10
-24263.67939999979
 20
331556.1291000005
 10
-24263.41490000021
 20
331556.5518999994
 10
-24263.15010000021
 20
331556.9746000003
 10
-24262.88520000037
 20
331557.3972999994
 10
-24262.62009999994
 20
331557.8199000005
 10
-24262.35479999986
 20
331558.2424999997
 10
-24262.08930000011
 20
331558.6651000008
 10
-24261.8236999996
 20
331559.0877
 10
-24261.55790000037
 20
331559.5102999993
 10
-24261.29189999961
 20
331559.9328000006
 10
-24261.02579999994
 20
331560.3553999998
 10
-24260.75960000046
 20
331560.7778999992
 10
-24260.49320000037
 20
331561.2005000003
 10
-24260.22670000047
 20
331561.6229999997
 10
-24259.96009999979
 20
331562.0454999991
 10
-24259.69330000039
 20
331562.4681000002
 10
-24259.42640000023
 20
331562.8906999994
 10
-24259.15950000007
 20
331563.3133000005
 10
-24258.89240000024
 20
331563.7358999997
 10
-24258.62519999966
 20
331564.1585000009
 10
-24258.35790000018
 20
331564.5811000001
 10
-24258.09059999976
 20
331565.0037999991
 10
-24257.82320000045
 20
331565.4265999999
 10
-24257.55559999962
 20
331565.8493000009
 10
-24257.28809999954
 20
331566.2720999998
 10
-24257.0203999998
 20
331566.6950000003
 10
-24256.75270000007
 20
331567.1179000009
 10
-24256.48500000034
 20
331567.5408999994
 10
-24256.21719999984
 20
331567.9638999999
 10
-24254.43900000025
 20
331570.7729000003
 10
-24254.17140000034
 20
331571.1955999993
 10
-24253.90380000044
 20
331571.6183000002
 10
-24253.6361999996
 20
331572.0410999991
 10
-24253.36849999986
 20
331572.4638999999
 10
-24253.10089999996
 20
331572.8868000004
 10
-24252.83320000023
 20
331573.3098000009
 10
-24252.56560000032
 20
331573.7327999995
 10
-24252.29789999966
 20
331574.1559999995
 10
-24252.03019999992
 20
331574.5790999998
 10
-24251.76260000002
 20
331575.0023999997
 10
-24251.49500000011
 20
331575.4256999996
 10
-24251.22740000021
 20
331575.8490999993
 10
-24250.9598000003
 20
331576.2726000008
 10
-24250.6922000004
 20
331576.6962000001
 10
-24250.42470000033
 20
331577.1198999994
 10
-24250.15720000025
 20
331577.5437000003
 10
-24249.88980000001
 20
331577.9675999992
 10
-24249.62239999976
 20
331578.3914999999
 10
-24249.35510000028
 20
331578.8156000003
 10
-24249.08779999986
 20
331579.2398000006
 10
-24248.82060000021
 20
331579.6641000007
 10
-24248.55350000039
 20
331580.0885000006
 10
-24248.28639999963
 20
331580.5130000003
 10
-24248.01939999964
 20
331580.9375999999
 10
-24247.75250000041
 20
331581.3624000009
 10
-24247.48570000008
 20
331581.7873
 10
-24247.21899999958
 20
331582.2123000007
 10
-24246.95230000001
 20
331582.6373999995
 10
-24246.68580000009
 20
331583.0626999997
 10
-24246.41940000002
 20
331583.4880999997
 10
-24246.15309999976
 20
331583.9135999996
 10
-24245.88690000028
 20
331584.3392999992
 10
-24245.62079999968
 20
331584.7651000004
 10
-24245.35479999986
 20
331585.1910999995
 10
-24245.08899999969
 20
331585.6172000002
 10
-24244.82330000028
 20
331586.0435000006
 10
-24244.5577999996
 20
331586.4699000009
 10
-24244.29239999969
 20
331586.8965000008
 10
-24244.0270999996
 20
331587.3232000005
 10
-24243.7620000001
 20
331587.7501999997
 10
-24243.49710000027
 20
331588.1772000007
 10
-24243.23230000027
 20
331588.6044999994
 10
-24242.96769999992
 20
331589.0318999998
 10
-24242.70330000017
 20
331589.4594999999
 10
-24242.43900000025
 20
331589.8872999996
 10
-24242.17499999981
 20
331590.3153000009
 10
-24241.91110000014
 20
331590.7434
 10
-24241.64740000013
 20
331591.1718000006
 10
-24241.38389999978
 20
331591.6002999991
 10
-24241.12060000002
 20
331592.0289999992
 10
-24240.85749999993
 20
331592.4579000008
 10
-24240.59470000025
 20
331592.8871
 10
-24240.3320000004
 20
331593.3164000008
 10
-24240.06960000005
 20
331593.7458999996
 10
-24239.80740000028
 20
331594.1755999997
 10
-24239.54540000018
 20
331594.6055999994
 10
-24239.28369999956
 20
331595.0357000009
 10
-24239.02219999954
 20
331595.4660999999
 10
-24238.76099999994
 20
331595.8967000004
 10
-24238.5
 20
331596.3275000007
 10
-24238.23929999955
 20
331596.7585000005
 10
-24237.97879999969
 20
331597.1897999999
 10
-24237.71860000026
 20
331597.6213000007
 10
-24237.45870000031
 20
331598.0529999994
 10
-24237.19900000002
 20
331598.4848999996
 10
-24236.93960000016
 20
331598.9170999993
 10
-24236.68059999962
 20
331599.3496000003
 10
-24236.42179999966
 20
331599.7821999994
 10
-24236.16330000013
 20
331600.2151999995
 10
-24235.90510000009
 20
331600.6482999995
 10
-24235.64719999954
 20
331601.0818000008
 10
-24235.38960000034
 20
331601.5154
 10
-24235.13239999954
 20
331601.9494000003
 10
-24234.87550000008
 20
331602.3836000003
 10
-24234.61890000012
 20
331602.818
 10
-24234.36259999964
 20
331603.2526999992
 10
-24234.10670000035
 20
331603.6876999997
 10
-24233.85109999962
 20
331604.1229999997
 10
-24233.59580000024
 20
331604.5584999994
 10
-24233.34090000019
 20
331604.9943000004
 10
-24233.08640000038
 20
331605.4304000009
 10
-24232.83229999989
 20
331605.8666999992
 10
-24232.57849999983
 20
331606.3033000008
 10
-24232.32500000019
 20
331606.7402999998
 10
-24232.0719999997
 20
331607.1775000003
 10
-24231.81929999962
 20
331607.6150000002
 10
-24231.56709999964
 20
331608.0527999997
 10
-24231.31520000007
 20
331608.4909000006
 10
-24231.06369999982
 20
331608.9291999992
 10
-24230.81259999983
 20
331609.3679000009
 10
-24230.56199999992
 20
331609.8069000002
 10
-24230.31170000043
 20
331610.2462000009
 10
-24230.06190000009
 20
331610.6857999992
 10
-24229.8125
 20
331611.1257000007
 10
-24229.5636
 20
331611.5658999998
 10
-24229.31500000041
 20
331612.0064000003
 10
-24229.06689999998
 20
331612.4473000002
 10
-24228.81929999963
 20
331612.8883999996
 10
-24228.57210000046
 20
331613.3299000003
 10
-24228.32540000044
 20
331613.7717000005
 10
-24228.07909999974
 20
331614.2138999999
 10
-24227.83330000006
 20
331614.6563000009
 10
-24227.58800000046
 20
331615.0990999993
 10
-24227.34310000017
 20
331615.5421999992
 10
-24227.09879999981
 20
331615.9857000001
 10
-24226.85489999969
 20
331616.4295000006
 10
-24226.61149999965
 20
331616.8736000005
 10
-24226.36870000046
 20
331617.3180999999
 10
-24226.12629999965
 20
331617.7629000005
 10
-24225.88439999986
 20
331618.2080000006
 10
-24225.64309999999
 20
331618.6535000001
 10
-24225.40230000019
 20
331619.0994000006
 10
-24225.16199999955
 20
331619.5456000008
 10
-24224.92219999992
 20
331619.9921000004
 10
-24224.68300000019
 20
331620.4390999992
 10
-24224.44429999962
 20
331620.8862999995
 10
-24224.2061999999
 20
331621.333900001
 10
-24223.96860000025
 20
331621.7818999998
 10
-24223.73159999959
 20
331622.2302999999
 10
-24223.49519999977
 20
331622.6789999995
 10
-24223.25930000003
 20
331623.1281000003
 10
-24223.02400000021
 20
331623.5775000006
 10
-24222.7893000003
 20
331624.0274
 10
-24222.55520000029
 20
331624.4776000008
 10
-24222.3217000002
 20
331624.9280999993
 10
-24222.0887000002
 20
331625.3791000005
 10
-24221.85639999993
 20
331625.8303999994
 10
-24221.62469999958
 20
331626.2820999995
 10
-24221.39360000007
 20
331626.7342000008
 10
-24221.16309999954
 20
331627.1865999997
 10
-24220.93329999968
 20
331627.6394999996
 10
-24220.70409999974
 20
331628.0927000009
 10
-24220.47549999971
 20
331628.5463999995
 10
-24220.24760000035
 20
331629.0003999994
 10
-24220.02029999998
 20
331629.4548000004
 10
-24219.79370000027
 20
331629.9096000009
 10
-24219.56769999955
 20
331630.3648000006
 10
-24219.34240000043
 20
331630.8203999997
 10
-24219.11780000012
 20
331631.2763999999
 10
-24218.89389999956
 20
331631.7326999996
 10
-24218.67059999984
 20
331632.1895000004
 10
-24218.44809999969
 20
331632.6467000004
 10
-24218.22620000039
 20
331633.1042999998
 10
-24218.00509999972
 20
331633.5623000004
 10
-24217.7845999999
 20
331634.0207000003
 10
-24217.56489999965
 20
331634.4794999994
 10
-24217.34590000007
 20
331634.9387999997
 10
-24217.12760000024
 20
331635.3983999994
 10
-24216.91000000015
 20
331635.8584000003
 10
-24216.69319999963
 20
331636.3189000004
 10
-24216.47709999978
 20
331636.7797999997
 10
-24216.26180000044
 20
331637.2410000004
 10
-24216.04719999991
 20
331637.7027000003
 10
-24215.90469999984
 20
331638.0107000005
 10
-24215.83339999989
 20
331638.1648999993
 10
-24215.76049999986
 20
331638.3232000005
1001
AcMap_E615D161-C9D7-11d3-839F-0060B0FB6B57
1071
        1
1071
       13
  0
LWPOLYLINE
  5
A99
330
1F
100
AcDbEntity
  8
Straßenverlauf_FBRD
100
AcDbPolyline
 90
      378
 70
     0
 43
0.0
 10
-24336.34410000034
 20
331352.0247000009
 10
-24336.7463999996
 20
331353.3509
 10
-24336.96140000038
 20
331354.7200000007
 10
-24336.98510000017
 20
331356.1056999993
 10
-24336.81699999981
 20
331357.4814
 10
-24335.35109999962
 20
331365.0645000004
 10
-24335.25569999963
 20
331365.5578000005
 10
-24335.1604000004
 20
331366.0511000008
 10
-24335.06500000041
 20
331366.5442999993
 10
-24334.96960000042
 20
331367.0374999997
 10
-24334.87420000043
 20
331367.5307
 10
-24334.77880000044
 20
331368.0238000006
 10
-24334.68340000044
 20
331368.5168999992
 10
-24334.58789999969
 20
331369.0099
 10
-24334.4924999997
 20
331369.5029000007
 10
-24334.39690000005
 20
331369.9958999996
 10
-24334.30140000023
 20
331370.4888000005
 10
-24334.20579999965
 20
331370.9816999995
 10
-24334.11010000017
 20
331371.4745000005
 10
-24334.01439999975
 20
331371.9672999997
 10
-24333.91870000027
 20
331372.4600000009
 10
-24333.8228000002
 20
331372.9527000003
 10
-24333.72690000012
 20
331373.4452999998
 10
-24333.63100000005
 20
331373.9378999994
 10
-24333.53490000032
 20
331374.4304000009
 10
-24333.43879999966
 20
331374.9229000006
 10
-24333.34260000009
 20
331375.4153000005
 10
-24333.24629999977
 20
331375.9077000003
 10
-24333.14979999978
 20
331376.4000000004
 10
-24333.0532999998
 20
331376.8922000007
 10
-24332.95669999998
 20
331377.3844000008
 10
-24332.86000000034
 20
331377.8765999991
 10
-24332.76319999993
 20
331378.3686999995
 10
-24332.66619999986
 20
331378.8607000001
 10
-24332.56909999996
 20
331379.3526000008
 10
-24332.47190000024
 20
331379.8444999997
 10
-24332.37459999975
 20
331380.3364000004
 10
-24332.2770999996
 20
331380.8280999996
 10
-24332.17939999979
 20
331381.3198000007
 10
-24332.08169999998
 20
331381.8114999999
 10
-24331.98369999975
 20
331382.3030999992
 10
-24331.88559999969
 20
331382.7946000007
 10
-24331.7873999998
 20
331383.2860000003
 10
-24331.68900000024
 20
331383.7774
 10
-24331.5904000001
 20
331384.2686999999
 10
-24331.4916000003
 20
331384.7599
 10
-24331.39269999974
 20
331385.2510000002
 10
-24331.29360000044
 20
331385.7421000004
 10
-24331.1941999998
 20
331386.2331000008
 10
-24331.09470000025
 20
331386.7239999995
 10
-24330.99500000011
 20
331387.2149
 10
-24330.89510000031
 20
331387.7057000008
 10
-24330.79499999993
 20
331388.1963999998
 10
-24330.69469999988
 20
331388.6870000009
 10
-24330.59410000034
 20
331389.1775000003
 10
-24330.49330000021
 20
331389.6678999998
 10
-24330.39230000042
 20
331390.1582999994
 10
-24330.29110000003
 20
331390.6486000009
 10
-24330.18960000016
 20
331391.1388000008
 10
-24330.08789999969
 20
331391.6289000009
 10
-24329.98599999957
 20
331392.1188999992
 10
-24329.88370000012
 20
331392.6088999995
 10
-24329.78129999991
 20
331393.0987
 10
-24329.67860000022
 20
331393.5885000006
 10
-24329.5756000001
 20
331394.0780999996
 10
-24329.47229999956
 20
331394.5677000005
 10
-24329.36880000029
 20
331395.0571999998
 10
-24329.26499999966
 20
331395.5464999992
 10
-24329.16089999955
 20
331396.0358000007
 10
-24329.10479999986
 20
331396.2989000008
 10
-24329.05649999995
 20
331396.5250000004
 10
-24328.95189999976
 20
331397.0141000003
 10
-24328.84690000024
 20
331397.5031000004
 10
-24328.74170000013
 20
331397.9920000006
 10
-24328.63609999977
 20
331398.4806999993
 10
-24328.53019999992
 20
331398.9693999999
 10
-24328.42399999965
 20
331399.4580000006
 10
-24328.31749999989
 20
331399.9464999997
 10
-24328.21069999971
 20
331400.4348000009
 10
-24328.1035000002
 20
331400.9231000003
 10
-24327.99610000011
 20
331401.4112
 10
-24327.88819999993
 20
331401.8991999999
 10
-24327.78010000009
 20
331402.3871999998
 10
-24327.67150000017
 20
331402.875
 10
-24327.56269999966
 20
331403.3626000006
 10
-24327.45349999983
 20
331403.8501999994
 10
-24327.34389999974
 20
331404.3377
 10
-24327.23390000034
 20
331404.8249999993
 10
-24327.12359999959
 20
331405.3122000005
 10
-24327.01290000044
 20
331405.7993000001
 10
-24326.90189999994
 20
331406.2862999998
 10
-24326.79040000029
 20
331406.7731999998
 10
-24326.67860000022
 20
331407.2598999999
 10
-24326.5663999999
 20
331407.7465000004
 10
-24326.45370000042
 20
331408.2328999993
 10
-24326.34069999959
 20
331408.7193000001
 10
-24326.22730000038
 20
331409.2054999993
 10
-24326.11340000015
 20
331409.6916000005
 10
-24325.99920000043
 20
331410.1775000003
 10
-24325.8844999997
 20
331410.6633000001
 10
-24325.76939999964
 20
331411.1490000002
 10
-24325.65390000027
 20
331411.6345000007
 10
-24325.53799999971
 20
331412.1198999994
 10
-24325.4216
 20
331412.6052000001
 10
-24325.30470000021
 20
331413.0902999994
 10
-24325.1875
 20
331413.5752000008
 10
-24325.06969999988
 20
331414.0600000005
 10
-24324.95160000026
 20
331414.5447000004
 10
-24324.8328999998
 20
331415.0292000007
 10
-24324.71380000003
 20
331415.5135999993
 10
-24324.5943
 20
331415.9978
 10
-24324.47420000006
 20
331416.4818999991
 10
-24324.35369999986
 20
331416.9658000004
 10
-24324.23269999959
 20
331417.4495000001
 10
-24324.11120000016
 20
331417.9331
 10
-24323.98919999972
 20
331418.4166000001
 10
-24323.86679999996
 20
331418.8998000008
 10
-24323.74380000029
 20
331419.3829999995
 10
-24323.6202999996
 20
331419.8659000006
 10
-24319.82980000042
 20
331433.7631999999
 10
-24315.61180000007
 20
331447.5366999992
 10
-24314.7762000002
 20
331450.0965
 10
-24311.01669999957
 20
331461.5022999998
 10
-24306.0597000001
 20
331475.6368000005
 10
-24300.57210000046
 20
331489.5737999994
 10
-24294.56159999967
 20
331503.2935000007
 10
-24288.03699999955
 20
331516.7762000002
 10
-24281.00739999954
 20
331530.0026999992
 10
-24280.76609999966
 20
331530.4361000006
 10
-24280.5242999997
 20
331530.8692000006
 10
-24280.28189999983
 20
331531.3019999992
 10
-24280.03890000004
 20
331531.7346999999
 10
-24279.79540000018
 20
331532.1669999995
 10
-24279.55140000023
 20
331532.5991999991
 10
-24279.30680000037
 20
331533.0309999995
 10
-24279.06170000043
 20
331533.4627000001
 10
-24278.8161000004
 20
331533.8940999993
 10
-24278.5700000003
 20
331534.3253000006
 10
-24278.32330000028
 20
331534.7562000007
 10
-24278.07620000001
 20
331535.1870000009
 10
-24277.82859999966
 20
331535.6174999998
 10
-24277.58050000015
 20
331536.0478000008
 10
-24277.33189999964
 20
331536.4778000005
 10
-24277.08279999997
 20
331536.9077000003
 10
-24276.83330000006
 20
331537.3373000007
 10
-24276.58330000006
 20
331537.7666999996
 10
-24276.33279999998
 20
331538.1959000006
 10
-24276.08189999964
 20
331538.6249000002
 10
-24275.83059999999
 20
331539.0537999999
 10
-24275.57880000025
 20
331539.4824000001
 10
-24275.32650000043
 20
331539.9108000007
 10
-24275.07390000019
 20
331540.3389999997
 10
-24274.82079999987
 20
331540.7671000008
 10
-24274.56730000023
 20
331541.1949000005
 10
-24274.31340000033
 20
331541.6226000003
 10
-24274.05910000019
 20
331542.0501000006
 10
-24273.80439999979
 20
331542.4773999993
 10
-24273.5493999999
 20
331542.9045000002
 10
-24273.29389999993
 20
331543.3314999995
 10
-24273.03799999971
 20
331543.7583000008
 10
-24272.7818
 20
331544.1850000006
 10
-24272.52520000003
 20
331544.6115000006
 10
-24272.26829999965
 20
331545.0377999991
 10
-24272.01099999994
 20
331545.4639999997
 10
-24271.75329999998
 20
331545.8900000006
 10
-24271.4952999996
 20
331546.3158
 10
-24271.23699999973
 20
331546.7415999993
 10
-24270.97829999961
 20
331547.1671999991
 10
-24270.7193
 20
331547.5925999992
 10
-24270.45999999996
 20
331548.0178999994
 10
-24270.20040000044
 20
331548.4430999998
 10
-24269.94049999956
 20
331548.8682000004
 10
-24269.6802000003
 20
331549.2930999994
 10
-24269.41970000044
 20
331549.7179000006
 10
-24269.15890000016
 20
331550.1425999999
 10
-24268.89780000038
 20
331550.5671999995
 10
-24268.63640000019
 20
331550.9916999992
 10
-24268.37469999958
 20
331551.4159999993
 10
-24268.11280000023
 20
331551.8402999994
 10
-24267.85059999954
 20
331552.2644999996
 10
-24267.58820000011
 20
331552.6885000002
 10
-24267.32550000027
 20
331553.1125000008
 10
-24267.06259999983
 20
331553.5363999997
 10
-24266.7993999999
 20
331553.9602000006
 10
-24266.53600000031
 20
331554.3838999998
 10
-24266.27240000013
 20
331554.8074999992
 10
-24266.00860000029
 20
331555.2311000005
 10
-24265.74450000003
 20
331555.6546000001
 10
-24265.48029999994
 20
331556.0779999998
 10
-24265.21580000036
 20
331556.5012999997
 10
-24264.95110000018
 20
331556.9245999995
 10
-24264.68630000018
 20
331557.3477999997
 10
-24264.42119999975
 20
331557.7709999998
 10
-24264.15600000042
 20
331558.1941
 10
-24263.89059999958
 20
331558.6172000003
 10
-24263.62509999983
 20
331559.0402000007
 10
-24263.35940000043
 20
331559.4631999992
 10
-24263.09350000042
 20
331559.8861999996
 10
-24262.82749999967
 20
331560.3091000002
 10
-24262.56130000018
 20
331560.7320000008
 10
-24262.29499999993
 20
331561.1548999996
 10
-24262.02859999984
 20
331561.5777000003
 10
-24261.76200000011
 20
331562.0004999992
 10
-24261.4952999996
 20
331562.4233999998
 10
-24261.2285000002
 20
331562.8462000005
 10
-24260.96160000004
 20
331563.2688999996
 10
-24260.69460000005
 20
331563.6917000003
 10
-24260.42750000022
 20
331564.1144999992
 10
-24260.16029999964
 20
331564.5373
 10
-24259.89300000016
 20
331564.9601000008
 10
-24259.62569999974
 20
331565.3828999997
 10
-24259.35830000043
 20
331565.8057000004
 10
-24259.09069999959
 20
331566.2285999991
 10
-24258.82320000045
 20
331566.6513999999
 10
-24258.55559999961
 20
331567.0743000005
 10
-24258.28789999988
 20
331567.4971999992
 10
-24258.02020000014
 20
331567.9201999996
 10
-24257.75239999965
 20
331568.3432
 10
-24257.48460000008
 20
331568.7662000004
 10
-24255.70639999956
 20
331571.5752000008
 10
-24255.43879999966
 20
331571.9978999999
 10
-24255.17119999975
 20
331572.4206000008
 10
-24254.90359999984
 20
331572.8432999998
 10
-24254.63599999994
 20
331573.2661000006
 10
-24254.36840000004
 20
331573.6889999993
 10
-24254.10080000013
 20
331574.1118999999
 10
-24253.83320000022
 20
331574.5348000005
 10
-24253.56560000032
 20
331574.9578000009
 10
-24253.29800000042
 20
331575.3808999993
 10
-24253.03039999958
 20
331575.8039999996
 10
-24252.76290000044
 20
331576.2271999997
 10
-24252.49540000037
 20
331576.6503999997
 10
-24252.22790000029
 20
331577.0737999995
 10
-24251.96050000005
 20
331577.4971999992
 10
-24251.6930999998
 20
331577.9206000008
 10
-24251.42580000032
 20
331578.3442000002
 10
-24251.1584999999
 20
331578.7677999996
 10
-24250.89130000025
 20
331579.1916000005
 10
-24250.62409999967
 20
331579.6153999996
 10
-24250.35699999984
 20
331580.0393000003
 10
-24250.08999999985
 20
331580.4633000009
 10
-24249.82299999986
 20
331580.8873999995
 10
-24249.55620000046
 20
331581.3115999997
 10
-24249.28940000012
 20
331581.7358999998
 10
-24249.02269999962
 20
331582.1602999996
 10
-24248.75609999988
 20
331582.5847999994
 10
-24248.48959999997
 20
331583.0094000008
 10
-24248.22319999989
 20
331583.4342
 10
-24247.95689999964
 20
331583.8589999993
 10
-24247.69079999998
 20
331584.284
 10
-24247.42470000032
 20
331584.7091000005
 10
-24247.15880000033
 20
331585.1344000008
 10
-24246.89300000016
 20
331585.5596999992
 10
-24246.62739999965
 20
331585.985200001
 10
-24246.36180000007
 20
331586.4109000005
 10
-24246.09649999998
 20
331586.8366000001
 10
-24245.83129999973
 20
331587.2625999991
 10
-24245.56620000024
 20
331587.6886
 10
-24245.3013000004
 20
331588.1148000006
 10
-24245.0365000004
 20
331588.5412000008
 10
-24244.77190000005
 20
331588.9677000008
 10
-24244.5075000003
 20
331589.3944000006
 10
-24244.24330000021
 20
331589.8212000001
 10
-24243.97919999994
 20
331590.2481999994
 10
-24243.7154000001
 20
331590.6753000002
 10
-24243.45170000009
 20
331591.1026000009
 10
-24243.18819999974
 20
331591.5300999992
 10
-24242.92499999981
 20
331591.9578000009
 10
-24242.66189999972
 20
331592.3856000007
 10
-24242.39900000021
 20
331592.8136
 10
-24242.13640000019
 20
331593.2418000009
 10
-24241.87399999984
 20
331593.6701999997
 10
-24241.61180000007
 20
331594.0987999999
 10
-24241.34979999997
 20
331594.5275999997
 10
-24241.08810000029
 20
331594.9564999994
 10
-24240.82660000026
 20
331595.3857000005
 10
-24240.56539999973
 20
331595.8149999995
 10
-24240.30439999979
 20
331596.2445999999
 10
-24240.04370000027
 20
331596.6743000001
 10
-24239.78320000041
 20
331597.1042999998
 10
-24239.52300000005
 20
331597.5343999993
 10
-24239.26300000027
 20
331597.9648000002
 10
-24239.00339999981
 20
331598.3954000008
 10
-24238.74399999995
 20
331598.8261999991
 10
-24238.48489999957
 20
331599.2573000007
 10
-24238.22609999962
 20
331599.6885000002
 10
-24237.96760000009
 20
331600.1199999992
 10
-24237.70940000005
 20
331600.5516999997
 10
-24237.45150000043
 20
331600.9835999999
 10
-24237.19390000031
 20
331601.4157999997
 10
-24236.93659999967
 20
331601.8482000008
 10
-24236.67960000038
 20
331602.2808999997
 10
-24236.42300000042
 20
331602.7138000001
 10
-24236.16669999995
 20
331603.1469000001
 10
-24235.91069999989
 20
331603.5802999996
 10
-24235.65510000009
 20
331604.0139000006
 10
-24235.39979999978
 20
331604.4477999993
 10
-24235.14489999972
 20
331604.8818999995
 10
-24234.89030000009
 20
331605.3162999992
 10
-24234.63609999977
 20
331605.7510000002
 10
-24234.38219999987
 20
331606.1859000008
 10
-24234.12870000023
 20
331606.6210999992
 10
-24233.87559999991
 20
331607.0565000009
 10
-24233.62289999984
 20
331607.4923000001
 10
-24233.37060000002
 20
331607.9282000009
 10
-24233.1185999997
 20
331608.3644999992
 10
-24232.86710000038
 20
331608.8011000008
 10
-24232.61589999963
 20
331609.2379
 10
-24232.36519999989
 20
331609.6750000008
 10
-24232.11490000039
 20
331610.112400001
 10
-24231.86500000023
 20
331610.5500000008
 10
-24231.61550000031
 20
331610.9879999999
 10
-24231.36639999971
 20
331611.4262000006
 10
-24231.11780000013
 20
331611.8648000005
 10
-24230.86959999986
 20
331612.3036000003
 10
-24230.62189999968
 20
331612.7427999993
 10
-24230.37459999975
 20
331613.1821999997
 10
-24230.12770000007
 20
331613.6219999995
 10
-24229.88129999954
 20
331614.0620000009
 10
-24229.63540000003
 20
331614.5023999997
 10
-24229.38999999967
 20
331614.943
 10
-24229.14499999955
 20
331615.3839999997
 10
-24228.90050000046
 20
331615.8253000006
 10
-24228.65649999958
 20
331616.2668999993
 10
-24228.41289999988
 20
331616.7087999993
 10
-24228.1699000001
 20
331617.1511000004
 10
-24227.92740000039
 20
331617.5936999992
 10
-24227.68539999984
 20
331618.0364999995
 10
-24227.44390000031
 20
331618.4798000008
 10
-24227.20289999992
 20
331618.9232999999
 10
-24226.96239999961
 20
331619.3672000002
 10
-24226.72250000015
 20
331619.8114
 10
-24226.48309999984
 20
331620.2559999992
 10
-24226.24419999961
 20
331620.7008999996
 10
-24226.00590000022
 20
331621.1460999995
 10
-24225.76819999982
 20
331621.5917000008
 10
-24225.53089999966
 20
331622.0375999995
 10
-24225.29430000019
 20
331622.4837999996
 10
-24225.05819999985
 20
331622.9304000009
 10
-24224.82270000037
 20
331623.3773999997
 10
-24224.58779999987
 20
331623.8246999998
 10
-24224.35340000037
 20
331624.2722999994
 10
-24224.11959999986
 20
331624.7203000002
 10
-24223.88650000002
 20
331625.1687000003
 10
-24223.65390000027
 20
331625.6173999999
 10
-24223.42190000042
 20
331626.0665000007
 10
-24223.19060000032
 20
331626.5160000007
 10
-24222.9598000003
 20
331626.9658000004
 10
-24222.72970000002
 20
331627.4159999993
 10
-24222.50019999966
 20
331627.8664999996
 10
-24222.27139999997
 20
331628.3173999992
 10
-24222.04310000036
 20
331628.7686999999
 10
-24221.81560000032
 20
331629.2203000002
 10
-24221.58860000036
 20
331629.6723999996
 10
-24221.36239999999
 20
331630.1248000004
 10
-24221.13680000045
 20
331630.5775000007
 10
-24220.91179999989
 20
331631.0307000001
 10
-24220.6875
 20
331631.4842000008
 10
-24220.46389999986
 20
331631.9382000007
 10
-24220.24100000039
 20
331632.3925000001
 10
-24220.01879999973
 20
331632.8471000009
 10
-24219.79729999975
 20
331633.3022000008
 10
-24219.57650000043
 20
331633.7577
 10
-24219.3563000001
 20
331634.2135000006
 10
-24219.13690000027
 20
331634.6697000005
 10
-24218.84850000032
 20
331635.3019999993
 10
-24218.30269999988
 20
331636.2462000009
 10
-24217.60369999986
 20
331637.0834999997
 10
-24216.77199999988
 20
331637.7891000006
 10
-24215.83220000006
 20
331638.3423999995
 10
-24214.81159999967
 20
331638.7271999996
 10
-24213.74039999955
 20
331638.9320999999
 10
-24213.14460000023
 20
331638.8509
 10
-24212.56969999988
 20
331638.6746999994
 10
-24212.03079999983
 20
331638.4079999998
 10
-24211.54189999961
 20
331638.0580000002
 10
-24211.1157999998
 20
331637.6337000001
 10
-24210.76379999984
 20
331637.1461999994
1001
AcMap_E615D161-C9D7-11d3-839F-0060B0FB6B57
1071
        1
1071
       13
  0
LINE
  5
A9A
330
1F
100
AcDbEntity
  8
Straßenverlauf_FBRD
100
AcDbLine
 10
-24209.73319999967
 20
331645.7860000003
 30
0.0
 11
-24209.72460000031
 21
331645.8063999992
 31
0.0
1001
AcMap_E615D161-C9D7-11d3-839F-0060B0FB6B57
1071
        1
1071
       13
  0
LWPOLYLINE
  5
A9B
330
1F
100
AcDbEntity
  8
Straßenverlauf_FBRD
100
AcDbPolyline
 90
      103
 70
     0
 43
0.0
 10
-24209.72460000031
 20
331645.8063999992
 10
-24209.61899999995
 20
331646.0569000002
 10
-24204.72860000003
 20
331658.5588000008
 10
-24200.4709999999
 20
331671.2901000008
 10
-24196.85680000018
 20
331684.2188000009
 10
-24196.73070000019
 20
331684.7194999997
 10
-24196.60570000019
 20
331685.2203000002
 10
-24196.48170000035
 20
331685.7211000007
 10
-24196.35859999992
 20
331686.2221000009
 10
-24196.23649999965
 20
331686.7229999993
 10
-24196.11539999955
 20
331687.2239999995
 10
-24195.99519999977
 20
331687.7250999995
 10
-24195.87590000034
 20
331688.2261999995
 10
-24195.7575000003
 20
331688.7273999993
 10
-24195.64010000043
 20
331689.2284999993
 10
-24195.52350000013
 20
331689.7296999992
 10
-24195.40780000016
 20
331690.2310000006
 10
-24195.2929999996
 20
331690.7322000004
 10
-24195.1791000003
 20
331691.2335000001
 10
-24195.06599999964
 20
331691.7347999998
 10
-24194.95370000042
 20
331692.2360999994
 10
-24194.84229999967
 20
331692.7374000009
 10
-24194.73159999959
 20
331693.2387000006
 10
-24194.62179999985
 20
331693.7400000003
 10
-24194.51279999968
 20
331694.2412999999
 10
-24194.40450000018
 20
331694.7425999995
 10
-24194.29700000025
 20
331695.2438999992
 10
-24194.1902999999
 20
331695.7452000007
 10
-24194.08430000022
 20
331696.2464000005
 10
-24193.97900000028
 20
331696.7476000004
 10
-24193.87449999992
 20
331697.2488000002
 10
-24193.77070000023
 20
331697.75
 10
-24193.66750000045
 20
331698.2511
 10
-24193.56510000024
 20
331698.7522
 10
-24193.46329999994
 20
331699.2533
 10
-24193.36220000032
 20
331699.7543000002
 10
-24193.26180000044
 20
331700.2552000005
 10
-24193.16199999955
 20
331700.7561000008
 10
-24193.06280000042
 20
331701.2569999993
 10
-24192.96420000028
 20
331701.7577999998
 10
-24192.86629999988
 20
331702.2586000003
 10
-24192.76889999956
 20
331702.7592999991
 10
-24192.67210000008
 20
331703.2599
 10
-24192.57589999959
 20
331703.7603999991
 10
-24192.48029999994
 20
331704.2609000001
 10
-24192.38520000037
 20
331704.7612999995
 10
-24192.29059999995
 20
331705.2617000007
 10
-24192.19660000037
 20
331705.7620000002
 10
-24192.10309999995
 20
331706.2621
 10
-24192.01009999961
 20
331706.7621999998
 10
-24191.91750000045
 20
331707.2621999998
 10
-24191.82550000027
 20
331707.7621999998
 10
-24191.73390000034
 20
331708.2620000002
 10
-24191.64279999956
 20
331708.7618000004
 10
-24191.55209999997
 20
331709.2613999993
 10
-24191.46190000046
 20
331709.7609000001
 10
-24191.37210000027
 20
331710.2603999991
 10
-24191.28270000033
 20
331710.7597000003
 10
-24191.19359999988
 20
331711.2589999997
 10
-24191.10500000045
 20
331711.7580999993
 10
-24191.01680000034
 20
331712.2570999992
 10
-24190.92889999971
 20
331712.7561000008
 10
-24190.84140000027
 20
331713.2548999992
 10
-24190.75420000031
 20
331713.7534999996
 10
-24190.66739999969
 20
331714.2521000002
 10
-24190.58090000041
 20
331714.7504999992
 10
-24190.49459999986
 20
331715.2489
 10
-24190.40869999956
 20
331715.7470999994
 10
-24190.32309999969
 20
331716.2451000009
 10
-24190.23770000041
 20
331716.7431000006
 10
-24190.15270000044
 20
331717.2409000006
 10
-24190.06780000031
 20
331717.738500001
 10
-24189.98319999967
 20
331718.2360999994
 10
-24189.89890000038
 20
331718.7335000002
 10
-24189.81469999999
 20
331719.2306999993
 10
-24189.73080000002
 20
331719.7279000004
 10
-24189.64699999988
 20
331720.2248
 10
-24189.56350000017
 20
331720.7216999996
 10
-24189.48010000028
 20
331721.2183999997
 10
-24189.39680000022
 20
331721.7149000001
 10
-24189.31379999965
 20
331722.2113000005
 10
-24189.23080000002
 20
331722.7074999996
 10
-24189.14800000004
 20
331723.2036000006
 10
-24189.06539999973
 20
331723.6995000001
 10
-24188.98280000035
 20
331724.1952999998
 10
-24188.90029999986
 20
331724.6908999999
 10
-24188.81790000014
 20
331725.1863000002
 10
-24188.73560000025
 20
331725.6816000007
 10
-24188.65330000036
 20
331726.1766999997
 10
-24188.57110000029
 20
331726.6715999991
 10
-24188.48890000023
 20
331727.1664000005
 10
-24170.91909999959
 20
331832.9552999996
 10
-24170.66700000037
 20
331833.9437000007
 10
-24170.25119999983
 20
331834.8751999997
 10
-24169.68350000028
 20
331835.7226999999
 10
-24168.9804999996
 20
331836.4618999996
 10
-24168.16249999963
 20
331837.0712000002
 10
-24167.25310000032
 20
331837.5331999995
 10
-24166.27850000002
 20
331837.8344999999
 10
-24163.02730000019
 20
331838.3306000009
 10
-24159.73940000031
 20
331838.4123
 10
-24156.46760000009
 20
331838.0782999993
 10
-24150.68699999992
 20
331837.1155999992
1001
AcMap_E615D161-C9D7-11d3-839F-0060B0FB6B57
1071
        1
1071
       13
  0
LWPOLYLINE
  5
A9C
330
1F
100
AcDbEntity
  8
Straßenverlauf_FBRD
100
AcDbPolyline
 90
      112
 70
     0
 43
0.0
 10
-24209.72460000031
 20
331645.8063999992
 10
-24209.78969999961
 20
331645.7803000008
 10
-24210.19660000037
 20
331645.6981000006
 10
-24210.61149999965
 20
331645.6864999999
 10
-24211.0223000003
 20
331645.7457999997
 10
-24211.4171000002
 20
331645.8741999996
 10
-24211.78409999982
 20
331646.0680999998
 10
-24212.11280000024
 20
331646.3215999995
 10
-24212.39340000041
 20
331646.6274999995
 10
-24212.61780000012
 20
331646.9767000004
 10
-24212.77929999959
 20
331647.359099999
 10
-24212.87339999993
 20
331647.7633999996
 10
-24212.89709999971
 20
331648.1777999997
 10
-24212.84979999997
 20
331648.5901999995
 10
-24212.73300000001
 20
331648.9885000009
 10
-24208.15199999977
 20
331660.8607000001
 10
-24204.14950000029
 20
331672.9401999991
 10
-24200.73489999957
 20
331685.1987999994
 10
-24200.61070000008
 20
331685.6920999997
 10
-24200.48749999982
 20
331686.1854999997
 10
-24200.36529999971
 20
331686.6790999994
 10
-24200.24399999995
 20
331687.1728000008
 10
-24200.12359999959
 20
331687.6667
 10
-24200.00420000032
 20
331688.1605999991
 10
-24199.88559999969
 20
331688.6547999997
 10
-24199.76800000016
 20
331689.1490000003
 10
-24199.6512000002
 20
331689.6434000005
 10
-24199.53529999964
 20
331690.1379000004
 10
-24199.42030000035
 20
331690.6325000003
 10
-24199.3060999997
 20
331691.1272999998
 10
-24199.19280000031
 20
331691.6220999993
 10
-24199.08029999957
 20
331692.1170000006
 10
-24198.96860000025
 20
331692.6120999996
 10
-24198.85769999959
 20
331693.1072000005
 10
-24198.74760000035
 20
331693.6023999993
 10
-24198.63829999976
 20
331694.0976999998
 10
-24198.52979999967
 20
331694.5931000002
 10
-24198.42200000025
 20
331695.0886000004
 10
-24198.31500000041
 20
331695.5841000006
 10
-24198.20870000031
 20
331696.0797000006
 10
-24198.10319999978
 20
331696.5754000005
 10
-24197.99830000009
 20
331697.0712000002
 10
-24197.89419999998
 20
331697.5669999998
 10
-24197.79079999961
 20
331698.0628999993
 10
-24197.68800000008
 20
331698.5588000007
 10
-24197.58600000013
 20
331699.0548000001
 10
-24197.48460000008
 20
331699.5508999993
 10
-24197.38379999995
 20
331700.0469000004
 10
-24197.28369999956
 20
331700.5430999995
 10
-24197.18420000002
 20
331701.0392000005
 10
-24197.08530000038
 20
331701.5354999993
 10
-24196.98709999956
 20
331702.0317000002
 10
-24196.88939999975
 20
331702.5280000009
 10
-24196.79229999986
 20
331703.0242999997
 10
-24196.69579999987
 20
331703.5206000004
 10
-24196.59979999997
 20
331704.0170000009
 10
-24196.50439999998
 20
331704.5132999998
 10
-24196.4095999999
 20
331705.0097000003
 10
-24196.31520000007
 20
331705.5061000008
 10
-24196.22140000015
 20
331706.0024999995
 10
-24196.12810000032
 20
331706.4989999999
 10
-24196.03529999964
 20
331706.9954000004
 10
-24195.94290000014
 20
331707.4919000007
 10
-24195.85109999962
 20
331707.9882999994
 10
-24195.75970000029
 20
331708.4847
 10
-24195.66870000027
 20
331708.9812000002
 10
-24195.57820000034
 20
331709.4776000008
 10
-24195.48809999973
 20
331709.9739999995
 10
-24195.3984000003
 20
331710.4704
 10
-24195.30920000002
 20
331710.9669000004
 10
-24195.22030000016
 20
331711.4631999992
 10
-24195.13179999963
 20
331711.9595999997
 10
-24195.04370000027
 20
331712.4560000003
 10
-24194.95590000041
 20
331712.9522999991
 10
-24194.86849999987
 20
331713.4485999998
 10
-24194.78139999974
 20
331713.9449000005
 10
-24194.69469999988
 20
331714.4410999995
 10
-24194.60830000043
 20
331714.9373000004
 10
-24194.52209999971
 20
331715.4334999994
 10
-24194.43630000018
 20
331715.9297000002
 10
-24194.3507000003
 20
331716.4257999994
 10
-24194.26539999992
 20
331716.9219000005
 10
-24194.18039999996
 20
331717.4178999998
 10
-24194.09559999965
 20
331717.9138999991
 10
-24194.01109999977
 20
331718.4099000004
 10
-24193.92679999955
 20
331718.9057999998
 10
-24193.84269999992
 20
331719.4015999996
 10
-24193.75879999995
 20
331719.8973999992
 10
-24193.67499999982
 20
331720.3932000007
 10
-24193.5915000001
 20
331720.8889000006
 10
-24193.50820000004
 20
331721.3845000007
 10
-24193.42499999981
 20
331721.8801000006
 10
-24193.34190000035
 20
331722.3756000009
 10
-24193.25899999961
 20
331722.8710999992
 10
-24193.17619999964
 20
331723.3664999996
 10
-24193.09350000042
 20
331723.8618000001
 10
-24193.01090000011
 20
331724.3570000008
 10
-24192.92850000039
 20
331724.8521999996
 10
-24192.84609999973
 20
331725.3473000005
 10
-24192.76370000001
 20
331725.8423999995
 10
-24192.68140000012
 20
331726.3373000007
 10
-24192.59920000006
 20
331726.8322000001
 10
-24192.51699999999
 20
331727.3269999996
 10
-24192.43479999993
 20
331727.8217999991
 10
-24174.86500000022
 20
331833.6107000001
 10
-24174.44489999954
 20
331835.2580999993
 10
-24173.75179999974
 20
331836.8103999999
 10
-24172.80580000021
 20
331838.2229999993
 10
-24171.63410000037
 20
331839.4549000003
 10
-24170.27080000006
 20
331840.4704999998
 10
-24168.75499999989
 20
331841.2404999994
 10
-24167.13080000039
 20
331841.7425999996
1001
AcMap_E615D161-C9D7-11d3-839F-0060B0FB6B57
1071
        1
1071
       13
  0
LWPOLYLINE
  5
A9D
330
1F
100
AcDbEntity
  8
Straßenverlauf_FBRD
100
AcDbPolyline
 90
      104
 70
     0
 43
0.0
 10
-24212.18680000026
 20
331646.4022000004
 10
-24212.12179999985
 20
331646.5555000007
 10
-24211.92360000033
 20
331647.0256999992
 10
-24207.07890000008
 20
331659.4109000005
 10
-24202.86099999957
 20
331672.0232999995
 10
-24199.28060000017
 20
331684.8312999998
 10
-24199.15570000001
 20
331685.3274000008
 10
-24199.0318
 20
331685.8235
 10
-24198.90890000016
 20
331686.3198000007
 10
-24198.78699999955
 20
331686.8162999992
 10
-24198.6660000002
 20
331687.3127999996
 10
-24198.54590000026
 20
331687.8093999997
 10
-24198.42669999972
 20
331688.3060999997
 10
-24198.30850000028
 20
331688.8029999994
 10
-24198.19110000041
 20
331689.299900001
 10
-24198.07459999994
 20
331689.7969000005
 10
-24197.9589999998
 20
331690.2939999998
 10
-24197.8443
 20
331690.7912000008
 10
-24197.73039999977
 20
331691.2884
 10
-24197.61730000004
 20
331691.7857000009
 10
-24197.50509999972
 20
331692.2830999997
 10
-24197.3936999999
 20
331692.7805000004
 10
-24197.28309999965
 20
331693.2780000009
 10
-24197.17329999991
 20
331693.7755999994
 10
-24197.06429999973
 20
331694.2731999998
 10
-24196.95600000024
 20
331694.7708999999
 10
-24196.84860000014
 20
331695.2686000001
 10
-24196.74179999996
 20
331695.7663000003
 10
-24196.63580000028
 20
331696.2641000003
 10
-24196.53060000017
 20
331696.7619000003
 10
-24196.42599999998
 20
331697.2597000003
 10
-24196.32220000029
 20
331697.7576000001
 10
-24196.21899999957
 20
331698.2555
 10
-24196.1166000003
 20
331698.7533999999
 10
-24196.01480000001
 20
331699.2513999995
 10
-24195.91359999962
 20
331699.7492999993
 10
-24195.81309999991
 20
331700.2473000009
 10
-24195.71329999995
 20
331700.7452000007
 10
-24195.61409999989
 20
331701.2432000004
 10
-24195.51549999975
 20
331701.7412000001
 10
-24195.41750000045
 20
331702.2391999998
 10
-24195.3200000003
 20
331702.7370999996
 10
-24195.22319999989
 20
331703.2350999993
 10
-24195.12689999957
 20
331703.7331000008
 10
-24195.03120000009
 20
331704.2310000007
 10
-24194.93609999959
 20
331704.7289000005
 10
-24194.8415000001
 20
331705.2268000003
 10
-24194.74739999976
 20
331705.7247000002
 10
-24194.65380000044
 20
331706.2226
 10
-24194.56070000026
 20
331706.7204
 10
-24194.46810000017
 20
331707.2182
 10
-24194.37600000017
 20
331707.716
 10
-24194.28440000024
 20
331708.2138000001
 10
-24194.19319999963
 20
331708.7115000003
 10
-24194.10240000021
 20
331709.2092000005
 10
-24194.01209999993
 20
331709.7068000008
 10
-24193.92219999991
 20
331710.2043999992
 10
-24193.83279999998
 20
331710.7018999998
 10
-24193.74370000046
 20
331711.1994000003
 10
-24193.65500000026
 20
331711.6969000009
 10
-24193.56670000031
 20
331712.1942999996
 10
-24193.47879999969
 20
331712.6916000005
 10
-24193.39120000042
 20
331713.1888999995
 10
-24193.30389999971
 20
331713.6861000005
 10
-24193.21700000018
 20
331714.1832999997
 10
-24193.13040000014
 20
331714.6804000009
 10
-24193.04409999959
 20
331715.1774000004
 10
-24192.95820000023
 20
331715.6743999999
 10
-24192.87249999959
 20
331716.1712999996
 10
-24192.78710000031
 20
331716.6680999994
 10
-24192.70189999975
 20
331717.1647999995
 10
-24192.61699999962
 20
331717.6614999995
 10
-24192.53239999991
 20
331718.1580999997
 10
-24192.44790000003
 20
331718.6546
 10
-24192.36369999964
 20
331719.1511000004
 10
-24192.27969999984
 20
331719.6473999992
 10
-24192.1958999997
 20
331720.1437
 10
-24192.11230000015
 20
331720.6399000008
 10
-24192.02890000027
 20
331721.1359000001
 10
-24191.94560000021
 20
331721.6318999995
 10
-24191.86249999981
 20
331722.1278000009
 10
-24191.77950000018
 20
331722.6236000005
 10
-24191.6967000002
 20
331723.1193000004
 10
-24191.61400000006
 20
331723.6150000002
 10
-24191.53129999992
 20
331724.1105000004
 10
-24191.44880000036
 20
331724.6059000008
 10
-24191.36639999971
 20
331725.1011999995
 10
-24191.28399999999
 20
331725.5964000002
 10
-24191.2017000001
 20
331726.0913999994
 10
-24191.11950000003
 20
331726.5864000004
 10
-24191.03729999997
 20
331727.0812999998
 10
-24190.95509999991
 20
331727.5759999994
 10
-24173.3853000002
 20
331833.3649000004
 10
-24173.02819999959
 20
331834.7652000003
 10
-24172.43910000008
 20
331836.0846999996
 10
-24171.63499999978
 20
331837.2853999995
 10
-24170.63910000026
 20
331838.3324999996
 10
-24169.48020000011
 20
331839.1958000008
 10
-24168.19180000015
 20
331839.8502999991
 10
-24166.81120000035
 20
331840.2771000005
 10
-24163.24729999993
 20
331840.8209000007
 10
-24159.64340000041
 20
331840.9103999995
 10
-24156.0569000002
 20
331840.5442999992
 10
-24151.94159999956
 20
331839.8589999993
1001
AcMap_E615D161-C9D7-11d3-839F-0060B0FB6B57
1071
        1
1071
       13
  0
LINE
  5
A9E
330
1F
100
AcDbEntity
  8
Straßenverlauf_FBRD
100
AcDbLine
 10
-24207.86670000013
 20
331646.5521000009
 30
0.0
 11
-24209.72460000031
 21
331645.8063999992
 31
0.0
1001
AcMap_E615D161-C9D7-11d3-839F-0060B0FB6B57
1071
        1
1071
       13
  0
LWPOLYLINE
  5
A9F
330
1F
100
AcDbEntity
  8
Straßenverlauf_FBRD
100
AcDbPolyline
 90
       12
 70
     0
 43
0.0
 10
-24150.64030000009
 20
331836.8037000001
 10
-24156.51690000016
 20
331837.7824000009
 10
-24159.75100000017
 20
331838.1126000006
 10
-24163.00090000033
 20
331838.0318
 10
-24166.2145999996
 20
331837.5414000005
 10
-24167.14039999992
 20
331837.2552000005
 10
-24168.00439999998
 20
331836.8162999992
 10
-24168.78149999957
 20
331836.237400001
 10
-24169.44930000044
 20
331835.5351999998
 10
-24169.98859999981
 20
331834.7301000003
 10
-24170.38360000029
 20
331833.8452000003
 10
-24170.62310000043
 20
331832.9061999992
1001
AcMap_E615D161-C9D7-11d3-839F-0060B0FB6B57
1071
        1
1071
       13
  0
LWPOLYLINE
  5
AA0
330
1F
100
AcDbEntity
  8
Straßenverlauf_FBRD
100
AcDbPolyline
 90
      137
 70
     0
 43
0.0
 10
-24152.33839999978
 20
331848.8267000001
 10
-24163.87430000026
 20
331850.6523000002
 10
-24165.24239999987
 20
331851.0475999993
 10
-24166.52280000039
 20
331851.6707000006
 10
-24167.67800000031
 20
331852.5033999998
 10
-24168.67399999965
 20
331853.5210999995
 10
-24169.48149999976
 20
331854.6941
 10
-24170.07689999975
 20
331855.9877000004
 10
-24170.44249999989
 20
331857.3639000002
 10
-24170.56769999955
 20
331858.7825000007
 10
-24170.4486999996
 20
331860.2015000005
 10
-24166.71380000003
 20
331882.6893000007
 10
-24166.63129999955
 20
331883.1863000002
 10
-24166.54870000016
 20
331883.6831999999
 10
-24166.46619999967
 20
331884.1799999997
 10
-24166.38360000029
 20
331884.6766999997
 10
-24166.30099999998
 20
331885.1732999999
 10
-24166.21839999967
 20
331885.6698000003
 10
-24166.13570000045
 20
331886.1663000006
 10
-24166.05300000031
 20
331886.6625999995
 10
-24165.97020000033
 20
331887.1589000002
 10
-24165.88729999959
 20
331887.6550999992
 10
-24165.80429999996
 20
331888.1511000004
 10
-24165.72119999957
 20
331888.6470999998
 10
-24165.63800000027
 20
331889.1429999992
 10
-24165.55470000021
 20
331889.6388000008
 10
-24165.47119999957
 20
331890.1344000008
 10
-24165.38760000002
 20
331890.6300000008
 10
-24165.30379999988
 20
331891.1254999992
 10
-24165.21989999991
 20
331891.6207999997
 10
-24165.13580000028
 20
331892.1160000004
 10
-24165.05150000006
 20
331892.6111999993
 10
-24164.96700000018
 20
331893.1062000003
 10
-24164.88229999971
 20
331893.6010999997
 10
-24164.79739999958
 20
331894.0957999994
 10
-24164.71229999978
 20
331894.5905000009
 10
-24164.62689999957
 20
331895.0850000009
 10
-24164.54119999986
 20
331895.5793999992
 10
-24164.45540000033
 20
331896.0736999996
 10
-24164.36919999961
 20
331896.5679000001
 10
-24164.28270000033
 20
331897.0618999992
 10
-24164.19600000046
 20
331897.5558000003
 10
-24164.10900000017
 20
331898.0494999998
 10
-24164.02159999963
 20
331898.5431999993
 10
-24163.93400000036
 20
331899.0366999992
 10
-24163.8459999999
 20
331899.5299999993
 10
-24163.75760000013
 20
331900.0231999997
 10
-24163.66889999993
 20
331900.5163000003
 10
-24163.57990000025
 20
331901.0091999993
 10
-24163.49039999954
 20
331901.5019000005
 10
-24163.40060000028
 20
331901.9945
 10
-24163.31039999984
 20
331902.4869999998
 10
-24163.21980000008
 20
331902.9792999998
 10
-24163.12870000024
 20
331903.4714000002
 10
-24163.03729999997
 20
331903.9634000007
 10
-24162.94539999962
 20
331904.4551999998
 10
-24162.85300000012
 20
331904.9469000008
 10
-24162.7603000002
 20
331905.4384000003
 10
-24162.66700000036
 20
331905.9297000003
 10
-24162.57330000028
 20
331906.4209000003
 10
-24162.47900000028
 20
331906.9118000008
 10
-24162.38430000003
 20
331907.4025999997
 10
-24162.2890999997
 20
331907.8932000008
 10
-24162.19330000039
 20
331908.3837000002
 10
-24162.0970999999
 20
331908.8739
 10
-24162.00030000042
 20
331909.3640000001
 10
-24161.9029000001
 20
331909.8539000004
 10
-24161.8049999997
 20
331910.3435999994
 10
-24161.70650000032
 20
331910.8330000006
 10
-24161.6074000001
 20
331911.3223000002
 10
-24161.50779999979
 20
331911.8114000001
 10
-24161.40749999974
 20
331912.3003000003
 10
-24161.30669999961
 20
331912.7890000008
 10
-24161.20519999974
 20
331913.2774000001
 10
-24161.10309999995
 20
331913.7656999994
 10
-24161.00040000025
 20
331914.2536999994
 10
-24160.89699999988
 20
331914.7415999994
 10
-24160.79289999977
 20
331915.2292
 10
-24160.68819999974
 20
331915.7164999992
 10
-24160.58279999997
 20
331916.2037000005
 10
-24160.47680000029
 20
331916.6906000003
 10
-24160.37000000011
 20
331917.1773000006
 10
-24160.26250000019
 20
331917.6636999995
 10
-24160.15429999959
 20
331918.1499000006
 10
-24160.04540000018
 20
331918.6359000001
 10
-24159.93570000027
 20
331919.1216000002
 10
-24159.82529999968
 20
331919.6071000006
 10
-24159.71410000045
 20
331920.0922999997
 10
-24159.60219999961
 20
331920.5771999993
 10
-24159.48950000014
 20
331921.0618999992
 10
-24159.37600000016
 20
331921.5462999996
 10
-24159.26169999969
 20
331922.0305000004
 10
-24159.14659999963
 20
331922.5143999998
 10
-24159.03070000001
 20
331922.9979999998
 10
-24158.91399999988
 20
331923.4813000001
 10
-24158.79640000034
 20
331923.9642999992
 10
-24158.67800000031
 20
331924.4471000005
 10
-24158.55869999994
 20
331924.9295000006
 10
-24158.43859999999
 20
331925.4116999991
 10
-24158.31759999972
 20
331925.8936000001
 10
-24158.19570000004
 20
331926.3750999998
 10
-24158.07290000003
 20
331926.8564
 10
-24157.94919999968
 20
331927.3373000007
 10
-24157.82459999994
 20
331927.8179000001
 10
-24157.69909999985
 20
331928.2982000001
 10
-24157.57270000037
 20
331928.7782000006
 10
-24157.44529999979
 20
331929.2577999998
 10
-24157.31689999998
 20
331929.7370999996
 10
-24157.18769999966
 20
331930.2160999999
 10
-24157.05740000028
 20
331930.6947000008
 10
-24156.92619999964
 20
331931.1730000004
 10
-24156.79389999993
 20
331931.6509000007
 10
-24156.66069999989
 20
331932.1283999998
 10
-24156.52649999969
 20
331932.6055999994
 10
-24156.39130000025
 20
331933.0823999997
 10
-24156.25499999989
 20
331933.5589000006
 10
-24156.1177000003
 20
331934.0349000004
 10
-24155.9793999996
 20
331934.5106000007
 10
-24155.83999999985
 20
331934.9858999998
 10
-24155.69959999993
 20
331935.4607999996
 10
-24155.55810000002
 20
331935.9353
 10
-24155.41550000012
 20
331936.4093999993
 10
-24155.27180000022
 20
331936.8830999993
 10
-24155.12710000016
 20
331937.3563000001
 10
-24154.98120000027
 20
331937.8291999996
 10
-24154.83420000039
 20
331938.3015999999
 10
-24154.68609999959
 20
331938.7736000009
 10
-24154.53689999972
 20
331939.2451000009
 10
-24154.38650000002
 20
331939.7161999997
 10
-24154.23500000033
 20
331940.1867999994
 10
-24154.08229999989
 20
331940.6569999997
 10
-24153.92850000039
 20
331941.1267000009
 10
-24153.77350000013
 20
331941.5960000009
 10
-24153.61730000004
 20
331942.0647
 10
-24153.45990000013
 20
331942.5329999999
 10
-24150.56329999957
 20
331950.5168999992
 10
-24147.31049999967
 20
331958.3624000009
1001
AcMap_E615D161-C9D7-11d3-839F-0060B0FB6B57
1071
        1
1071
       13
  0
LWPOLYLINE
  5
AA1
330
1F
100
AcDbEntity
  8
Straßenverlauf_FBRD
100
AcDbPolyline
 90
      403
 70
     0
 43
0.0
 10
-24153.65579999984
 20
331962.5502000004
 10
-24157.32340000011
 20
331953.8243000005
 10
-24160.56599999964
 20
331944.9317000006
 10
-24160.7296000002
 20
331944.4448000007
 10
-24160.89190000016
 20
331943.9576999992
 10
-24161.0530000003
 20
331943.4702000004
 10
-24161.21270000003
 20
331942.9823000003
 10
-24161.37129999976
 20
331942.4942000006
 10
-24161.52850000002
 20
331942.0056999997
 10
-24161.68450000044
 20
331941.5168999993
 10
-24161.83930000011
 20
331941.0277999994
 10
-24161.99289999995
 20
331940.5383999999
 10
-24162.14529999998
 20
331940.0485999994
 10
-24162.29640000034
 20
331939.5587000009
 10
-24162.44639999978
 20
331939.0683999993
 10
-24162.59520000033
 20
331938.5778000001
 10
-24162.74280000012
 20
331938.0869999994
 10
-24162.88929999992
 20
331937.5958999991
 10
-24163.0345999999
 20
331937.1045999993
 10
-24163.17870000005
 20
331936.6129999999
 10
-24163.3217000002
 20
331936.1210999992
 10
-24163.4637000002
 20
331935.6290000007
 10
-24163.60450000036
 20
331935.1367000006
 10
-24163.74409999978
 20
331934.6442000009
 10
-24163.88279999979
 20
331934.1513999999
 10
-24164.02029999998
 20
331933.6583999991
 10
-24164.15670000017
 20
331933.1652000007
 10
-24164.29210000019
 20
331932.6717000008
 10
-24164.42650000006
 20
331932.1780999992
 10
-24164.55979999993
 20
331931.6842999999
 10
-24164.69199999981
 20
331931.1903000008
 10
-24164.82330000028
 20
331930.6960000005
 10
-24164.95349999983
 20
331930.2016000003
 10
-24165.08279999998
 20
331929.7071000003
 10
-24165.21100000013
 20
331929.2123000007
 10
-24165.33829999995
 20
331928.7173999995
 10
-24165.4645999996
 20
331928.2223000005
 10
-24165.58999999985
 20
331927.7270999998
 10
-24165.71439999994
 20
331927.2316999994
 10
-24165.8378999997
 20
331926.7360999994
 10
-24165.96040000022
 20
331926.2403999996
 10
-24166.0820000004
 20
331925.7445999999
 10
-24166.20280000009
 20
331925.2486000006
 10
-24166.32259999961
 20
331924.7524999995
 10
-24166.44149999973
 20
331924.2562000007
 10
-24166.55960000027
 20
331923.7598000002
 10
-24166.67679999955
 20
331923.2632999998
 10
-24166.79320000019
 20
331922.7666999996
 10
-24166.90869999956
 20
331922.2699999996
 10
-24167.0234000003
 20
331921.7730999999
 10
-24167.13719999977
 20
331921.2762000002
 10
-24167.25030000042
 20
331920.7791000009
 10
-24167.36249999981
 20
331920.2819999997
 10
-24167.4740000004
 20
331919.7847000007
 10
-24167.58469999954
 20
331919.2873999998
 10
-24167.69460000005
 20
331918.7898999993
 10
-24167.80370000005
 20
331918.2924000006
 10
-24167.91210000031
 20
331917.7948000003
 10
-24168.0197999999
 20
331917.2971000001
 10
-24168.12669999991
 20
331916.7993999999
 10
-24168.23300000001
 20
331916.3015999999
 10
-24168.33849999961
 20
331915.8037000001
 10
-24168.44330000039
 20
331915.3057000004
 10
-24168.54739999958
 20
331914.8077000007
 10
-24168.65089999978
 20
331914.3095999994
 10
-24168.75370000024
 20
331913.8114999999
 10
-24168.85589999985
 20
331913.3133000006
 10
-24168.95739999972
 20
331912.8150999993
 10
-24169.05829999969
 20
331912.3168000002
 10
-24169.1584999999
 20
331911.8184999992
 10
-24169.25820000004
 20
331911.3201000001
 10
-24169.35720000044
 20
331910.8216999993
 10
-24169.45569999982
 20
331910.3233000003
 10
-24169.55360000022
 20
331909.8247999996
 10
-24169.65089999977
 20
331909.3263000008
 10
-24169.74770000018
 20
331908.8278000001
 10
-24169.84389999975
 20
331908.3291999996
 10
-24169.93960000016
 20
331907.8306000009
 10
-24170.03469999973
 20
331907.3320000004
 10
-24170.12939999998
 20
331906.8333999999
 10
-24170.22350000031
 20
331906.3347999994
 10
-24170.3172000004
 20
331905.8362000008
 10
-24170.41029999964
 20
331905.3375000004
 10
-24170.50299999956
 20
331904.8388999999
 10
-24170.59530000016
 20
331904.3401999996
 10
-24170.68709999975
 20
331903.8414999992
 10
-24170.77840000019
 20
331903.3429000005
 10
-24170.86930000037
 20
331902.8442000002
 10
-24170.9598000003
 20
331902.3455999996
 10
-24171.04989999999
 20
331901.8468999993
 10
-24171.13960000035
 20
331901.3483000007
 10
-24171.22890000045
 20
331900.8497000002
 10
-24171.31790000014
 20
331900.3510999996
 10
-24171.40649999958
 20
331899.8524999992
 10
-24171.49469999969
 20
331899.3539000004
 10
-24171.58260000031
 20
331898.8553999998
 10
-24171.67009999976
 20
331898.3567999993
 10
-24171.7572999997
 20
331897.8583000005
 10
-24171.8443
 20
331897.3598999996
 10
-24171.93090000004
 20
331896.8614000008
 10
-24172.01719999965
 20
331896.3629999999
 10
-24172.10319999978
 20
331895.8646000009
 10
-24172.18900000025
 20
331895.3662999999
 10
-24172.27450000029
 20
331894.8679000009
 10
-24172.35979999974
 20
331894.3696999997
 10
-24172.44489999954
 20
331893.8714000006
 10
-24172.52969999984
 20
331893.3731999994
 10
-24172.61429999955
 20
331892.8750999999
 10
-24172.6986999996
 20
331892.3770000004
 10
-24172.78289999999
 20
331891.8789000008
 10
-24172.86689999979
 20
331891.3808999993
 10
-24172.95069999993
 20
331890.8829999994
 10
-24173.03440000024
 20
331890.3850999996
 10
-24173.11799999978
 20
331889.8872999997
 10
-24173.20139999967
 20
331889.3894999996
 10
-24173.2845999999
 20
331888.8916999996
 10
-24173.36780000012
 20
331888.3940999992
 10
-24173.45079999976
 20
331887.8965000008
 10
-24173.53369999956
 20
331887.3989000004
 10
-24173.6166000003
 20
331886.9014999997
 10
-24173.69940000027
 20
331886.4041000009
 10
-24173.78210000042
 20
331885.9067000002
 10
-24173.8646999998
 20
331885.4094999992
 10
-24173.94730000012
 20
331884.9123
 10
-24174.02990000043
 20
331884.4152000006
 10
-24174.11249999982
 20
331883.9180999994
 10
-24199.83349999972
 20
331729.0505999998
 10
-24199.91569999978
 20
331728.5559
 10
-24199.99780000001
 20
331728.0614
 10
-24200.08000000008
 20
331727.5669
 10
-24200.16210000031
 20
331727.0724999998
 10
-24200.2444000002
 20
331726.5781999994
 10
-24200.32660000026
 20
331726.0840000007
 10
-24200.40890000016
 20
331725.5899000001
 10
-24200.49129999988
 20
331725.0958999992
 10
-24200.5736999996
 20
331724.602
 10
-24200.65629999991
 20
331724.1082000006
 10
-24200.73890000023
 20
331723.6143999994
 10
-24200.82160000037
 20
331723.1207999997
 10
-24200.90450000018
 20
331722.6272999999
 10
-24200.98749999981
 20
331722.1338999998
 10
-24201.07060000021
 20
331721.6405999996
 10
-24201.15380000044
 20
331721.1475000009
 10
-24201.23730000015
 20
331720.6544000004
 10
-24201.3208999997
 20
331720.1613999997
 10
-24201.40469999984
 20
331719.6686000005
 10
-24201.48869999964
 20
331719.1758999992
 10
-24201.57290000003
 20
331718.6832999997
 10
-24201.65730000008
 20
331718.1908
 10
-24201.74199999962
 20
331717.6985
 10
-24201.82679999992
 20
331717.2062
 10
-24201.91199999955
 20
331716.7141999994
 10
-24201.99739999976
 20
331716.2222000007
 10
-24202.08299999964
 20
331715.7303999998
 10
-24202.16899999976
 20
331715.2387000006
 10
-24202.25519999955
 20
331714.7470999993
 10
-24202.34179999959
 20
331714.2556999996
 10
-24202.42870000005
 20
331713.7643999997
 10
-24202.5159
 20
331713.2732999996
 10
-24202.60340000037
 20
331712.7822999991
 10
-24202.69130000006
 20
331712.2914000004
 10
-24202.77950000018
 20
331711.8007999994
 10
-24202.86809999962
 20
331711.3102000002
 10
-24202.95710000023
 20
331710.8198000007
 10
-24203.04650000017
 20
331710.3296000008
 10
-24203.13630000036
 20
331709.8395000007
 10
-24203.22649999987
 20
331709.3496000004
 10
-24203.31709999964
 20
331708.8598999996
 10
-24203.40820000042
 20
331708.3703000006
 10
-24203.49969999958
 20
331707.8808999993
 10
-24203.59169999976
 20
331707.3916999996
 10
-24203.68410000019
 20
331706.9025999997
 10
-24203.77699999977
 20
331706.4136999995
 10
-24203.87040000036
 20
331705.9250000008
 10
-24203.96430000011
 20
331705.4364999999
 10
-24204.05869999993
 20
331704.9481000007
 10
-24204.15359999985
 20
331704.4600000009
 10
-24204.24909999967
 20
331703.9719999992
 10
-24204.34509999957
 20
331703.4842000007
 10
-24204.44159999956
 20
331702.9967000001
 10
-24204.53870000038
 20
331702.5092999991
 10
-24204.63640000019
 20
331702.0220999997
 10
-24204.73469999992
 20
331701.5351
 10
-24204.83349999972
 20
331701.0482999999
 10
-24204.93300000019
 20
331700.5617999993
 10
-24205.03309999965
 20
331700.0754000004
 10
-24205.13379999995
 20
331699.5892999992
 10
-24205.2352
 20
331699.1033999995
 10
-24205.33719999995
 20
331698.6176999994
 10
-24205.43979999982
 20
331698.1322000008
 10
-24205.54310000036
 20
331697.6469000001
 10
-24205.64709999971
 20
331697.1619000007
 10
-24205.75179999974
 20
331696.6772000008
 10
-24205.85720000044
 20
331696.1926000007
 10
-24205.96329999995
 20
331695.7083000001
 10
-24206.07019999996
 20
331695.2243000009
 10
-24206.17769999989
 20
331694.7403999995
 10
-24206.28600000031
 20
331694.2568999995
 10
-24206.39499999955
 20
331693.7736000009
 10
-24206.50480000023
 20
331693.2905000002
 10
-24206.61539999954
 20
331692.8078000006
 10
-24206.7268000003
 20
331692.3252000008
 10
-24206.83889999986
 20
331691.8430000003
 10
-24206.95189999976
 20
331691.3609999996
 10
-24207.06570000015
 20
331690.8793000002
 10
-24207.18030000013
 20
331690.3979000002
 10
-24207.29569999967
 20
331689.9167999998
 10
-24207.41189999972
 20
331689.4360000007
 10
-24207.52909999993
 20
331688.9553999994
 10
-24207.64699999988
 20
331688.4751999993
 10
-24207.7659
 20
331687.9952000007
 10
-24207.88559999969
 20
331687.5155999996
 10
-24208.00629999954
 20
331687.0362999998
 10
-24211.46520000044
 20
331674.6629000009
 10
-24215.54000000004
 20
331662.4783999995
 10
-24220.22030000016
 20
331650.5134999994
 10
-24220.41179999989
 20
331650.0591000002
 10
-24220.60419999994
 20
331649.6051000003
 10
-24220.79750000034
 20
331649.1514999997
 10
-24220.9916000003
 20
331648.6981000006
 10
-24221.18659999967
 20
331648.2451000009
 10
-24221.3825000003
 20
331647.7925000004
 10
-24221.57919999957
 20
331647.3400999997
 10
-24221.77680000011
 20
331646.8881000001
 10
-24221.97520000022
 20
331646.4364
 10
-24222.17449999973
 20
331645.9849999994
 10
-24222.37459999975
 20
331645.5339000002
 10
-24222.57550000027
 20
331645.0832000003
 10
-24222.77720000036
 20
331644.6327999998
 10
-24222.97979999985
 20
331644.1827000007
 10
-24223.18319999985
 20
331643.7328999993
 10
-24223.38740000036
 20
331643.2835000008
 10
-24223.59229999967
 20
331642.8344000001
 10
-24223.79810000025
 20
331642.3856000007
 10
-24224.0047000004
 20
331641.9371000007
 10
-24224.21210000012
 20
331641.4889000002
 10
-24224.42019999959
 20
331641.0409999993
 10
-24224.62909999956
 20
331640.5934999995
 10
-24224.83880000003
 20
331640.1462999992
 10
-24225.04930000007
 20
331639.6993000005
 10
-24225.26049999986
 20
331639.2526999992
 10
-24225.47240000032
 20
331638.8063999992
 10
-24225.68510000035
 20
331638.3605000004
 10
-24225.89859999996
 20
331637.9147999994
 10
-24226.11280000023
 20
331637.4693999998
 10
-24226.32770000026
 20
331637.0242999997
 10
-24226.54330000002
 20
331636.5796000008
 10
-24226.75970000029
 20
331636.1350999996
 10
-24226.97670000046
 20
331635.6909999997
 10
-24227.19450000021
 20
331635.2470999993
 10
-24227.41299999971
 20
331634.8036000003
 10
-24227.63219999988
 20
331634.3603000008
 10
-24227.85209999978
 20
331633.9174000006
 10
-24228.07270000037
 20
331633.4747000001
 10
-24228.29389999993
 20
331633.0322999992
 10
-24228.51580000017
 20
331632.5902999994
 10
-24228.73840000015
 20
331632.1484999992
 10
-24228.96169999987
 20
331631.7070000005
 10
-24229.18570000026
 20
331631.2657999993
 10
-24229.41019999981
 20
331630.8248999995
 10
-24229.63549999986
 20
331630.3841999993
 10
-24229.86139999982
 20
331629.9439000003
 10
-24230.08789999969
 20
331629.5037999991
 10
-24230.31510000024
 20
331629.0639999993
 10
-24230.54289999977
 20
331628.6245000009
 10
-24230.77130000014
 20
331628.1853
 10
-24231.00030000042
 20
331627.7463000008
 10
-24231.23000000045
 20
331627.3077000007
 10
-24231.46019999963
 20
331626.8693000004
 10
-24231.6911000004
 20
331626.4310999997
 10
-24231.92260000017
 20
331625.9933000002
 10
-24232.15460000001
 20
331625.5557000004
 10
-24232.3872999996
 20
331625.1183000002
 10
-24232.62050000019
 20
331624.6812999994
 10
-24232.85429999977
 20
331624.2444000002
 10
-24233.0887000002
 20
331623.8079000004
 10
-24233.32359999977
 20
331623.3716000002
 10
-24233.55920000002
 20
331622.9355999996
 10
-24233.79519999959
 20
331622.4998000004
 10
-24234.03189999983
 20
331622.0643000007
 10
-24234.26900000032
 20
331621.6290000007
 10
-24234.50669999979
 20
331621.1940000002
 10
-24234.74500000011
 20
331620.7591999993
 10
-24234.98379999958
 20
331620.3246999998
 10
-24235.22310000006
 20
331619.8904
 10
-24235.46289999969
 20
331619.4562999998
 10
-24235.70330000017
 20
331619.0225000009
 10
-24235.9441999998
 20
331618.5888999999
 10
-24236.18549999967
 20
331618.1556000002
 10
-24236.42740000039
 20
331617.7225000002
 10
-24236.66980000027
 20
331617.2895999998
 10
-24236.91260000039
 20
331616.8568999991
 10
-24237.15600000043
 20
331616.4244999998
 10
-24237.39979999978
 20
331615.9923000001
 10
-24237.64410000015
 20
331615.5603
 10
-24237.88889999967
 20
331615.1285999995
 10
-24238.1342000002
 20
331614.6970000006
 10
-24238.37990000006
 20
331614.2656999994
 10
-24238.62600000016
 20
331613.8345999998
 10
-24238.87270000018
 20
331613.4036999997
 10
-24239.11969999969
 20
331612.9729999993
 10
-24239.36720000021
 20
331612.5425000005
 10
-24239.61519999989
 20
331612.1121999994
 10
-24239.86359999981
 20
331611.6820999999
 10
-24240.11239999999
 20
331611.2522
 10
-24240.36160000041
 20
331610.8224999998
 10
-24240.61120000016
 20
331610.3929999992
 10
-24240.86129999999
 20
331609.9637000002
 10
-24241.11180000007
 20
331609.5346000009
 10
-24241.36259999964
 20
331609.1056999993
 10
-24241.61390000023
 20
331608.6768999994
 10
-24241.86560000014
 20
331608.2482999992
 10
-24242.11760000047
 20
331607.8200000003
 10
-24242.37000000011
 20
331607.3917999994
 10
-24242.62280000001
 20
331606.9637000002
 10
-24242.87600000016
 20
331606.5359000005
 10
-24243.12959999963
 20
331606.1082000006
 10
-24243.38350000046
 20
331605.6807000004
 10
-24243.63779999968
 20
331605.2533
 10
-24243.89240000024
 20
331604.8260999993
 10
-24244.14740000013
 20
331604.3991000001
 10
-24244.40270000044
 20
331603.9722000006
 10
-24244.65840000007
 20
331603.5454999991
 10
-24244.91430000029
 20
331603.1188999992
 10
-24245.17069999967
 20
331602.6925000008
 10
-24245.42729999963
 20
331602.2662000005
 10
-24245.68429999985
 20
331601.8400999997
 10
-24245.94159999955
 20
331601.4141000007
 10
-24246.19919999968
 20
331600.9881999996
 10
-24246.45710000023
 20
331600.5625000001
 10
-24246.71530000027
 20
331600.1369000003
 10
-24246.9737999998
 20
331599.7115000003
 10
-24247.23259999975
 20
331599.2861000002
 10
-24247.4916000003
 20
331598.8609999996
 10
-24247.75100000017
 20
331598.4359000009
 10
-24248.01059999969
 20
331598.0109000001
 10
-24248.27049999964
 20
331597.5861000009
 10
-24248.53070000001
 20
331597.1613999997
 10
-24248.79110000003
 20
331596.7368000001
 10
-24249.05179999955
 20
331596.3123000004
 10
-24249.31280000042
 20
331595.8879000004
 10
-24249.57400000002
 20
331595.4636000004
 10
-24249.83540000022
 20
331595.0394000001
 10
-24250.0970999999
 20
331594.6152999997
 10
-24250.35900000017
 20
331594.1912999992
 10
-24250.62119999993
 20
331593.7674000003
 10
-24250.88350000046
 20
331593.3435999993
 10
-24251.14609999955
 20
331592.9199000001
 10
-24251.40890000016
 20
331592.4962000009
 10
-24251.67190000042
 20
331592.0726999995
 10
-24251.93510000035
 20
331591.6491999999
 10
-24252.19859999977
 20
331591.2258000002
 10
-24252.46219999995
 20
331590.8025000002
 10
-24252.72599999979
 20
331590.3792000003
 10
-24252.99000000022
 20
331589.9560000003
 10
-24253.25420000032
 20
331589.5329
 10
-24253.51850000024
 20
331589.1097999998
 10
-24253.78299999982
 20
331588.6867999993
 10
-24254.0477
 20
331588.2639000006
 10
-24254.31259999983
 20
331587.8410000001
 10
-24254.57760000043
 20
331587.4180999994
 10
-24254.84279999975
 20
331586.9953000006
 10
-24255.10809999984
 20
331586.5724999998
 10
-24255.37359999959
 20
331586.1498000007
 10
-24255.63920000009
 20
331585.7271999997
 10
-24255.90490000043
 20
331585.3045000006
 10
-24256.17080000043
 20
331584.8818999995
 10
-24256.43680000026
 20
331584.4593000002
 10
-24256.70289999992
 20
331584.0368000009
 10
-24256.96910000034
 20
331583.6141999997
 10
-24257.23539999966
 20
331583.1917000004
 10
-24257.50189999957
 20
331582.7692000009
 10
-24257.76840000041
 20
331582.3467999995
 10
-24258.03509999998
 20
331581.9243000001
 10
-24258.30179999955
 20
331581.5019000005
 10
-24258.56869999971
 20
331581.0793999992
 10
-24258.83559999987
 20
331580.6569999997
 10
-24259.10259999987
 20
331580.2345000003
 10
-24259.36959999986
 20
331579.8121000007
 10
-24259.63680000045
 20
331579.3895999995
 10
-24259.9040000001
 20
331578.9671999998
 10
-24260.17119999975
 20
331578.5447000005
 10
-24260.43850000016
 20
331578.1221999992
 10
-24260.70590000041
 20
331577.6996999998
 10
-24260.97329999972
 20
331577.2772000004
 10
-24261.2407999998
 20
331576.8545999993
 10
-24261.50829999987
 20
331576.4320999999
 10
-24261.77579999995
 20
331576.0095000007
 10
-24262.04330000002
 20
331575.5867999997
 10
-24263.82160000037
 20
331572.7777999994
 10
-24278.66260000039
 20
331549.5850000009
 10
-24287.70330000017
 20
331534.8342000004
 10
-24296.16500000004
 20
331519.7438999992
 10
-24304.03509999998
 20
331504.3366999999
 10
-24311.30179999955
 20
331488.6359000001
 10
-24317.95409999974
 20
331472.6651000008
 10
-24323.98190000002
 20
331456.4483000003
 10
-24324.29270000011
 20
331455.7407000009
 10
-24324.70880000014
 20
331455.0894000009
 10
-24325.22039999999
 20
331454.5099999998
 10
-24325.81510000024
 20
331454.0164000001
 10
-24326.47879999969
 20
331453.6203000006
 10
-24327.19560000021
 20
331453.3312999998
1001
AcMap_E615D161-C9D7-11d3-839F-0060B0FB6B57
1071
        1
1071
       13
  0
ENDSEC
  0
SECTION
  2
OBJECTS
  0
DICTIONARY
  5
C
330
0
100
AcDbDictionary
281
     1
  3
ACAD_CIP_PREVIOUS_PRODUCT_INFO
350
1A5
  3
ACAD_COLOR
350
73
  3
ACAD_DETAILVIEWSTYLE
350
1AB
  3
ACAD_GROUP
350
D
  3
ACAD_LAYOUT
350
1A
  3
ACAD_MATERIAL
350
72
  3
ACAD_MLEADERSTYLE
350
D7
  3
ACAD_MLINESTYLE
350
17
  3
ACAD_PLOTSETTINGS
350
19
  3
ACAD_PLOTSTYLENAME
350
E
  3
ACAD_SCALELIST
350
B6
  3
ACAD_SECTIONVIEWSTYLE
350
1A8
  3
ACAD_TABLESTYLE
350
86
  3
ACAD_VISUALSTYLE
350
99
  3
ACDB_RECOMPOSE_DATA
350
AC0
  3
AcDbVariableDictionary
350
66
  3
AcDsDecomposeData
350
AC6
  3
AcMap_E615D15E-C9D7-11d3-839F-0060B0FB6B57
350
344
  3
ADE_QUERY_LIBRARY
350
21B
  3
ASE_INDEX_DICTIONARY
350
329
  3
Autodesk_MAP
350
204
  3
IrdDscDictionary
350
348
1001
ADE
1000
ADE02C004
1000
[Query]
1000
CaseSensitiveMatch=0
1000
SaveCurrQueryInSession=1
1000
MkSelSetWithQryObj=0
1000
ShowBlockAsInsPt=0
1000
CreateAssociativeHatchObjects=0
1000
ReferenceBoundaryForAreaLocation=1
1000
ShowImageAsBoundary=1
1000
DefaultJoinOperator=2
1000
ColorForAdd=red
1000
ColorForRemove=red
1000
BlockLocnForQuery=1
1000
TextLocnForQuery=1
1000
IncludeAllObjectsInGroups=0
1000
AlwaysUseLibraryDefinitions=0
1000
PreviewDefinitionsFrom=2
1000
[Save Back]
1000
RedefineBlockDefinitions=1
1000
RedefineLayerDefinitions=1
1000
RedefineTextStyleDefinitions=1
1000
RemoveUnusedGroups=1
1000
EraseSavedBackObjects=1
1000
RemoveLockAfterSave=1
1000
CreateHistoryFileOfChanges=0
1000
CreateBackupFileOfSourceDwg=1
1000
DontAddObjectsToSaveSet=0
1000
MarkObjectsForEditingWithoutPrompting=0
1000
FdoDontAddObjsToSvSet=0
1000
FdoEditWithoutPrompt=1
1000
FdoRemUnusedGrps=1
1000
FdoEraseSvdBkObjs=1
1000
FdoRemoveLockOnSave=1
1000
FdoTesselationMaxPointsDistance=0
1000
FdoTesselationMaxCurvesDistance=0
1000
[Coordinate Transformation]
1000
RestoreLastActiveDwgsOnStartup=1
1000
ActivateDwgsOnAttach=1
1000
AdjustSizesAndScalesForChangesInUnits=1
1000
AdjustRotationsForMapDistortions=1
1000
AdjustSizesAndScalesForMapDistortions=1
1000
AdjustElevations=1
1000
AdjustZeroRotationObjects=1
1000
ReconnectDbOnWSOpen=1
1000
NoOfSQLConditionsInHistory=10
  0
SUN
  5
217
330
94
100
AcDbSun
 90
        1
290
     1
 63
     7
421
 16777215
 40
1.0
291
     1
 91
  2458230
 92
 36000000
292
     0
 70
     0
 71
   256
280
     1
1001
ACAD
1000
AcDbSavedByObjectVersion
1070
     0
1000
AcDbSavedByObjectVersion
1070
     0
1000
AcDbSavedByObjectVersion
1070
     0
1000
AcDbSavedByObjectVersion
1070
     0
1000
AcDbSavedByObjectVersion
1070
     0
  0
DICTIONARY
  5
18E
330
2
100
AcDbDictionary
280
     1
281
     1
  3
ACAD_LAYERSTATES
360
18F
  0
DICTIONARY
  5
E6
330
10
100
AcDbDictionary
280
     1
281
     1
  0
DICTIONARY
  5
15D
330
1F
100
AcDbDictionary
280
     1
281
     1
  3
ACAD_SORTENTS
360
214
  0
XRECORD
  5
1A5
102
{ACAD_REACTORS
330
C
102
}
330
C
100
AcDbXrecord
280
     1
300
MAP
300
2019
300
87091MAP_2019_0F
  0
DICTIONARY
  5
73
102
{ACAD_REACTORS
330
C
102
}
330
C
100
AcDbDictionary
281
     1
  0
DICTIONARY
  5
1AB
102
{ACAD_REACTORS
330
C
102
}
330
C
100
AcDbDictionary
281
     1
  3
Imperial24
350
1AC
  3
Metric50
350
239
  0
DICTIONARY
  5
D
102
{ACAD_REACTORS
330
C
102
}
330
C
100
AcDbDictionary
281
     1
  0
DICTIONARY
  5
1A
102
{ACAD_REACTORS
330
C
102
}
330
C
100
AcDbDictionary
281
     1
  3
Layout1
350
59
  3
Layout2
350
5E
  3
Model
350
22
  0
DICTIONARY
  5
72
102
{ACAD_REACTORS
330
C
102
}
330
C
100
AcDbDictionary
281
     1
  3
ByBlock
350
97
  3
ByLayer
350
96
  3
Global
350
98
  0
DICTIONARY
  5
D7
102
{ACAD_REACTORS
330
C
102
}
330
C
100
AcDbDictionary
281
     1
  3
Beschriftung
350
E5
  3
Standard
350
D8
  0
DICTIONARY
  5
17
102
{ACAD_REACTORS
330
C
102
}
330
C
100
AcDbDictionary
281
     1
  3
Standard
350
18
  0
DICTIONARY
  5
19
102
{ACAD_REACTORS
330
C
102
}
330
C
100
AcDbDictionary
281
     1
  0
ACDBDICTIONARYWDFLT
  5
E
102
{ACAD_REACTORS
330
C
102
}
330
C
100
AcDbDictionary
281
     1
  3
Normal
350
F
100
AcDbDictionaryWithDefault
340
F
  0
DICTIONARY
  5
B6
102
{ACAD_REACTORS
330
C
102
}
330
C
100
AcDbDictionary
281
     1
  3
A0
350
B7
  3
A1
350
124
  3
A2
350
125
  3
A3
350
126
  3
A4
350
127
  3
A5
350
128
  3
A6
350
129
  3
A7
350
12A
  3
A8
350
12B
  3
A9
350
12C
  3
B0
350
12D
  3
B1
350
12E
  3
B2
350
12F
  3
B3
350
130
  3
B4
350
131
  3
B5
350
132
  3
B6
350
133
  3
B7
350
134
  3
B8
350
135
  3
B9
350
136
  3
C0
350
137
  3
C1
350
138
  3
C2
350
139
  3
C3
350
13A
  3
C4
350
13B
  3
C5
350
13C
  3
C6
350
13D
  3
C7
350
13E
  3
C8
350
13F
  3
C9
350
140
  3
D0
350
141
  3
D1
350
142
  3
D2
350
143
  0
DICTIONARY
  5
1A8
102
{ACAD_REACTORS
330
C
102
}
330
C
100
AcDbDictionary
281
     1
  3
Imperial24
350
1AA
  3
Metric50
350
238
  0
DICTIONARY
  5
86
102
{ACAD_REACTORS
330
C
102
}
330
C
100
AcDbDictionary
281
     1
  3
Legend
350
20D
  3
Standard
350
87
  0
DICTIONARY
  5
99
102
{ACAD_REACTORS
330
C
102
}
330
C
100
AcDbDictionary
281
     1
  3
2dWireframe
350
9F
  3
Basic
350
9E
  3
Brighten
350
A5
  3
ColorChange
350
A9
  3
Conceptual
350
A2
  3
Dim
350
A4
  3
EdgeColorOff
350
175
  3
Facepattern
350
A8
  3
Flat
350
9A
  3
FlatWithEdges
350
9B
  3
Gouraud
350
9C
  3
GouraudWithEdges
350
9D
  3
Hidden
350
A1
  3
JitterOff
350
173
  3
Linepattern
350
A7
  3
OverhangOff
350
174
  3
Realistic
350
A3
  3
Shaded
350
182
  3
Shaded with edges
350
181
  3
Shades of Gray
350
17E
  3
Sketchy
350
17F
  3
Thicken
350
A6
  3
Wireframe
350
A0
  3
X-Ray
350
180
  0
XRECORD
  5
AC0
102
{ACAD_REACTORS
330
C
102
}
330
C
100
AcDbXrecord
280
     1
 90
        1
330
87
330
20D
  0
DICTIONARY
  5
66
102
{ACAD_REACTORS
330
C
102
}
330
C
100
AcDbDictionary
281
     1
  3
CANNOSCALE
350
F0
  3
CMLEADERSTYLE
350
EF
  3
CTABLESTYLE
350
89
  3
CVIEWDETAILSTYLE
350
1B7
  3
CVIEWSECTIONSTYLE
350
1B8
  3
DIMASSOC
350
67
  3
HIDETEXT
350
6B
  3
LAYEREVAL
350
14D
  3
LAYERNOTIFY
350
14E
  0
DICTIONARY
  5
AC6
102
{ACAD_REACTORS
330
C
102
}
330
C
100
AcDbDictionary
281
     1
  3
AcDsRecords
350
AC8
  3
AcDsSchemas
350
AC7
1001
ACAD
1070
     2
  0
XRECORD
  5
344
102
{ACAD_REACTORS
330
C
102
}
330
C
100
AcDbXrecord
280
     1
 90
       13
  0
DICTIONARY
  5
21B
102
{ACAD_REACTORS
330
C
102
}
330
C
100
AcDbDictionary
281
     1
  3
_CurrQry
350
AB6
  0
DICTIONARY
  5
329
102
{ACAD_REACTORS
330
C
102
}
330
C
100
AcDbDictionary
281
     1
  3
ASEBlockHierarchyIndexRecord
350
32A
1001
DCO15
1040
2038290031.0
  0
DICTIONARY
  5
204
102
{ACAD_REACTORS
330
C
102
}
330
C
100
AcDbDictionary
281
     1
  3
AcMapDMStylizedEntities
350
215
  3
AcMapResourceManager
350
209
  3
MAP_DISPLAY_CUSTOMOBJ_REG_TABLE
350
208
  3
MAP_DISPLAY_MANAGEMENT_DICTIONARY
350
205
  3
MAP_DISPLAY_STYLELIBRARY_DICTIONARY
350
206
  3
MAP_RESOURCE_VERSION_MANAGEMENT_DICTIONARY
350
216
1001
MapGWS
1000
C:\ProgramData\Autodesk\Autodesk AutoCAD Map 3D 2019\R23.0\MapCache\B156_Pommer_Nord_StrassenverlaufGWS.xml
  0
IRD_DSC_DICT
  5
348
102
{ACAD_REACTORS
330
C
102
}
330
C
100
AcDbDictionary
281
     1
  3
*A1
350
349
  3
*A2
350
34A
  3
*A3
350
34B
100
CIrdDscDict
1040
0.0
  0
DICTIONARY
  5
18F
102
{ACAD_REACTORS
330
18E
102
}
330
18E
100
AcDbDictionary
281
     1
  0
SORTENTSTABLE
  5
214
102
{ACAD_REACTORS
330
15D
102
}
330
15D
100
AcDbSortentsTable
330
1F
  0
ACDBDETAILVIEWSTYLE
  5
1AC
102
{ACAD_XDICTIONARY
360
ACB
102
}
102
{ACAD_REACTORS
330
1AB
102
}
330
1AB
100
AcDbModelDocViewStyle
 70
     0
  3
Imperial24
290
     0
100
AcDbDetailViewStyle
 70
     0
 71
     0
 90
        3
 71
     1
340
11
 62
   256
 40
0.24
340
0
 62
   256
 40
0.24
300

 40
0.36
280
     3
 71
     2
340
16
 90
       25
 62
   256
 71
     3
340
11
 62
   256
 40
0.24
 90
        1
 40
0.75
 90
        1
300
%<\AcVar ViewType \f "%tc1">% %<\AcVar ViewDetailId>%\PSCALE %<\AcVar ViewScale \f "%sn">%
 71
     4
340
16
 90
       25
 62
   256
340
16
 90
       25
 62
   256
280
     0
  0
ACDBDETAILVIEWSTYLE
  5
239
102
{ACAD_XDICTIONARY
360
ACF
102
}
102
{ACAD_REACTORS
330
1AB
102
}
330
1AB
100
AcDbModelDocViewStyle
 70
     0
  3
Metric50
290
     0
100
AcDbDetailViewStyle
 70
     0
 71
     0
 90
        3
 71
     1
340
11
 62
   256
 40
5.0
340
0
 62
   256
 40
5.0
300

 40
0.0
280
     1
 71
     2
340
16
 90
       25
 62
   256
 71
     3
340
11
 62
   256
 40
5.0
 90
        0
 40
15.0
 90
        1
300
%<\AcVar ViewDetailId>% (%<\AcVar ViewScale \f "%sn">%)
 71
     4
340
16
 90
       25
 62
   256
340
16
 90
       25
 62
   256
280
     0
  0
LAYOUT
  5
59
102
{ACAD_REACTORS
330
1A
102
}
330
1A
100
AcDbPlotSettings
  1

  2
None
  4

  6

 40
0.0
 41
0.0
 42
0.0
 43
0.0
 44
0.0
 45
0.0
 46
0.0
 47
0.0
 48
0.0
 49
0.0
140
0.0
141
0.0
142
1.0
143
1.0
 70
   688
 72
     0
 73
     0
 74
     5
  7

 75
    16
147
1.0
 76
     0
 77
     2
 78
   300
148
0.0
149
0.0
100
AcDbLayout
  1
Layout1
 70
     1
 71
     1
 10
0.0
 20
0.0
 11
12.0
 21
9.0
 12
0.0
 22
0.0
 32
0.0
 14
0.0
 24
0.0
 34
0.0
 15
0.0
 25
0.0
 35
0.0
146
0.0
 13
0.0
 23
0.0
 33
0.0
 16
1.0
 26
0.0
 36
0.0
 17
0.0
 27
1.0
 37
0.0
 76
     0
330
58
  0
LAYOUT
  5
5E
102
{ACAD_REACTORS
330
1A
102
}
330
1A
100
AcDbPlotSettings
  1

  2
None
  4

  6

 40
0.0
 41
0.0
 42
0.0
 43
0.0
 44
0.0
 45
0.0
 46
0.0
 47
0.0
 48
0.0
 49
0.0
140
0.0
141
0.0
142
1.0
143
1.0
 70
   688
 72
     0
 73
     0
 74
     5
  7

 75
    16
147
1.0
 76
     0
 77
     2
 78
   300
148
0.0
149
0.0
100
AcDbLayout
  1
Layout2
 70
     1
 71
     2
 10
0.0
 20
0.0
 11
12.0
 21
9.0
 12
0.0
 22
0.0
 32
0.0
 14
0.0
 24
0.0
 34
0.0
 15
0.0
 25
0.0
 35
0.0
146
0.0
 13
0.0
 23
0.0
 33
0.0
 16
1.0
 26
0.0
 36
0.0
 17
0.0
 27
1.0
 37
0.0
 76
     0
330
5D
  0
LAYOUT
  5
22
102
{ACAD_XDICTIONARY
360
194
102
}
102
{ACAD_REACTORS
330
1A
102
}
330
1A
100
AcDbPlotSettings
  1

  2
none_device
  4
ANSI_A_(8.50_x_11.00_Inches)
  6

 40
6.349999904632567
 41
19.04999923706055
 42
6.350006103515625
 43
19.04998779296875
 44
215.8999938964844
 45
279.3999938964844
 46
0.0
 47
0.0
 48
0.0
 49
0.0
140
0.0
141
0.0
142
1.0
143
2.584895464708373
 70
 11952
 72
     0
 73
     1
 74
     0
  7

 75
     0
147
0.3868628397755418
 76
     0
 77
     2
 78
   300
148
0.0
149
0.0
100
AcDbLayout
  1
Model
 70
     1
 71
     0
 10
0.0
 20
0.0
 11
12.0
 21
9.0
 12
0.0
 22
0.0
 32
0.0
 14
0.0
 24
0.0
 34
0.0
 15
0.0
 25
0.0
 35
0.0
146
0.0
 13
0.0
 23
0.0
 33
0.0
 16
1.0
 26
0.0
 36
0.0
 17
0.0
 27
1.0
 37
0.0
 76
     0
330
1F
331
94
  0
MATERIAL
  5
97
102
{ACAD_XDICTIONARY
360
188
102
}
102
{ACAD_REACTORS
330
72
102
}
330
72
100
AcDbMaterial
  1
ByBlock
 94
       63
  0
MATERIAL
  5
96
102
{ACAD_XDICTIONARY
360
186
102
}
102
{ACAD_REACTORS
330
72
102
}
330
72
100
AcDbMaterial
  1
ByLayer
 94
       63
  0
MATERIAL
  5
98
102
{ACAD_XDICTIONARY
360
110
102
}
102
{ACAD_REACTORS
330
72
102
}
330
72
100
AcDbMaterial
  1
Global
 43
0.0208000000566244
 43
0.0
 43
0.0
 43
0.0
 43
0.0
 43
0.0208000000566244
 43
0.0
 43
0.0
 43
0.0
 43
0.0
 43
1.0
 43
0.0
 43
0.0
 43
0.0
 43
0.0
 43
1.0
 49
0.0208000000566244
 49
0.0
 49
0.0
 49
0.0
 49
0.0
 49
0.0208000000566244
 49
0.0
 49
0.0
 49
0.0
 49
0.0
 49
1.0
 49
0.0
 49
0.0
 49
0.0
 49
0.0
 49
1.0
142
0.0208000000566244
142
0.0
142
0.0
142
0.0
142
0.0
142
0.0208000000566244
142
0.0
142
0.0
142
0.0
142
0.0
142
1.0
142
0.0
142
0.0
142
0.0
142
0.0
142
1.0
144
0.0208000000566244
144
0.0
144
0.0
144
0.0
144
0.0
144
0.0208000000566244
144
0.0
144
0.0
144
0.0
144
0.0
144
1.0
144
0.0
144
0.0
144
0.0
144
0.0
144
1.0
 94
       63
1001
ACAD
1070
    -1
1070
     3
1070
     0
1000

1071
        0
1070
     0
  0
MLEADERSTYLE
  5
E5
102
{ACAD_REACTORS
330
D7
102
}
330
D7
100
AcDbMLeaderStyle
179
     2
170
     2
171
     1
172
     0
 90
        2
 40
0.0
 41
0.0
173
     1
 91
-1056964608
340
14
 92
       -2
290
     1
 42
0.09
291
     1
 43
0.36
  3
Standard
 44
0.18
300

342
11
174
     1
178
     1
175
     1
176
     0
 93
-1056964608
 45
0.18
292
     0
297
     0
 46
0.18
 94
-1056964608
 47
1.0
 49
1.0
140
1.0
293
     1
141
0.0
294
     1
177
     0
142
1.0
295
     0
296
     1
143
0.125
271
     0
272
     9
273
     9
298
     0
  0
MLEADERSTYLE
  5
D8
102
{ACAD_REACTORS
330
D7
102
}
330
D7
100
AcDbMLeaderStyle
179
     2
170
     2
171
     1
172
     0
 90
        2
 40
0.0
 41
0.0
173
     1
 91
-1056964608
340
14
 92
       -2
290
     1
 42
0.09
291
     1
 43
0.36
  3
Standard
 44
0.18
300

342
11
174
     1
178
     1
175
     1
176
     0
 93
-1056964608
 45
0.18
292
     0
297
     0
 46
0.18
 94
-1056964608
 47
1.0
 49
1.0
140
1.0
293
     1
141
0.0
294
     1
177
     0
142
1.0
295
     0
296
     0
143
0.125
271
     0
272
     9
273
     9
298
     0
  0
MLINESTYLE
  5
18
102
{ACAD_REACTORS
330
17
102
}
330
17
100
AcDbMlineStyle
  2
STANDARD
 70
     0
  3

 62
   256
 51
90.0
 52
90.0
 71
     2
 49
0.5
 62
   256
  6
BYLAYER
 49
-0.5
 62
   256
  6
BYLAYER
  0
ACDBPLACEHOLDER
  5
F
102
{ACAD_REACTORS
330
E
102
}
330
E
  0
SCALE
  5
B7
102
{ACAD_REACTORS
330
B6
102
}
330
B6
100
AcDbScale
 70
     0
300
1:1
140
1.0
141
1.0
290
     1
  0
SCALE
  5
124
102
{ACAD_REACTORS
330
B6
102
}
330
B6
100
AcDbScale
 70
     0
300
1:2
140
1.0
141
2.0
290
     0
  0
SCALE
  5
125
102
{ACAD_REACTORS
330
B6
102
}
330
B6
100
AcDbScale
 70
     0
300
1:4
140
1.0
141
4.0
290
     0
  0
SCALE
  5
126
102
{ACAD_REACTORS
330
B6
102
}
330
B6
100
AcDbScale
 70
     0
300
1:5
140
1.0
141
5.0
290
     0
  0
SCALE
  5
127
102
{ACAD_REACTORS
330
B6
102
}
330
B6
100
AcDbScale
 70
     0
300
1:8
140
1.0
141
8.0
290
     0
  0
SCALE
  5
128
102
{ACAD_REACTORS
330
B6
102
}
330
B6
100
AcDbScale
 70
     0
300
1:10
140
1.0
141
10.0
290
     0
  0
SCALE
  5
129
102
{ACAD_REACTORS
330
B6
102
}
330
B6
100
AcDbScale
 70
     0
300
1:16
140
1.0
141
16.0
290
     0
  0
SCALE
  5
12A
102
{ACAD_REACTORS
330
B6
102
}
330
B6
100
AcDbScale
 70
     0
300
1:20
140
1.0
141
20.0
290
     0
  0
SCALE
  5
12B
102
{ACAD_REACTORS
330
B6
102
}
330
B6
100
AcDbScale
 70
     0
300
1:30
140
1.0
141
30.0
290
     0
  0
SCALE
  5
12C
102
{ACAD_REACTORS
330
B6
102
}
330
B6
100
AcDbScale
 70
     0
300
1:40
140
1.0
141
40.0
290
     0
  0
SCALE
  5
12D
102
{ACAD_REACTORS
330
B6
102
}
330
B6
100
AcDbScale
 70
     0
300
1:50
140
1.0
141
50.0
290
     0
  0
SCALE
  5
12E
102
{ACAD_REACTORS
330
B6
102
}
330
B6
100
AcDbScale
 70
     0
300
1:100
140
1.0
141
100.0
290
     0
  0
SCALE
  5
12F
102
{ACAD_REACTORS
330
B6
102
}
330
B6
100
AcDbScale
 70
     0
300
2:1
140
2.0
141
1.0
290
     0
  0
SCALE
  5
130
102
{ACAD_REACTORS
330
B6
102
}
330
B6
100
AcDbScale
 70
     0
300
4:1
140
4.0
141
1.0
290
     0
  0
SCALE
  5
131
102
{ACAD_REACTORS
330
B6
102
}
330
B6
100
AcDbScale
 70
     0
300
8:1
140
8.0
141
1.0
290
     0
  0
SCALE
  5
132
102
{ACAD_REACTORS
330
B6
102
}
330
B6
100
AcDbScale
 70
     0
300
10:1
140
10.0
141
1.0
290
     0
  0
SCALE
  5
133
102
{ACAD_REACTORS
330
B6
102
}
330
B6
100
AcDbScale
 70
     0
300
100:1
140
100.0
141
1.0
290
     0
  0
SCALE
  5
134
102
{ACAD_REACTORS
330
B6
102
}
330
B6
100
AcDbScale
 70
     0
300
1/128" = 1'-0"
140
0.0078125
141
12.0
290
     0
  0
SCALE
  5
135
102
{ACAD_REACTORS
330
B6
102
}
330
B6
100
AcDbScale
 70
     0
300
1/64" = 1'-0"
140
0.015625
141
12.0
290
     0
  0
SCALE
  5
136
102
{ACAD_REACTORS
330
B6
102
}
330
B6
100
AcDbScale
 70
     0
300
1/32" = 1'-0"
140
0.03125
141
12.0
290
     0
  0
SCALE
  5
137
102
{ACAD_REACTORS
330
B6
102
}
330
B6
100
AcDbScale
 70
     0
300
1/16" = 1'-0"
140
0.0625
141
12.0
290
     0
  0
SCALE
  5
138
102
{ACAD_REACTORS
330
B6
102
}
330
B6
100
AcDbScale
 70
     0
300
3/32" = 1'-0"
140
0.09375
141
12.0
290
     0
  0
SCALE
  5
139
102
{ACAD_REACTORS
330
B6
102
}
330
B6
100
AcDbScale
 70
     0
300
1/8" = 1'-0"
140
0.125
141
12.0
290
     0
  0
SCALE
  5
13A
102
{ACAD_REACTORS
330
B6
102
}
330
B6
100
AcDbScale
 70
     0
300
3/16" = 1'-0"
140
0.1875
141
12.0
290
     0
  0
SCALE
  5
13B
102
{ACAD_REACTORS
330
B6
102
}
330
B6
100
AcDbScale
 70
     0
300
1/4" = 1'-0"
140
0.25
141
12.0
290
     0
  0
SCALE
  5
13C
102
{ACAD_REACTORS
330
B6
102
}
330
B6
100
AcDbScale
 70
     0
300
3/8" = 1'-0"
140
0.375
141
12.0
290
     0
  0
SCALE
  5
13D
102
{ACAD_REACTORS
330
B6
102
}
330
B6
100
AcDbScale
 70
     0
300
1/2" = 1'-0"
140
0.5
141
12.0
290
     0
  0
SCALE
  5
13E
102
{ACAD_REACTORS
330
B6
102
}
330
B6
100
AcDbScale
 70
     0
300
3/4" = 1'-0"
140
0.75
141
12.0
290
     0
  0
SCALE
  5
13F
102
{ACAD_REACTORS
330
B6
102
}
330
B6
100
AcDbScale
 70
     0
300
1" = 1'-0"
140
1.0
141
12.0
290
     0
  0
SCALE
  5
140
102
{ACAD_REACTORS
330
B6
102
}
330
B6
100
AcDbScale
 70
     0
300
1-1/2" = 1'-0"
140
1.5
141
12.0
290
     0
  0
SCALE
  5
141
102
{ACAD_REACTORS
330
B6
102
}
330
B6
100
AcDbScale
 70
     0
300
3" = 1'-0"
140
3.0
141
12.0
290
     0
  0
SCALE
  5
142
102
{ACAD_REACTORS
330
B6
102
}
330
B6
100
AcDbScale
 70
     0
300
6" = 1'-0"
140
6.0
141
12.0
290
     0
  0
SCALE
  5
143
102
{ACAD_REACTORS
330
B6
102
}
330
B6
100
AcDbScale
 70
     0
300
1'-0" = 1'-0"
140
12.0
141
12.0
290
     0
  0
ACDBSECTIONVIEWSTYLE
  5
1AA
102
{ACAD_XDICTIONARY
360
AC9
102
}
102
{ACAD_REACTORS
330
1A8
102
}
330
1A8
100
AcDbModelDocViewStyle
 70
     0
  3
Imperial24
290
     0
100
AcDbSectionViewStyle
 70
     0
 71
     0
 90
       78
 71
     1
340
11
 62
   256
 40
0.24
340
0
340
0
 62
   256
 40
0.24
300
I, O, Q, S, X, Z
 40
0.48
 90
        3
 40
0.18
 90
        1
 71
     2
340
16
 90
       25
 62
   256
340
16
 90
       50
 62
   256
 40
0.24
 40
0.0
 40
0.24
 71
     3
340
11
 62
   256
 40
0.24
 90
        1
 40
0.75
 90
        1
300
%<\AcVar ViewType \f "%tc1">% %<\AcVar ViewSectionStartId>%-%<\AcVar ViewSectionEndId>%\PSCALE %<\AcVar ViewScale \f "%sn">%
 71
     4
 62
   256
 62
   257
300
ANSI31
 40
1.0
 90
        0
290
     0
290
     0
 90
        6
 40
0.0
 40
1.570796326794896
 40
0.2617993877991494
 40
1.308996938995747
 40
-0.2617993877991494
 40
1.832595714594044
  0
ACDBSECTIONVIEWSTYLE
  5
238
102
{ACAD_XDICTIONARY
360
ACD
102
}
102
{ACAD_REACTORS
330
1A8
102
}
330
1A8
100
AcDbModelDocViewStyle
 70
     0
  3
Metric50
290
     0
100
AcDbSectionViewStyle
 70
     0
 71
     0
 90
      102
 71
     1
340
11
 62
   256
 40
5.0
340
0
340
0
 62
   256
 40
5.0
300
I, O, Q, S, X, Z
 40
10.0
 90
        0
 40
2.5
 90
        0
 71
     2
340
16
 90
       25
 62
   256
340
16
 90
       50
 62
   256
 40
5.0
 40
2.5
 40
5.0
 71
     3
340
11
 62
   256
 40
5.0
 90
        0
 40
15.0
 90
        1
300
%<\AcVar ViewSectionStartId>%-%<\AcVar ViewSectionEndId>% (%<\AcVar ViewScale \f "%sn">%)
 71
     4
 62
   256
 62
   257
300
ANSI31
 40
1.0
 90
        0
290
     0
290
     0
 90
        6
 40
0.0
 40
1.570796326794896
 40
0.2617993877991494
 40
1.308996938995747
 40
-0.2617993877991494
 40
1.832595714594044
  0
TABLESTYLE
  5
20D
102
{ACAD_XDICTIONARY
360
886
102
}
102
{ACAD_REACTORS
330
86
102
}
330
86
100
AcDbTableStyle
280
     0
  3

 70
     0
 71
     3
 40
0.06
 41
0.06
280
     0
281
     0
  7
Legend
140
0.18
170
     4
 62
     0
 63
     7
283
     0
 90
      512
 91
        0
  1

274
    -2
284
     0
 64
     0
275
    -2
285
     0
 65
     0
276
    -2
286
     0
 66
     0
277
    -2
287
     0
 67
     0
278
    -2
288
     0
 68
     0
279
    -2
289
     0
 69
     0
  7
Legend
140
0.25
170
     5
 62
     0
 63
     7
283
     0
 90
      512
 91
        0
  1

274
    -2
284
     0
 64
     0
275
    -2
285
     0
 65
     0
276
    -2
286
     0
 66
     0
277
    -2
287
     0
 67
     0
278
    -2
288
     0
 68
     0
279
    -2
289
     0
 69
     0
  7
Legend
140
0.18
170
     4
 62
     0
 63
     7
283
     0
 90
      512
 91
        0
  1

274
    -2
284
     0
 64
     0
275
    -2
285
     0
 65
     0
276
    -2
286
     0
 66
     0
277
    -2
287
     0
 67
     0
278
    -2
288
     0
 68
     0
279
    -2
289
     0
 69
     0
  0
TABLESTYLE
  5
87
102
{ACAD_XDICTIONARY
360
104
102
}
102
{ACAD_REACTORS
330
86
102
}
330
86
100
AcDbTableStyle
280
     0
  3
Standard
 70
     0
 71
     0
 40
0.06
 41
0.06
280
     0
281
     0
  7
Standard
140
0.18
170
     2
 62
     0
 63
     7
283
     0
 90
      512
 91
        0
  1

274
    -2
284
     1
 64
     0
275
    -2
285
     1
 65
     0
276
    -2
286
     1
 66
     0
277
    -2
287
     1
 67
     0
278
    -2
288
     1
 68
     0
279
    -2
289
     1
 69
     0
  7
Standard
140
0.25
170
     5
 62
     0
 63
     7
283
     0
 90
      512
 91
        0
  1

274
    -2
284
     1
 64
     0
275
    -2
285
     1
 65
     0
276
    -2
286
     1
 66
     0
277
    -2
287
     1
 67
     0
278
    -2
288
     1
 68
     0
279
    -2
289
     1
 69
     0
  7
Standard
140
0.18
170
     5
 62
     0
 63
     7
283
     0
 90
      512
 91
        0
  1

274
    -2
284
     1
 64
     0
275
    -2
285
     1
 65
     0
276
    -2
286
     1
 66
     0
277
    -2
287
     1
 67
     0
278
    -2
288
     1
 68
     0
279
    -2
289
     1
 69
     0
  0
VISUALSTYLE
  5
9F
102
{ACAD_REACTORS
330
99
102
}
330
99
100
AcDbVisualStyle
  2
2dWireframe
 70
     4
177
     3
291
     0
 70
    58
 90
        0
176
     1
 90
        2
176
     1
 90
        1
176
     1
 90
        0
176
     1
 40
0.6
176
     1
 40
30.0
176
     1
 62
     7
420
 16777215
176
     1
 90
        1
176
     1
 90
        4
176
     1
 62
     7
176
     1
 62
   257
176
     1
 90
        1
176
     1
 90
        1
176
     1
 40
1.0
176
     1
 90
        0
176
     1
 62
   257
176
     1
 40
1.0
176
     1
 90
        1
176
     1
 90
        6
176
     1
 90
        2
176
     1
 62
     7
176
     1
 90
        5
176
     1
 90
        0
176
     1
 90
        0
176
     1
290
     0
176
     1
 90
        1
176
     1
 40
0.0
176
     1
 90
        0
176
     1
290
     1
176
     1
290
     1
176
     1
290
     0
176
     1
290
     0
176
     1
290
     0
176
     1
290
     0
176
     1
290
     0
176
     1
290
     0
176
     1
290
     0
176
     1
 90
       50
176
     1
 40
0.0
176
     1
 40
1.0
176
     1
 90
        0
176
     1
 62
    18
176
     1
 90
       50
176
     1
 90
        3
176
     1
 62
     5
420
      255
176
     1
290
     0
176
     1
 90
       50
176
     1
 90
       50
176
     1
 90
       50
176
     1
290
     0
176
     1
 90
       50
176
     1
 62
   256
176
     0
 40
1.0
176
     0
 90
        2
176
     1
  1
strokes_ogs.tif
176
     1
290
     0
176
     1
 40
1.0
176
     1
 40
1.0
176
     1
1001
ACAD
1000
AcDbSavedByObjectVersion
1070
     0
  0
VISUALSTYLE
  5
9E
102
{ACAD_REACTORS
330
99
102
}
330
99
100
AcDbVisualStyle
  2
Basic
 70
     7
177
     3
291
     1
 70
    58
 90
        1
176
     1
 90
        0
176
     1
 90
        1
176
     1
 90
        0
176
     1
 40
0.6
176
     1
 40
30.0
176
     1
 62
     7
420
 16777215
176
     1
 90
        0
176
     1
 90
        4
176
     1
 62
     7
176
     1
 62
   257
176
     1
 90
        1
176
     1
 90
        1
176
     1
 40
1.0
176
     1
 90
        8
176
     1
 62
     7
176
     1
 40
1.0
176
     1
 90
        1
176
     1
 90
        6
176
     1
 90
        2
176
     1
 62
     7
176
     1
 90
        5
176
     1
 90
        0
176
     1
 90
        0
176
     1
290
     0
176
     1
 90
        1
176
     1
 40
0.0
176
     1
 90
        0
176
     1
290
     0
176
     1
290
     1
176
     1
290
     1
176
     1
290
     0
176
     1
290
     0
176
     1
290
     0
176
     1
290
     0
176
     1
290
     0
176
     1
290
     0
176
     1
 90
       50
176
     1
 40
0.0
176
     1
 40
1.0
176
     1
 90
        0
176
     1
 62
    18
176
     1
 90
       50
176
     1
 90
        3
176
     1
 62
     5
420
      255
176
     1
290
     0
176
     1
 90
       50
176
     1
 90
       50
176
     1
 90
       50
176
     1
290
     0
176
     1
 90
       50
176
     1
 62
   256
176
     0
 40
1.0
176
     0
 90
        2
176
     1
  1
strokes_ogs.tif
176
     1
290
     0
176
     1
 40
1.0
176
     1
 40
1.0
176
     1
1001
ACAD
1000
AcDbSavedByObjectVersion
1070
     0
  0
VISUALSTYLE
  5
A5
102
{ACAD_REACTORS
330
99
102
}
330
99
100
AcDbVisualStyle
  2
Brighten
 70
    12
177
     3
291
     1
 70
    58
 90
        2
176
     1
 90
        2
176
     1
 90
        1
176
     1
 90
        0
176
     1
 40
0.6
176
     1
 40
30.0
176
     1
 62
     7
420
 16777215
176
     1
 90
        1
176
     1
 90
        4
176
     1
 62
     7
176
     1
 62
   257
176
     1
 90
        1
176
     1
 90
        1
176
     1
 40
1.0
176
     1
 90
        8
176
     1
 62
     7
176
     1
 40
1.0
176
     1
 90
        1
176
     1
 90
        6
176
     1
 90
        2
176
     1
 62
     7
176
     1
 90
        5
176
     1
 90
        0
176
     1
 90
        0
176
     1
290
     0
176
     1
 90
        1
176
     1
 40
50.0
176
     1
 90
        0
176
     1
290
     0
176
     1
290
     1
176
     1
290
     1
176
     1
290
     0
176
     1
290
     0
176
     1
290
     0
176
     1
290
     0
176
     1
290
     0
176
     1
290
     0
176
     1
 90
       50
176
     1
 40
0.0
176
     1
 40
1.0
176
     1
 90
        0
176
     1
 62
    18
176
     1
 90
       50
176
     1
 90
        3
176
     1
 62
     5
420
      255
176
     1
290
     0
176
     1
 90
       50
176
     1
 90
       50
176
     1
 90
       50
176
     1
290
     0
176
     1
 90
       50
176
     1
 62
   256
176
     0
 40
1.0
176
     0
 90
        2
176
     1
  1
strokes_ogs.tif
176
     1
290
     0
176
     1
 40
1.0
176
     1
 40
1.0
176
     1
1001
ACAD
1000
AcDbSavedByObjectVersion
1070
     0
  0
VISUALSTYLE
  5
A9
102
{ACAD_REACTORS
330
99
102
}
330
99
100
AcDbVisualStyle
  2
ColorChange
 70
    16
177
     3
291
     1
 70
    58
 90
        2
176
     1
 90
        2
176
     1
 90
        3
176
     1
 90
        0
176
     1
 40
0.6
176
     1
 40
30.0
176
     1
 62
     8
420
  8421504
176
     1
 90
        1
176
     1
 90
        4
176
     1
 62
     7
176
     1
 62
   257
176
     1
 90
        1
176
     1
 90
        1
176
     1
 40
1.0
176
     1
 90
        8
176
     1
 62
     8
420
  8421504
176
     1
 40
1.0
176
     1
 90
        1
176
     1
 90
        6
176
     1
 90
        2
176
     1
 62
     7
176
     1
 90
        5
176
     1
 90
        0
176
     1
 90
        0
176
     1
290
     0
176
     1
 90
        1
176
     1
 40
0.0
176
     1
 90
        0
176
     1
290
     0
176
     1
290
     1
176
     1
290
     1
176
     1
290
     0
176
     1
290
     0
176
     1
290
     0
176
     1
290
     0
176
     1
290
     0
176
     1
290
     0
176
     1
 90
       50
176
     1
 40
0.0
176
     1
 40
1.0
176
     1
 90
        0
176
     1
 62
    18
176
     1
 90
       50
176
     1
 90
        3
176
     1
 62
     5
420
      255
176
     1
290
     0
176
     1
 90
       50
176
     1
 90
       50
176
     1
 90
       50
176
     1
290
     0
176
     1
 90
       50
176
     1
 62
   256
176
     0
 40
1.0
176
     0
 90
        2
176
     1
  1
strokes_ogs.tif
176
     1
290
     0
176
     1
 40
1.0
176
     1
 40
1.0
176
     1
1001
ACAD
1000
AcDbSavedByObjectVersion
1070
     0
  0
VISUALSTYLE
  5
A2
102
{ACAD_REACTORS
330
99
102
}
330
99
100
AcDbVisualStyle
  2
Conceptual
 70
     9
177
     3
291
     0
 70
    58
 90
        3
176
     1
 90
        2
176
     1
 90
        1
176
     1
 90
        0
176
     1
 40
0.6
176
     1
 40
30.0
176
     1
 62
     7
420
 16777215
176
     1
 90
        2
176
     1
 90
        2
176
     1
 62
     7
176
     1
 62
   257
176
     1
 90
        1
176
     1
 90
        1
176
     1
 40
40.0
176
     1
 90
        8
176
     1
 62
     7
176
     1
 40
1.0
176
     1
 90
        1
176
     1
 90
        6
176
     1
 90
        2
176
     1
 62
     7
176
     1
 90
        3
176
     1
 90
        0
176
     1
 90
        0
176
     1
290
     0
176
     1
 90
        1
176
     1
 40
0.0
176
     1
 90
        0
176
     1
290
     0
176
     1
290
     1
176
     1
290
     1
176
     1
290
     0
176
     1
290
     0
176
     1
290
     0
176
     1
290
     0
176
     1
290
     0
176
     1
290
     0
176
     1
 90
       50
176
     1
 40
0.0
176
     1
 40
1.0
176
     1
 90
        0
176
     1
 62
    18
176
     1
 90
       50
176
     1
 90
        3
176
     1
 62
     5
420
      255
176
     1
290
     0
176
     1
 90
       50
176
     1
 90
       50
176
     1
 90
       50
176
     1
290
     0
176
     1
 90
       50
176
     1
 62
   256
176
     0
 40
1.0
176
     0
 90
        2
176
     1
  1
strokes_ogs.tif
176
     1
290
     0
176
     1
 40
1.0
176
     1
 40
1.0
176
     1
1001
ACAD
1000
AcDbSavedByObjectVersion
1070
     0
  0
VISUALSTYLE
  5
A4
102
{ACAD_REACTORS
330
99
102
}
330
99
100
AcDbVisualStyle
  2
Dim
 70
    11
177
     3
291
     1
 70
    58
 90
        2
176
     1
 90
        2
176
     1
 90
        1
176
     1
 90
        0
176
     1
 40
0.6
176
     1
 40
30.0
176
     1
 62
     7
420
 16777215
176
     1
 90
        1
176
     1
 90
        4
176
     1
 62
     7
176
     1
 62
   257
176
     1
 90
        1
176
     1
 90
        1
176
     1
 40
1.0
176
     1
 90
        8
176
     1
 62
     7
176
     1
 40
1.0
176
     1
 90
        1
176
     1
 90
        6
176
     1
 90
        2
176
     1
 62
     7
176
     1
 90
        5
176
     1
 90
        0
176
     1
 90
        0
176
     1
290
     0
176
     1
 90
        1
176
     1
 40
-50.0
176
     1
 90
        0
176
     1
290
     0
176
     1
290
     1
176
     1
290
     1
176
     1
290
     0
176
     1
290
     0
176
     1
290
     0
176
     1
290
     0
176
     1
290
     0
176
     1
290
     0
176
     1
 90
       50
176
     1
 40
0.0
176
     1
 40
1.0
176
     1
 90
        0
176
     1
 62
    18
176
     1
 90
       50
176
     1
 90
        3
176
     1
 62
     5
420
      255
176
     1
290
     0
176
     1
 90
       50
176
     1
 90
       50
176
     1
 90
       50
176
     1
290
     0
176
     1
 90
       50
176
     1
 62
   256
176
     0
 40
1.0
176
     0
 90
        2
176
     1
  1
strokes_ogs.tif
176
     1
290
     0
176
     1
 40
1.0
176
     1
 40
1.0
176
     1
1001
ACAD
1000
AcDbSavedByObjectVersion
1070
     0
  0
VISUALSTYLE
  5
175
102
{ACAD_REACTORS
330
99
102
}
330
99
100
AcDbVisualStyle
  2
EdgeColorOff
 70
    22
177
     3
291
     1
 70
    58
 90
        2
176
     0
 90
        2
176
     0
 90
        0
176
     0
 90
        0
176
     0
 40
0.6
176
     0
 40
30.0
176
     0
 62
     7
420
 16777215
176
     0
 90
        1
176
     0
 90
        4
176
     0
 62
     7
176
     0
 62
   257
176
     0
 90
        1
176
     0
 90
        1
176
     0
 40
1.0
176
     0
 90
        8
176
     2
 62
     7
176
     0
 40
1.0
176
     0
 90
        1
176
     0
 90
        6
176
     0
 90
        2
176
     0
 62
     7
176
     0
 90
        5
176
     0
 90
        0
176
     0
 90
        0
176
     0
290
     0
176
     0
 90
        1
176
     0
 40
0.0
176
     0
 90
        0
176
     0
290
     0
176
     1
290
     1
176
     1
290
     1
176
     1
290
     0
176
     1
290
     0
176
     1
290
     0
176
     1
290
     0
176
     1
290
     0
176
     1
290
     0
176
     1
 90
       50
176
     1
 40
0.0
176
     1
 40
1.0
176
     1
 90
        0
176
     1
 62
    18
176
     1
 90
       50
176
     1
 90
        3
176
     1
 62
     5
420
      255
176
     1
290
     0
176
     1
 90
       50
176
     1
 90
       50
176
     1
 90
       50
176
     1
290
     0
176
     1
 90
       50
176
     1
 62
   256
176
     0
 40
1.0
176
     0
 90
        2
176
     1
  1
strokes_ogs.tif
176
     1
290
     0
176
     1
 40
1.0
176
     1
 40
1.0
176
     1
1001
ACAD
1000
AcDbSavedByObjectVersion
1070
     0
  0
VISUALSTYLE
  5
A8
102
{ACAD_REACTORS
330
99
102
}
330
99
100
AcDbVisualStyle
  2
Facepattern
 70
    15
177
     3
291
     1
 70
    58
 90
        2
176
     1
 90
        2
176
     1
 90
        1
176
     1
 90
        0
176
     1
 40
0.6
176
     1
 40
30.0
176
     1
 62
     7
420
 16777215
176
     1
 90
        1
176
     1
 90
        4
176
     1
 62
     7
176
     1
 62
   257
176
     1
 90
        1
176
     1
 90
        1
176
     1
 40
1.0
176
     1
 90
        8
176
     1
 62
     7
176
     1
 40
1.0
176
     1
 90
        1
176
     1
 90
        6
176
     1
 90
        2
176
     1
 62
     7
176
     1
 90
        5
176
     1
 90
        0
176
     1
 90
        0
176
     1
290
     0
176
     1
 90
        1
176
     1
 40
0.0
176
     1
 90
        0
176
     1
290
     0
176
     1
290
     1
176
     1
290
     1
176
     1
290
     0
176
     1
290
     0
176
     1
290
     0
176
     1
290
     0
176
     1
290
     0
176
     1
290
     0
176
     1
 90
       50
176
     1
 40
0.0
176
     1
 40
1.0
176
     1
 90
        0
176
     1
 62
    18
176
     1
 90
       50
176
     1
 90
        3
176
     1
 62
     5
420
      255
176
     1
290
     0
176
     1
 90
       50
176
     1
 90
       50
176
     1
 90
       50
176
     1
290
     0
176
     1
 90
       50
176
     1
 62
   256
176
     0
 40
1.0
176
     0
 90
        2
176
     1
  1
strokes_ogs.tif
176
     1
290
     0
176
     1
 40
1.0
176
     1
 40
1.0
176
     1
1001
ACAD
1000
AcDbSavedByObjectVersion
1070
     0
  0
VISUALSTYLE
  5
9A
102
{ACAD_REACTORS
330
99
102
}
330
99
100
AcDbVisualStyle
  2
Flat
 70
     0
177
     3
291
     1
 70
    58
 90
        2
176
     1
 90
        1
176
     1
 90
        1
176
     1
 90
        2
176
     1
 40
0.6
176
     1
 40
30.0
176
     1
 62
     7
420
 16777215
176
     1
 90
        0
176
     1
 90
        0
176
     1
 62
     7
176
     1
 62
   257
176
     1
 90
        1
176
     1
 90
        1
176
     1
 40
1.0
176
     1
 90
        8
176
     1
 62
     7
176
     1
 40
1.0
176
     1
 90
        1
176
     1
 90
        6
176
     1
 90
        2
176
     1
 62
     7
176
     1
 90
        5
176
     1
 90
        0
176
     1
 90
        0
176
     1
290
     0
176
     1
 90
       13
176
     1
 40
0.0
176
     1
 90
        0
176
     1
290
     0
176
     1
290
     1
176
     1
290
     1
176
     1
290
     0
176
     1
290
     0
176
     1
290
     0
176
     1
290
     0
176
     1
290
     0
176
     1
290
     0
176
     1
 90
       50
176
     1
 40
0.0
176
     1
 40
1.0
176
     1
 90
        0
176
     1
 62
    18
176
     1
 90
       50
176
     1
 90
        3
176
     1
 62
     5
420
      255
176
     1
290
     0
176
     1
 90
       50
176
     1
 90
       50
176
     1
 90
       50
176
     1
290
     0
176
     1
 90
       50
176
     1
 62
   256
176
     0
 40
1.0
176
     0
 90
        2
176
     1
  1
strokes_ogs.tif
176
     1
290
     0
176
     1
 40
1.0
176
     1
 40
1.0
176
     1
1001
ACAD
1000
AcDbSavedByObjectVersion
1070
     0
  0
VISUALSTYLE
  5
9B
102
{ACAD_REACTORS
330
99
102
}
330
99
100
AcDbVisualStyle
  2
FlatWithEdges
 70
     1
177
     3
291
     1
 70
    58
 90
        2
176
     1
 90
        1
176
     1
 90
        1
176
     1
 90
        2
176
     1
 40
0.6
176
     1
 40
30.0
176
     1
 62
     7
420
 16777215
176
     1
 90
        1
176
     1
 90
        0
176
     1
 62
     7
176
     1
 62
   257
176
     1
 90
        1
176
     1
 90
        1
176
     1
 40
1.0
176
     1
 90
        0
176
     1
 62
   257
176
     1
 40
1.0
176
     1
 90
        1
176
     1
 90
        6
176
     1
 90
        2
176
     1
 62
     7
176
     1
 90
        5
176
     1
 90
        0
176
     1
 90
        0
176
     1
290
     0
176
     1
 90
       13
176
     1
 40
0.0
176
     1
 90
        0
176
     1
290
     0
176
     1
290
     1
176
     1
290
     1
176
     1
290
     0
176
     1
290
     0
176
     1
290
     0
176
     1
290
     0
176
     1
290
     0
176
     1
290
     0
176
     1
 90
       50
176
     1
 40
0.0
176
     1
 40
1.0
176
     1
 90
        0
176
     1
 62
    18
176
     1
 90
       50
176
     1
 90
        3
176
     1
 62
     5
420
      255
176
     1
290
     0
176
     1
 90
       50
176
     1
 90
       50
176
     1
 90
       50
176
     1
290
     0
176
     1
 90
       50
176
     1
 62
   256
176
     0
 40
1.0
176
     0
 90
        2
176
     1
  1
strokes_ogs.tif
176
     1
290
     0
176
     1
 40
1.0
176
     1
 40
1.0
176
     1
1001
ACAD
1000
AcDbSavedByObjectVersion
1070
     0
  0
VISUALSTYLE
  5
9C
102
{ACAD_REACTORS
330
99
102
}
330
99
100
AcDbVisualStyle
  2
Gouraud
 70
     2
177
     3
291
     1
 70
    58
 90
        2
176
     1
 90
        2
176
     1
 90
        1
176
     1
 90
        2
176
     1
 40
0.6
176
     1
 40
30.0
176
     1
 62
     7
420
 16777215
176
     1
 90
        0
176
     1
 90
        0
176
     1
 62
     7
176
     1
 62
   257
176
     1
 90
        1
176
     1
 90
        1
176
     1
 40
1.0
176
     1
 90
        0
176
     1
 62
     7
176
     1
 40
1.0
176
     1
 90
        1
176
     1
 90
        6
176
     1
 90
        2
176
     1
 62
     7
176
     1
 90
        5
176
     1
 90
        0
176
     1
 90
        0
176
     1
290
     0
176
     1
 90
       13
176
     1
 40
0.0
176
     1
 90
        0
176
     1
290
     0
176
     1
290
     1
176
     1
290
     1
176
     1
290
     0
176
     1
290
     0
176
     1
290
     0
176
     1
290
     0
176
     1
290
     0
176
     1
290
     0
176
     1
 90
       50
176
     1
 40
0.0
176
     1
 40
1.0
176
     1
 90
        0
176
     1
 62
    18
176
     1
 90
       50
176
     1
 90
        3
176
     1
 62
     5
420
      255
176
     1
290
     0
176
     1
 90
       50
176
     1
 90
       50
176
     1
 90
       50
176
     1
290
     0
176
     1
 90
       50
176
     1
 62
   256
176
     0
 40
1.0
176
     0
 90
        2
176
     1
  1
strokes_ogs.tif
176
     1
290
     0
176
     1
 40
1.0
176
     1
 40
1.0
176
     1
1001
ACAD
1000
AcDbSavedByObjectVersion
1070
     0
  0
VISUALSTYLE
  5
9D
102
{ACAD_REACTORS
330
99
102
}
330
99
100
AcDbVisualStyle
  2
GouraudWithEdges
 70
     3
177
     3
291
     1
 70
    58
 90
        2
176
     1
 90
        2
176
     1
 90
        1
176
     1
 90
        2
176
     1
 40
0.6
176
     1
 40
30.0
176
     1
 62
     7
420
 16777215
176
     1
 90
        1
176
     1
 90
        0
176
     1
 62
     7
176
     1
 62
   257
176
     1
 90
        1
176
     1
 90
        1
176
     1
 40
1.0
176
     1
 90
        0
176
     1
 62
   257
176
     1
 40
1.0
176
     1
 90
        1
176
     1
 90
        6
176
     1
 90
        2
176
     1
 62
     7
176
     1
 90
        5
176
     1
 90
        0
176
     1
 90
        0
176
     1
290
     0
176
     1
 90
       13
176
     1
 40
0.0
176
     1
 90
        0
176
     1
290
     0
176
     1
290
     1
176
     1
290
     1
176
     1
290
     0
176
     1
290
     0
176
     1
290
     0
176
     1
290
     0
176
     1
290
     0
176
     1
290
     0
176
     1
 90
       50
176
     1
 40
0.0
176
     1
 40
1.0
176
     1
 90
        0
176
     1
 62
    18
176
     1
 90
       50
176
     1
 90
        3
176
     1
 62
     5
420
      255
176
     1
290
     0
176
     1
 90
       50
176
     1
 90
       50
176
     1
 90
       50
176
     1
290
     0
176
     1
 90
       50
176
     1
 62
   256
176
     0
 40
1.0
176
     0
 90
        2
176
     1
  1
strokes_ogs.tif
176
     1
290
     0
176
     1
 40
1.0
176
     1
 40
1.0
176
     1
1001
ACAD
1000
AcDbSavedByObjectVersion
1070
     0
  0
VISUALSTYLE
  5
A1
102
{ACAD_REACTORS
330
99
102
}
330
99
100
AcDbVisualStyle
  2
Hidden
 70
     6
177
     3
291
     0
 70
    58
 90
        1
176
     1
 90
        2
176
     1
 90
        2
176
     1
 90
        0
176
     1
 40
0.6
176
     1
 40
30.0
176
     1
 62
     7
420
 16777215
176
     1
 90
        2
176
     1
 90
        2
176
     1
 62
     7
176
     1
 62
   257
176
     1
 90
        2
176
     1
 90
        1
176
     1
 40
40.0
176
     1
 90
        0
176
     1
 62
   257
176
     1
 40
1.0
176
     1
 90
        1
176
     1
 90
        6
176
     1
 90
        2
176
     1
 62
     7
176
     1
 90
        3
176
     1
 90
        0
176
     1
 90
        0
176
     1
290
     0
176
     1
 90
        1
176
     1
 40
0.0
176
     1
 90
        0
176
     1
290
     0
176
     1
290
     1
176
     1
290
     1
176
     1
290
     0
176
     1
290
     0
176
     1
290
     0
176
     1
290
     0
176
     1
290
     0
176
     1
290
     0
176
     1
 90
       50
176
     1
 40
0.0
176
     1
 40
1.0
176
     1
 90
        0
176
     1
 62
    18
176
     1
 90
       50
176
     1
 90
        3
176
     1
 62
     5
420
      255
176
     1
290
     0
176
     1
 90
       50
176
     1
 90
       50
176
     1
 90
       50
176
     1
290
     0
176
     1
 90
       50
176
     1
 62
   256
176
     0
 40
1.0
176
     0
 90
        2
176
     1
  1
strokes_ogs.tif
176
     1
290
     0
176
     1
 40
1.0
176
     1
 40
1.0
176
     1
1001
ACAD
1000
AcDbSavedByObjectVersion
1070
     0
  0
VISUALSTYLE
  5
173
102
{ACAD_REACTORS
330
99
102
}
330
99
100
AcDbVisualStyle
  2
JitterOff
 70
    20
177
     3
291
     1
 70
    58
 90
        2
176
     0
 90
        2
176
     0
 90
        0
176
     0
 90
        0
176
     0
 40
0.6
176
     0
 40
30.0
176
     0
 62
     7
420
 16777215
176
     0
 90
        1
176
     0
 90
        4
176
     0
 62
     7
176
     0
 62
   257
176
     0
 90
        1
176
     0
 90
        1
176
     0
 40
1.0
176
     0
 90
       10
176
     2
 62
     7
176
     0
 40
1.0
176
     0
 90
        1
176
     0
 90
        6
176
     0
 90
        2
176
     0
 62
     7
176
     0
 90
        5
176
     0
 90
        0
176
     0
 90
        0
176
     0
290
     0
176
     0
 90
        1
176
     0
 40
0.0
176
     0
 90
        0
176
     0
290
     0
176
     1
290
     1
176
     1
290
     1
176
     1
290
     0
176
     1
290
     0
176
     1
290
     0
176
     1
290
     0
176
     1
290
     0
176
     1
290
     0
176
     1
 90
       50
176
     1
 40
0.0
176
     1
 40
1.0
176
     1
 90
        0
176
     1
 62
    18
176
     1
 90
       50
176
     1
 90
        3
176
     1
 62
     5
420
      255
176
     1
290
     0
176
     1
 90
       50
176
     1
 90
       50
176
     1
 90
       50
176
     1
290
     0
176
     1
 90
       50
176
     1
 62
   256
176
     0
 40
1.0
176
     0
 90
        2
176
     1
  1
strokes_ogs.tif
176
     1
290
     0
176
     1
 40
1.0
176
     1
 40
1.0
176
     1
1001
ACAD
1000
AcDbSavedByObjectVersion
1070
     0
  0
VISUALSTYLE
  5
A7
102
{ACAD_REACTORS
330
99
102
}
330
99
100
AcDbVisualStyle
  2
Linepattern
 70
    14
177
     3
291
     1
 70
    58
 90
        2
176
     1
 90
        2
176
     1
 90
        1
176
     1
 90
        0
176
     1
 40
0.6
176
     1
 40
30.0
176
     1
 62
     7
420
 16777215
176
     1
 90
        1
176
     1
 90
        4
176
     1
 62
     7
176
     1
 62
   257
176
     1
 90
        7
176
     1
 90
        7
176
     1
 40
1.0
176
     1
 90
        8
176
     1
 62
     7
176
     1
 40
1.0
176
     1
 90
        1
176
     1
 90
        6
176
     1
 90
        2
176
     1
 62
     7
176
     1
 90
        5
176
     1
 90
        0
176
     1
 90
        0
176
     1
290
     0
176
     1
 90
        1
176
     1
 40
0.0
176
     1
 90
        0
176
     1
290
     0
176
     1
290
     1
176
     1
290
     1
176
     1
290
     0
176
     1
290
     0
176
     1
290
     0
176
     1
290
     0
176
     1
290
     0
176
     1
290
     0
176
     1
 90
       50
176
     1
 40
0.0
176
     1
 40
1.0
176
     1
 90
        0
176
     1
 62
    18
176
     1
 90
       50
176
     1
 90
        3
176
     1
 62
     5
420
      255
176
     1
290
     0
176
     1
 90
       50
176
     1
 90
       50
176
     1
 90
       50
176
     1
290
     0
176
     1
 90
       50
176
     1
 62
   256
176
     0
 40
1.0
176
     0
 90
        2
176
     1
  1
strokes_ogs.tif
176
     1
290
     0
176
     1
 40
1.0
176
     1
 40
1.0
176
     1
1001
ACAD
1000
AcDbSavedByObjectVersion
1070
     0
  0
VISUALSTYLE
  5
174
102
{ACAD_REACTORS
330
99
102
}
330
99
100
AcDbVisualStyle
  2
OverhangOff
 70
    21
177
     3
291
     1
 70
    58
 90
        2
176
     0
 90
        2
176
     0
 90
        0
176
     0
 90
        0
176
     0
 40
0.6
176
     0
 40
30.0
176
     0
 62
     7
420
 16777215
176
     0
 90
        1
176
     0
 90
        4
176
     0
 62
     7
176
     0
 62
   257
176
     0
 90
        1
176
     0
 90
        1
176
     0
 40
1.0
176
     0
 90
        9
176
     2
 62
     7
176
     0
 40
1.0
176
     0
 90
        1
176
     0
 90
        6
176
     0
 90
        2
176
     0
 62
     7
176
     0
 90
        5
176
     0
 90
        0
176
     0
 90
        0
176
     0
290
     0
176
     0
 90
        1
176
     0
 40
0.0
176
     0
 90
        0
176
     0
290
     0
176
     1
290
     1
176
     1
290
     1
176
     1
290
     0
176
     1
290
     0
176
     1
290
     0
176
     1
290
     0
176
     1
290
     0
176
     1
290
     0
176
     1
 90
       50
176
     1
 40
0.0
176
     1
 40
1.0
176
     1
 90
        0
176
     1
 62
    18
176
     1
 90
       50
176
     1
 90
        3
176
     1
 62
     5
420
      255
176
     1
290
     0
176
     1
 90
       50
176
     1
 90
       50
176
     1
 90
       50
176
     1
290
     0
176
     1
 90
       50
176
     1
 62
   256
176
     0
 40
1.0
176
     0
 90
        2
176
     1
  1
strokes_ogs.tif
176
     1
290
     0
176
     1
 40
1.0
176
     1
 40
1.0
176
     1
1001
ACAD
1000
AcDbSavedByObjectVersion
1070
     0
  0
VISUALSTYLE
  5
A3
102
{ACAD_REACTORS
330
99
102
}
330
99
100
AcDbVisualStyle
  2
Realistic
 70
     8
177
     3
291
     0
 70
    58
 90
        2
176
     1
 90
        3
176
     1
 90
        0
176
     1
 90
        2
176
     1
 40
0.6
176
     1
 40
30.0
176
     1
 62
     7
420
 16777215
176
     1
 90
        0
176
     1
 90
        0
176
     1
 62
     7
176
     1
 62
   257
176
     1
 90
        1
176
     1
 90
        1
176
     1
 40
1.0
176
     1
 90
        8
176
     1
 62
   257
176
     1
 40
1.0
176
     1
 90
        1
176
     1
 90
        6
176
     1
 90
        2
176
     1
 62
     7
176
     1
 90
        3
176
     1
 90
        0
176
     1
 90
        0
176
     1
290
     0
176
     1
 90
       13
176
     1
 40
0.0
176
     1
 90
        0
176
     1
290
     0
176
     1
290
     1
176
     1
290
     1
176
     1
290
     0
176
     1
290
     0
176
     1
290
     0
176
     1
290
     0
176
     1
290
     0
176
     1
290
     0
176
     1
 90
       50
176
     1
 40
0.0
176
     1
 40
1.0
176
     1
 90
        0
176
     1
 62
    18
176
     1
 90
       50
176
     1
 90
        3
176
     1
 62
     5
420
      255
176
     1
290
     0
176
     1
 90
       50
176
     1
 90
       50
176
     1
 90
       50
176
     1
290
     0
176
     1
 90
       50
176
     1
 62
   256
176
     0
 40
1.0
176
     0
 90
        2
176
     1
  1
strokes_ogs.tif
176
     1
290
     0
176
     1
 40
1.0
176
     1
 40
1.0
176
     1
1001
ACAD
1000
AcDbSavedByObjectVersion
1070
     0
  0
VISUALSTYLE
  5
182
102
{ACAD_REACTORS
330
99
102
}
330
99
100
AcDbVisualStyle
  2
Shaded
 70
    27
177
     3
291
     0
 70
    58
 90
        2
176
     1
 90
        2
176
     1
 90
        1
176
     1
 90
        2
176
     1
 40
0.6
176
     1
 40
30.0
176
     1
 62
     7
420
 16777215
176
     1
 90
        0
176
     1
 90
        4
176
     1
 62
     7
176
     1
 62
   257
176
     1
 90
        1
176
     1
 90
        1
176
     1
 40
1.0
176
     1
 90
        8
176
     1
 62
   257
176
     1
 40
1.0
176
     1
 90
        1
176
     1
 90
        6
176
     1
 90
        2
176
     1
 62
     8
420
  7895160
176
     1
 90
        3
176
     1
 90
        0
176
     1
 90
        0
176
     1
290
     0
176
     1
 90
        5
176
     1
 40
0.0
176
     1
 90
        0
176
     1
290
     0
176
     1
290
     1
176
     1
290
     1
176
     1
290
     0
176
     1
290
     0
176
     1
290
     0
176
     1
290
     0
176
     1
290
     0
176
     1
290
     0
176
     1
 90
       50
176
     1
 40
0.0
176
     1
 40
1.0
176
     1
 90
        0
176
     1
 62
    18
176
     1
 90
       50
176
     1
 90
        3
176
     1
 62
     5
420
      255
176
     1
290
     0
176
     1
 90
       50
176
     1
 90
       50
176
     1
 90
       50
176
     1
290
     0
176
     1
 90
       50
176
     1
 62
   256
176
     0
 40
1.0
176
     0
 90
        2
176
     1
  1
strokes_ogs.tif
176
     1
290
     0
176
     1
 40
1.0
176
     1
 40
1.0
176
     1
1001
ACAD
1000
AcDbSavedByObjectVersion
1070
     0
  0
VISUALSTYLE
  5
181
102
{ACAD_REACTORS
330
99
102
}
330
99
100
AcDbVisualStyle
  2
Shaded with edges
 70
    26
177
     3
291
     0
 70
    58
 90
        2
176
     1
 90
        2
176
     1
 90
        1
176
     1
 90
        2
176
     1
 40
0.6
176
     1
 40
30.0
176
     1
 62
     7
420
 16777215
176
     1
 90
        1
176
     1
 90
        2
176
     1
 62
     7
176
     1
 62
   257
176
     1
 90
        2
176
     1
 90
        1
176
     1
 40
1.0
176
     1
 90
        8
176
     1
 62
   257
176
     1
 40
1.0
176
     1
 90
        1
176
     1
 90
        6
176
     1
 90
        2
176
     1
 62
     7
176
     1
 90
        3
176
     1
 90
        0
176
     1
 90
        0
176
     1
290
     0
176
     1
 90
        5
176
     1
 40
0.0
176
     1
 90
        0
176
     1
290
     0
176
     1
290
     1
176
     1
290
     1
176
     1
290
     0
176
     1
290
     0
176
     1
290
     0
176
     1
290
     0
176
     1
290
     0
176
     1
290
     0
176
     1
 90
       50
176
     1
 40
0.0
176
     1
 40
1.0
176
     1
 90
        0
176
     1
 62
    18
176
     1
 90
       50
176
     1
 90
        3
176
     1
 62
     5
420
      255
176
     1
290
     0
176
     1
 90
       50
176
     1
 90
       50
176
     1
 90
       50
176
     1
290
     0
176
     1
 90
       50
176
     1
 62
   256
176
     0
 40
1.0
176
     0
 90
        2
176
     1
  1
strokes_ogs.tif
176
     1
290
     0
176
     1
 40
1.0
176
     1
 40
1.0
176
     1
1001
ACAD
1000
AcDbSavedByObjectVersion
1070
     0
  0
VISUALSTYLE
  5
17E
102
{ACAD_REACTORS
330
99
102
}
330
99
100
AcDbVisualStyle
  2
Shades of Gray
 70
    23
177
     3
291
     0
 70
    58
 90
        2
176
     1
 90
        2
176
     1
 90
        3
176
     1
 90
        0
176
     1
 40
0.6
176
     1
 40
30.0
176
     1
 62
     7
420
 16777215
176
     1
 90
        2
176
     1
 90
        2
176
     1
 62
     7
176
     1
 62
     7
176
     1
 90
        1
176
     1
 90
        1
176
     1
 40
40.0
176
     1
 90
        8
176
     1
 62
     7
176
     1
 40
1.0
176
     1
 90
        1
176
     1
 90
        6
176
     1
 90
        2
176
     1
 62
     7
176
     1
 90
        3
176
     1
 90
        0
176
     1
 90
        0
176
     1
290
     0
176
     1
 90
        1
176
     1
 40
0.0
176
     1
 90
        0
176
     1
290
     0
176
     1
290
     1
176
     1
290
     1
176
     1
290
     0
176
     1
290
     0
176
     1
290
     0
176
     1
290
     0
176
     1
290
     0
176
     1
290
     0
176
     1
 90
       50
176
     1
 40
0.0
176
     1
 40
1.0
176
     1
 90
        0
176
     1
 62
    18
176
     1
 90
       50
176
     1
 90
        3
176
     1
 62
     5
420
      255
176
     1
290
     0
176
     1
 90
       50
176
     1
 90
       50
176
     1
 90
       50
176
     1
290
     0
176
     1
 90
       50
176
     1
 62
   256
176
     0
 40
1.0
176
     0
 90
        2
176
     1
  1
strokes_ogs.tif
176
     1
290
     0
176
     1
 40
1.0
176
     1
 40
1.0
176
     1
1001
ACAD
1000
AcDbSavedByObjectVersion
1070
     0
  0
VISUALSTYLE
  5
17F
102
{ACAD_REACTORS
330
99
102
}
330
99
100
AcDbVisualStyle
  2
Sketchy
 70
    24
177
     3
291
     0
 70
    58
 90
        1
176
     1
 90
        2
176
     1
 90
        2
176
     1
 90
        0
176
     1
 40
0.6
176
     1
 40
30.0
176
     1
 62
     7
420
 16777215
176
     1
 90
        2
176
     1
 90
        2
176
     1
 62
     7
176
     1
 62
     7
176
     1
 90
        1
176
     1
 90
        1
176
     1
 40
40.0
176
     1
 90
       11
176
     1
 62
     7
176
     1
 40
1.0
176
     1
 90
        1
176
     1
 90
        6
176
     1
 90
        2
176
     1
 62
     7
176
     1
 90
        6
176
     1
 90
        0
176
     1
 90
        0
176
     1
290
     0
176
     1
 90
        1
176
     1
 40
0.0
176
     1
 90
        0
176
     1
290
     0
176
     1
290
     1
176
     1
290
     1
176
     1
290
     0
176
     1
290
     0
176
     1
290
     0
176
     1
290
     0
176
     1
290
     0
176
     1
290
     0
176
     1
 90
       50
176
     1
 40
0.0
176
     1
 40
1.0
176
     1
 90
        0
176
     1
 62
    18
176
     1
 90
       50
176
     1
 90
        3
176
     1
 62
     5
420
      255
176
     1
290
     0
176
     1
 90
       50
176
     1
 90
       50
176
     1
 90
       50
176
     1
290
     0
176
     1
 90
       50
176
     1
 62
   256
176
     0
 40
1.0
176
     0
 90
        2
176
     1
  1
strokes_ogs.tif
176
     1
290
     0
176
     1
 40
1.0
176
     1
 40
1.0
176
     1
1001
ACAD
1000
AcDbSavedByObjectVersion
1070
     0
  0
VISUALSTYLE
  5
A6
102
{ACAD_REACTORS
330
99
102
}
330
99
100
AcDbVisualStyle
  2
Thicken
 70
    13
177
     3
291
     1
 70
    58
 90
        2
176
     1
 90
        2
176
     1
 90
        1
176
     1
 90
        0
176
     1
 40
0.6
176
     1
 40
30.0
176
     1
 62
     7
420
 16777215
176
     1
 90
        1
176
     1
 90
        4
176
     1
 62
     7
176
     1
 62
   257
176
     1
 90
        1
176
     1
 90
        1
176
     1
 40
1.0
176
     1
 90
       12
176
     1
 62
     7
176
     1
 40
1.0
176
     1
 90
        1
176
     1
 90
        6
176
     1
 90
        2
176
     1
 62
     7
176
     1
 90
        5
176
     1
 90
        0
176
     1
 90
        0
176
     1
290
     0
176
     1
 90
        1
176
     1
 40
0.0
176
     1
 90
        0
176
     1
290
     0
176
     1
290
     1
176
     1
290
     1
176
     1
290
     0
176
     1
290
     0
176
     1
290
     0
176
     1
290
     0
176
     1
290
     0
176
     1
290
     0
176
     1
 90
       50
176
     1
 40
0.0
176
     1
 40
1.0
176
     1
 90
        0
176
     1
 62
    18
176
     1
 90
       50
176
     1
 90
        3
176
     1
 62
     5
420
      255
176
     1
290
     0
176
     1
 90
       50
176
     1
 90
       50
176
     1
 90
       50
176
     1
290
     0
176
     1
 90
       50
176
     1
 62
   256
176
     0
 40
1.0
176
     0
 90
        2
176
     1
  1
strokes_ogs.tif
176
     1
290
     0
176
     1
 40
1.0
176
     1
 40
1.0
176
     1
1001
ACAD
1000
AcDbSavedByObjectVersion
1070
     0
  0
VISUALSTYLE
  5
A0
102
{ACAD_REACTORS
330
99
102
}
330
99
100
AcDbVisualStyle
  2
Wireframe
 70
     5
177
     3
291
     0
 70
    58
 90
        0
176
     1
 90
        2
176
     1
 90
        0
176
     1
 90
        0
176
     1
 40
0.6
176
     1
 40
30.0
176
     1
 62
     7
420
 16777215
176
     1
 90
        1
176
     1
 90
        4
176
     1
 62
     7
176
     1
 62
   257
176
     1
 90
        1
176
     1
 90
        1
176
     1
 40
1.0
176
     1
 90
        0
176
     1
 62
   257
176
     1
 40
1.0
176
     1
 90
        1
176
     1
 90
        6
176
     1
 90
        2
176
     1
 62
     7
176
     1
 90
        3
176
     1
 90
        0
176
     1
 90
        0
176
     1
290
     0
176
     1
 90
        1
176
     1
 40
0.0
176
     1
 90
        0
176
     1
290
     0
176
     1
290
     1
176
     1
290
     1
176
     1
290
     0
176
     1
290
     0
176
     1
290
     0
176
     1
290
     0
176
     1
290
     0
176
     1
290
     0
176
     1
 90
       50
176
     1
 40
0.0
176
     1
 40
1.0
176
     1
 90
        0
176
     1
 62
    18
176
     1
 90
       50
176
     1
 90
        3
176
     1
 62
     5
420
      255
176
     1
290
     0
176
     1
 90
       50
176
     1
 90
       50
176
     1
 90
       50
176
     1
290
     0
176
     1
 90
       50
176
     1
 62
   256
176
     0
 40
1.0
176
     0
 90
        2
176
     1
  1
strokes_ogs.tif
176
     1
290
     0
176
     1
 40
1.0
176
     1
 40
1.0
176
     1
1001
ACAD
1000
AcDbSavedByObjectVersion
1070
     0
  0
VISUALSTYLE
  5
180
102
{ACAD_REACTORS
330
99
102
}
330
99
100
AcDbVisualStyle
  2
X-Ray
 70
    25
177
     3
291
     0
 70
    58
 90
        2
176
     1
 90
        2
176
     1
 90
        1
176
     1
 90
        1
176
     1
 40
0.5
176
     1
 40
30.0
176
     1
 62
     7
420
 16777215
176
     1
 90
        1
176
     1
 90
        0
176
     1
 62
     7
176
     1
 62
   257
176
     1
 90
        1
176
     1
 90
        1
176
     1
 40
1.0
176
     1
 90
        8
176
     1
 62
     7
176
     1
 40
1.0
176
     1
 90
        1
176
     1
 90
        6
176
     1
 90
        2
176
     1
 62
     7
176
     1
 90
        3
176
     1
 90
        0
176
     1
 90
        0
176
     1
290
     0
176
     1
 90
       13
176
     1
 40
0.0
176
     1
 90
        0
176
     1
290
     0
176
     1
290
     1
176
     1
290
     1
176
     1
290
     0
176
     1
290
     0
176
     1
290
     0
176
     1
290
     0
176
     1
290
     0
176
     1
290
     0
176
     1
 90
       50
176
     1
 40
0.0
176
     1
 40
1.0
176
     1
 90
        0
176
     1
 62
    18
176
     1
 90
       50
176
     1
 90
        3
176
     1
 62
     5
420
      255
176
     1
290
     0
176
     1
 90
       50
176
     1
 90
       50
176
     1
 90
       50
176
     1
290
     0
176
     1
 90
       50
176
     1
 62
   256
176
     0
 40
1.0
176
     0
 90
        2
176
     1
  1
strokes_ogs.tif
176
     1
290
     0
176
     1
 40
1.0
176
     1
 40
1.0
176
     1
1001
ACAD
1000
AcDbSavedByObjectVersion
1070
     0
  0
DICTIONARYVAR
  5
F0
102
{ACAD_REACTORS
330
66
102
}
330
66
100
DictionaryVariables
280
     0
  1
1:1
  0
DICTIONARYVAR
  5
EF
102
{ACAD_REACTORS
330
66
102
}
330
66
100
DictionaryVariables
280
     0
  1
STANDARD
  0
DICTIONARYVAR
  5
89
102
{ACAD_REACTORS
330
66
102
}
330
66
100
DictionaryVariables
280
     0
  1
STANDARD
  0
DICTIONARYVAR
  5
1B7
102
{ACAD_REACTORS
330
66
102
}
330
66
100
DictionaryVariables
280
     0
  1
Imperial24
  0
DICTIONARYVAR
  5
1B8
102
{ACAD_REACTORS
330
66
102
}
330
66
100
DictionaryVariables
280
     0
  1
Imperial24
  0
DICTIONARYVAR
  5
67
102
{ACAD_REACTORS
330
66
102
}
330
66
100
DictionaryVariables
280
     0
  1
2
  0
DICTIONARYVAR
  5
6B
102
{ACAD_REACTORS
330
66
102
}
330
66
100
DictionaryVariables
280
     0
  1
1
  0
DICTIONARYVAR
  5
14D
102
{ACAD_REACTORS
330
66
102
}
330
66
100
DictionaryVariables
280
     0
  1
0
  0
DICTIONARYVAR
  5
14E
102
{ACAD_REACTORS
330
66
102
}
330
66
100
DictionaryVariables
280
     0
  1
0
  0
DICTIONARY
  5
AC8
102
{ACAD_REACTORS
330
AC6
102
}
330
AC6
100
AcDbDictionary
281
     1
  0
DICTIONARY
  5
AC7
102
{ACAD_REACTORS
330
AC6
102
}
330
AC6
100
AcDbDictionary
281
     1
  3
2424782267280
350
AC1
  3
2424782267296
350
AC2
  3
2424782267312
350
AC3
  3
2424782267328
350
AC4
  3
2424782267344
350
AC5
  0
XRECORD
  5
AB6
102
{ACAD_REACTORS
330
21B
102
}
330
21B
100
AcDbXrecord
280
     1
1000
ADE02C001
1070
     1
1070
     0
1002
{
1002
}
1002
{
1002
}
1002
{
1002
}
1000

  0
XRECORD
  5
32A
102
{ACAD_REACTORS
330
329
102
}
330
329
100
AcDbXrecord
280
     1
  0
DMSTYLIZEDENTITIESTABLE
  5
215
102
{ACAD_REACTORS
330
204
102
}
330
204
100
AcMapDMStylizedEntitiesTable
 70
     1
  0
MAPRESOURCEMANAGEROBJECT
  5
209
102
{ACAD_REACTORS
330
204
102
}
330
204
100
AcMapResourceManager
 70
     1
 90
        0
  0
DATATABLE
  5
208
102
{ACAD_REACTORS
330
204
102
}
330
204
100
AcDbDataTable
 70
     2
 90
        4
 91
       15
  1

 92
        3
  2
OriginalClassName
  3
AcMapDMDefaultStyle
  3
AcMapDMEntityStyle
  3
AcMapDMRasterStyle
  3
AcMapDMSEAnnotationStyle
  3
AcMapDMSEHatchStyle
  3
AcMapDMSETextStyle
  3
AcMapDMThematicStyle
  3
AcMapDMBaseElement
  3
AcMapDMAttachedDwgsQueryElement
  3
AcMapDMFeatureElement
  3
AcMapDMLayerElement
  3
AcMapDMCurrentDwgQueryElement
  3
AcMapDMRasterElement
  3
AcMapDMTopoElement
  3
AcMapDMTopoQueryElement
 92
        3
  2
ProxyDisplayName
  3
Default
  3
Entity
  3
Raster
  3
Annotation
  3
Hatch
  3
Text
  3
Thematic
  3
Map Base
  3
Ade Query
  3
Feature Class
  3
Layer
  3
Ade Project Query
  3
Raster
  3
Topology
  3
Topology Query
 92
        1
  2
CustomObjectType
 93
        2
 93
        2
 93
        2
 93
        2
 93
        2
 93
        2
 93
        2
 93
        1
 93
        1
 93
        1
 93
        1
 93
        1
 93
        1
 93
        1
 93
        1
 92
        1
  2
StyleCoExistanceType
 93
        1
 93
        1
 93
        1
 93
        1
 93
        1
 93
        1
 93
        2
 93
        0
 93
        0
 93
        0
 93
        0
 93
        0
 93
        0
 93
        0
 93
        0
  0
DMMAPMANAGER
  5
205
102
{ACAD_REACTORS
330
204
102
}
330
204
100
AcDbDictionary
281
     1
  3
DisplayMap1
350
20B
100
AcDbDictionaryWithDefault
340
20B
100
AcMapDMMapManager
 70
     1
340
20B
  0
DMSTYLELIBRARY
  5
206
102
{ACAD_REACTORS
330
204
102
}
330
204
100
AcMapDMStyleLibrary
 70
     1
 70
     1
360
207
  0
DICTIONARY
  5
216
102
{ACAD_REACTORS
330
204
102
}
330
204
100
AcDbDictionary
281
     1
  0
IRD_DSC_RECORD
  5
349
102
{ACAD_REACTORS
330
348
102
}
330
348
100
CIrdBaseRecord
1070
   516
1071
        0
1004
0115000043006C0061007300730000004900720064000000000049007200640000005400680065002000620061007300650020007300750070006500720063006C006100730073000000490072006400200043006C0061007300730020005600200031002E0030003200000000000000
100
CIrdDscRecord
1071
     5377
1000
Class-_-Ird
1071
        0
  0
IRD_DSC_RECORD
  5
34A
102
{ACAD_REACTORS
330
348
102
}
330
348
100
CIrdBaseRecord
1070
   516
1071
        0
1004
0116000043006C0061007300730043006800610072000000490072006400000043006C006100730073000000490072006400000054006800650020006300680061007200610063007400650072002000760061006C00750065000000490072006400200043006C0061007300730020005600200031002E0030003200000000
1004
000000
100
CIrdDscRecord
1071
     5633
1000
ClassChar-_-Ird
1071
        0
  0
IRD_DSC_RECORD
  5
34B
102
{ACAD_REACTORS
330
348
102
}
330
348
100
CIrdBaseRecord
1070
   516
1071
        0
1004
013000005300740072006100DF0065006E00620061007500700072006F006A0065006B00740065005F004C0069006E00690065006E000000610064006500000043006C006100730073000000490072006400000000000000010000800000540059005000000043006C00610073007300430068006100720000004900720064
1004
0000000000000000000000
100
CIrdDscRecord
1071
    12289
1000
Straßenbauprojekte_Linien-_-ade
1071
        0
  0
DICTIONARY
  5
ACB
330
1AC
100
AcDbDictionary
280
     1
281
     1
  3
ACAD_XREC_ROUNDTRIP
360
ACC
  0
DICTIONARY
  5
ACF
330
239
100
AcDbDictionary
280
     1
281
     1
  3
ACAD_XREC_ROUNDTRIP
360
AD0
  0
DICTIONARY
  5
194
330
22
100
AcDbDictionary
280
     1
281
     1
  0
DICTIONARY
  5
188
330
97
100
AcDbDictionary
280
     1
281
     1
  3
FBXASSET
360
189
  0
DICTIONARY
  5
186
330
96
100
AcDbDictionary
280
     1
281
     1
  3
FBXASSET
360
187
  0
DICTIONARY
  5
110
330
98
100
AcDbDictionary
280
     1
281
     1
  3
BUMPTILE
360
112
  3
DIFFUSETILE
360
111
  3
FBXASSET
360
18A
  3
OPACITYTILE
360
113
  3
REFLECTIONTILE
360
114
  0
DICTIONARY
  5
AC9
330
1AA
100
AcDbDictionary
280
     1
281
     1
  3
ACAD_XREC_ROUNDTRIP
360
ACA
  0
DICTIONARY
  5
ACD
330
238
100
AcDbDictionary
280
     1
281
     1
  3
ACAD_XREC_ROUNDTRIP
360
ACE
  0
DICTIONARY
  5
886
330
20D
100
AcDbDictionary
280
     1
281
     1
  3
ACAD_ROUNDTRIP_2008_TABLESTYLE_CELLSTYLEMAP
360
ABF
  0
DICTIONARY
  5
104
330
87
100
AcDbDictionary
280
     1
281
     1
  3
ACAD_ROUNDTRIP_2008_TABLESTYLE_CELLSTYLEMAP
360
ABE
  0
XRECORD
  5
AC1
102
{ACAD_REACTORS
330
AC7
102
}
330
AC7
100
AcDbXrecord
280
     1
  1
AcDb_Thumbnail_Schema
102
{ATTRRECORD
341
AC2
  2
AcDbDs::TreatedAsObjectData
280
     1
291
     1
102
ATTRRECORD}
102
{ATTRRECORD
341
AC3
  2
AcDbDs::Legacy
280
     1
291
     1
102
ATTRRECORD}
  2
AcDbDs::ID
280
    10
 91
        8
102
{ATTRRECORD
341
AC4
  2
AcDs:Indexable
280
     1
291
     1
102
ATTRRECORD}
102
{ATTRRECORD
341
AC5
  2
AcDbDs::HandleAttribute
280
     7
282
     1
102
ATTRRECORD}
  2
Thumbnail_Data
280
    15
 91
        0
  0
XRECORD
  5
AC2
102
{ACAD_REACTORS
330
AC7
102
}
330
AC7
100
AcDbXrecord
280
     1
  1
AcDbDs::TreatedAsObjectDataSchema
  2
AcDbDs::TreatedAsObjectData
280
     1
 91
        0
  0
XRECORD
  5
AC3
102
{ACAD_REACTORS
330
AC7
102
}
330
AC7
100
AcDbXrecord
280
     1
  1
AcDbDs::LegacySchema
  2
AcDbDs::Legacy
280
     1
 91
        0
  0
XRECORD
  5
AC4
102
{ACAD_REACTORS
330
AC7
102
}
330
AC7
100
AcDbXrecord
280
     1
  1
AcDbDs::IndexedPropertySchema
  2
AcDs:Indexable
280
     1
 91
        0
  0
XRECORD
  5
AC5
102
{ACAD_REACTORS
330
AC7
102
}
330
AC7
100
AcDbXrecord
280
     1
  1
AcDbDs::HandleAttributeSchema
  2
AcDbDs::HandleAttribute
280
     7
 91
        1
284
     1
  0
DMMAP
  5
20B
102
{ACAD_REACTORS
330
205
330
20E
102
}
330
205
100
AcMapDMMap
 70
     1
  1
Vorgabe
 70
     1
330
0
100
AcMapDMMap
 70
     1
 90
        1
360
20E
 90
        1
 40
1.797693134862314E+99
 70
     1
100
AcMapDMMap
 70
     6
 70
     0
 40
1.797693134862314E+99
290
     1
290
     1
 40
1.0
 40
3.0
  1
Legend
 90
        1
 40
1.797693134862314E+99
  1

 70
     0
 40
1.0
 70
     1
 90
        0
 90
        1
360
20F
 40
196.0313079792409
290
     0
290
     1
 40
1.0
 90
       40
290
     0
290
     1
 40
-25534.06192288444
 40
330615.7097929561
 40
-23143.4254112343
 40
331992.0129343937
  1

290
     1
 40
123.5167496935449
 40
51.4866775483815
  0
DMSTYLECATEGORY
  5
207
102
{ACAD_REACTORS
330
206
102
}
330
206
100
AcMapDMStyleCategory
 70
     1
  1
Anzeigestile
 70
     0
  0
XRECORD
  5
ACC
102
{ACAD_REACTORS
330
ACB
102
}
330
ACB
100
AcDbXrecord
280
     1
102
DISPLAYNAME
  1
Imperial24
102
FLAGS
 90
        0
  0
XRECORD
  5
AD0
102
{ACAD_REACTORS
330
ACF
102
}
330
ACF
100
AcDbXrecord
280
     1
102
DISPLAYNAME
  1
Metric50
102
FLAGS
 90
        0
  0
XRECORD
  5
189
102
{ACAD_REACTORS
330
188
102
}
330
188
100
AcDbXrecord
280
     1
 70
     1
 90
429727718
  1
508B35C9-AEE7-456F-BE74-D52651303AC6
310
504B03040A0000080000B670623B3DEE336E79000000790000001B0000006175746F6465736B2D64657369676E2D7061636B6167652E786D6C3C3F786D6C2076657273696F6E3D22312E302220656E636F64696E673D227574662D3822203F3E3C666F726D6174733E3C666F726D61743E687474703A2F2F736368656D612E
310
6175746F6465736B2E636F6D2F64657369676E2D7061636B6167652F323030393C2F666F726D61743E3C2F666F726D6174733E504B0304140006080800B670623BD486FD9CA0000000F4000000130000005B436F6E74656E745F54797065735D2E786D6C7D8EC10E82300C865F65E91D8A1E8C310C0EEA1BF002731658846E
310
D98AC1B77784ABF1D8FE5FBFBF75BBCE937A534CCEB38643598122B6FEE978D0B0485F9C41B54DDD7D022595594E1A469170414C76A4D9A4D207E29CF43ECE46F218070CC6BECC4078ACAA135ACF422C856C0E68EA1BF5669944DDD7BCDE7B1F8E415D77AECB980613C2E4AC91FC167A2B244592486606FC29C8FD7F045B9A
310
EF7053A7E60B504B0304140006080800B670623B28ED286BEB0000007C01000008000000636F72652E786D6C8D90416EC3201045AF82665B6183218D6D61A254764FD00B204C5C94182C03558F5F9C3852BBEB6A467FFE9B197D71FA9E6FE8CBACC17AD7012D0820E3B41FAD9B3A48F1826B40272956EFE32F1B20A766D3C1
310
268314D3EAD3B24BDABB685CCCAAF3A3D94515828980F42D371D04FD696655A814B3235C8B45E9AB9A4C419F5D8653B2237A1CB163DE672FD6AC209BF3C08E0D1B30EB19C3FC9D72FCC6EB231EFA33EDE96BDD341517E5064B11EDFCBCAF57A3A2194156843498524CAA0FCA5B7268F9E185D42D21A2DCEC7FA0B48CFF8492
310
759155FBBB0F2C80A4F991FB408A72CB22977B50B96EB9C91F504B0304140006080800B670623B55019EA25F0000007C00000007000000636E782E786D6C4DCB3B0E80201045D1AD90E915ED2CF8AC45050C11660C8261F98AB1B07AC9C97D42D718D865D3E909258CFD00CCE24AC6E326A164D74DC0B4128928FF32603847
310
2BA13128B1252AC747C6BAB984FC68F0B87FE8960A5C09FE86CFB69FBA01504B0304140006080800B670623B7BC41AC871010000D40300000C0000006662782F636F72652E786D6CC553ED6E8320147D15C2DF4501B56B6D90A64BBB27D80B50A5CE54C120983EFEAE1F4DD7A56BBA5FF3879273EEE59E7310BE393735EA95
310
ED2AA333CC428A91D2B9292A5D66D8BB63B0C26823B835C67D2BC348CB46657880B1E0A535BE9DA1DC68A7B403549B42CDA0EC3AE530CA6B5864B8CB3F552343E91D5474A7B095F949962A6421D0502778E72C0840D390E18DC5F170E664C205F7BE2A66B62A605A75AC94C522DDEEE3651AEF837817C741F2CE92E02D592D
310
83FD6ECB76EC7595A651C2C9D02CB8AB9A8BBADC2AE954814544691A3016D0E883256BBA58278B17BA5A53CAC9507ED3E4DBE2C9265F691747B3DCA9ADC382819091F8E1162272A8933DE82182932144F88C09DF060D8140C84E1EEA8B8F1340BDCA9DB1093085F157AA97B557309586747CD0EF0B4EA64E983A6E0EAEEFCE
310
889E9EF17847386AA94B30211D2C0FDE0D3AF9A4610EAD5536E8DD1969631B593F67E381C33F5157F17725E5A636F6BF1491F980C8FC7B90E13E8A2F504B0304140006080800B670623B70102A487D0000009D0000000B0000006662782F636E782E786D6C4DCCD10A83201886E15B91FFDC95A5C30335ACCDFB886521330D
310
A76397BF1A1DECE883878F57749FD5A3B74D2F17830472A901D9F088930B8B849267CC01754AA418F3DF0D5018572BE160506249B16C274D761E8BCFBB7A179E27F65CB39A0F14D396184C9921B81F34C3ACA1B4B99ABB6E6F062A25AA5F69DF23ACBE504B0304140006080800B670623B3610CA3329010000120200003100
310
00006662782F42384135303843342D343331462D343546312D424341352D3532343432364645413344462F636F72652E786D6C8D515B6EC32010BC0AE22B55850D0E446E848992B43E412FE000495162B07854397EA176A4F62F3F2C9A9D991D58BEBB8F37F0AD7D30CE76905418026DA553C65E3A98E219B510EC04F7CEC5
310
3F3408EC30EA0E16180A7EF12E4D0B249D8DDAC68C5AA7F4020E21E80881BCE54B0783FCD2E3500D296646B856D320AFC34557A4CAEDCC133C449F0380794839A138B47B86DB2345744D7A44594FD0E1B867883594369BFE63BF7EEF793D0B054FC9A8456E548E63CE46FB674D8A58F068C6477CE9F510B582A2C1F80D1182
310
70F349E816B32D65AFB8DD62CCEB42FF274A937A52948C8DEB66893BCB021484D7734370E5D2E9F608A3EF93F3119479ABA0E50B14B8C298119A43CCC4FCFCECB8A18B6388CEE7EF5D5D4F994BD86CBBA182D76543B9FCAE2FD7B24DF103504B0304140006080800B670623B1B8617914E0100003303000030000000666278
310
2F42384135303843342D343331462D343546312D424341352D3532343432364645413344462F636E782E786D6CD593C16EC32010447F0571AD6CE3D489D20813A9877E410FBD62D82434182CC055F3F75D1292E692438FBD206B7698593D61BEFD1E2DF982108D773D6D6B460938E5B571FB9ECE6957AD29D90A1EBC4F7736
310
4A9C1CA1A759A682EF839FA72269D8C9D92654AD71C72206887E0E0A22CAF926B15E498B01E0AA19451807D01A34B919F16B070157417138917400F2F6FA41FCF0092A45DEE414C19BDC21783E4BD39D891265658C3D8DEA00A3ACE59CBC8678ACB54CB26EEB6BD7839D7E9348BE70AD9C8321B9BCA7F9A4A26C542347DEE0
310
50F09802D22BA6749A800A394DD62899107273365E3C82CFC6A55557BC06C10774B7ABE7AEC3B0F34CF06446280E154026D0542C187BA9DAB6628BF7B6DBB0E5A65B3EB1F58631DE64BBE083F7B65CC218087E22CABB042E51D1F2268F1FE12B3EA24D40D63E9CFE00120194D60B9D5BC67FE6D39CDF37E20AF817881F504B
310
0304140006080800B670623BBFEF2E3B690500003C100000340000006662782F42384135303843342D343331462D343546312D424341352D3532343432364645413344462F6F626A656374732E786D6CAD575D739B3814FD2B0CFB0C98D84E931D4227B6938EA793B6534F3BFB90198F0099B001899144EAECAFDF231018B0
310
D37A3FFC609090EEE7B94757C1FB7D915B2F54C88CB31BDB7727B64559CC938CA53776A576CE956DBD0F03C1B9EA2DB32D460A7A63EB693B0C52C1ABD24C257447AA5C8D66EF177F5832A68CDA569C13296F6C193FD182B8A4523CA1F2D94D88226EBADBBBBEDB2C1C8A4D05299F46424B222853B014F30C52ACC6287F389C
310
D85E1878FA7B18E87FB36AFAF62AAFF667A83F635211161F291B8999FAB3D5DDC5FCDA99CF6653677679E13B8BFBC5CAF1DF4D27CBCBE5F2FAF6EE1A8AA51290642C117467871F101B91C581D77CEA2C36869F3229E68CD1B8F61F1ED6361B89092D294B90C78C4A68EB793D190E7D1D9BDEE7A91E1B95FDE9F3BCEAEFE809
310
6A6D6F9F7D4B79F4275C90E7A04248AA51D5C4C738DAE06F72885AC4796EBE65D22A88A22223B995679120E2D50EB1542F098381188D4EA111AE3DB043FF20AF6F2B4AE3D7D83D65E5AECA730D4D3BAC91BD05FEA992B565D95F549CD6069B90AB2A63EACA38A45E4B6A87D781574F86817E4C2FCCC72690D62E2729520E37
310
9BAF234797BAF6D62B3BFC781FED37BA1E4F2B2F052FA9501A3E80569BB8F6A9A364D4FA67654E6F803383981F82F21591FF84F23D9882BC896C3FDBCF8C162508933B2E0AE4C69DD43F6BD2BE38DDDBF10BF86CB4FA784D37F3AF16075E67EC9030DECA1FC0A55373F5DFF3378C591FA9BDF485C10B0A8C8BA909E5262639
310
A8E72163488806A595734C81CB77D1DE0ED7604A303B76913CEC0272F412782FF88EFF4636D8AA56DF7B322474C4B767303F625997056C7B032C473C592B36CEBD15F3F9FF5233B7ABCDC74D257624A60F8658567497B14CE1EC3C80B76FD02011038F9EE9EB0F2E12387A9C844D3F09855125116D1D731DF8B43D2CF4E0A0
310
79A020C6BE946BCE0B7EA1E1219331CD73C228AF5A2DDD31A4B1DA918CE91350854D40A71723140BFA92E94E62B0626016CEFA5864A50E5977E8753CEDBEE1CBB7F52780D20E17AF0BA0F5F9B02A3AD07DCC732EB6D1EBB661421BE0C39E21BABF0FE16D22EA6929407C8DE596724C88B749B6DB5512BC7B228ADFD7CB7EA6
310
3A22397E690BA8D5D8D4E40CEC8CDA23C2C0B7D5898640101CEC9C6D331CE328CB93CAFBBAC70A642DF70DF95155945B52F08AA973C23469FD69ADEF84F7BB18F983A8F8C90E37F5D35980B2139A1C523540813E824EF83448CF7C72B598CE97D7CEEDDDDD3B6736BFBC771677EF66CE6A7E7139F7A793E9EDF2B2B3A8B624
310
0CDA13AA5F8388264EC4A0129909F3B7F5A16CEDF08128E97D680ACA4B9BE7B7B58BB638F0B00700EF36AE8B32A705658A68F83EE897FC2B41573190D1CCAF0B92D233A47CFEB019D9809933F67DD1A5467F8CF69AD9A5AE859342D45355448C64F968A371DC2D596ADC6E43D93D1B466F877A64E2893E54F23C4B40388995
310
525E5005DA3983ED45412510D3EFCA13737B3863F74BD30F2A12E5B4B5E489A025CE25500DB855B11ACE5BBFA185D35DD48D8DC3CE7DC69F2944DB42AA6F6CF09BCA622ADD08C7A36E7C6AE18000BAB08E040135C2D21C9D75B3A91B77BB746C403F38018DFE6EC939DD92F16B40BC05294B9CDA035AAD6D330AE27FE4786B
310
8E45145EA34A75BE1C263A676A35A8ACC6297337400BF16C54EF515F3F77CB77EB3583889C754FFA29081AA98E2222ADEF05DA3E63D2EDEA8B8756C05A7FB6CABC4A91CBF325398202CC952E70A008A830324BA200D5E5EF8F5F04C75DB4B0EE3340E071C98B823333B83577596BF3849B69F2085AA0FAFA212F26BEFF5877
310
FDE622B28D88A42E49E43326DA82D31E8CB006401E1DA726059ECEC168F97A6599036306A135688F9AD2E61A6EA178F4CD51974A9F2CCB9F36FE5EBD14601068D9C3BF01504B0304140006080000B670623B000000000000000000000000350000006662782F42384135303843342D343331462D343546312D424341352D35
310
32343432364645413344462F76657274696365732E62696E504B0304140006080800B670623BF270F1330600000004000000360000006662782F42384135303843342D343331462D343546312D424341352D3532343432364645413344462F747269616E676C65732E62696E636660600000504B0304140006080000B67062
310
3B000000000000000000000000370000006662782F42384135303843342D343331462D343546312D424341352D3532343432364645413344462F617474726962757465732E62696E504B0304140006080800B670623B08DA0BD19000000041010000360000006662782F42384135303843342D343331462D343546312D4243
310
41352D3532343432364645413344462F6469726563746F72792E786D6C858F410AC3201045AF22B36F53E9A60B35CBEEBAE80D244E44489C6234F4F835464A48035D0DF398FF9F8AF63D0E6CC63039F212F8F9020C7D47C6792B21C5FE7403D62A1188E2E60C98D7234A5830286103A55745067B9D86B8A3CF9C7F90C11DE6
310
07FB144396D7B6A82D282E9A152AD114D5EF2CB866EEE831B8EEA07A7BB5A8D7D61A2BAAEB7FD5F70921FF497D00504B0304140006080800B670623B3B4606F3FE000000A00100003B0000006662782F42384135303843342D343331462D343546312D424341352D3532343432364645413344462F7265736F75726365732F
310
636F72652E786D6C8D504B6E833010BD0A9A6D65B08134808CA354A427E8052C332156828DFCA97AFC9A40A576D7CDCCE87D344F8F9FBEE647F689CE6B6B7A6039850C8DB2A336530F315C4903D94970676DF82583CCC8197B5861107C72362E3BA4AC096842428D1D7107A5F71820538F74F4E0D50D6799CB1892C2DFF345
310
AABB9C306779A2934E701F5C0A906D4FD609C2A1B7D129F4BCD858C163D4E3AED163FAA9AF1A1D88F67CA98E6D35906AA82A52BFB39ABCD5CD915C86331BD86BD3B665CD8BD52C78D0F34F46E550061C419494B6843142CB0F5677F4D0D58717DA7494F26295FF31C565FCA7296A13AA728FBBD93C0896823C09C18BB5AFB4
310
9E65A6BD762BBE01504B010214000A0000080000B670623B3DEE336E79000000790000001B00000000000000000000000000000000006175746F6465736B2D64657369676E2D7061636B6167652E786D6C504B01021400140006080800B670623BD486FD9CA0000000F40000001300000000000000000000000000B2000000
310
5B436F6E74656E745F54797065735D2E786D6C504B01021400140006080800B670623B28ED286BEB0000007C010000080000000000000000000000000083010000636F72652E786D6C504B01021400140006080800B670623B55019EA25F0000007C000000070000000000000000000000000094020000636E782E786D6C50
310
4B01021400140006080800B670623B7BC41AC871010000D40300000C00000000000000000000000000180300006662782F636F72652E786D6C504B01021400140006080800B670623B70102A487D0000009D0000000B00000000000000000000000000B30400006662782F636E782E786D6C504B01021400140006080800B6
310
70623B3610CA3329010000120200003100000000000000000000000000590500006662782F42384135303843342D343331462D343546312D424341352D3532343432364645413344462F636F72652E786D6C504B01021400140006080800B670623B1B8617914E010000330300003000000000000000000000000000D10600
310
006662782F42384135303843342D343331462D343546312D424341352D3532343432364645413344462F636E782E786D6C504B01021400140006080800B670623BBFEF2E3B690500003C10000034000000000000000000000000006D0800006662782F42384135303843342D343331462D343546312D424341352D35323434
310
32364645413344462F6F626A656374732E786D6C504B01021400140006080000B670623B0000000000000000000000003500000000000000000000000000280E00006662782F42384135303843342D343331462D343546312D424341352D3532343432364645413344462F76657274696365732E62696E504B010214001400
310
06080800B670623BF270F133060000000400000036000000000000000000000000007B0E00006662782F42384135303843342D343331462D343546312D424341352D3532343432364645413344462F747269616E676C65732E62696E504B01021400140006080000B670623B00000000000000000000000037000000000000
310
00000000000000D50E00006662782F42384135303843342D343331462D343546312D424341352D3532343432364645413344462F617474726962757465732E62696E504B01021400140006080800B670623B08DA0BD1900000004101000036000000000000000000000000002A0F00006662782F42384135303843342D3433
310
31462D343546312D424341352D3532343432364645413344462F6469726563746F72792E786D6C504B01021400140006080800B670623B3B4606F3FE000000A00100003B000000000000000000000000000E1000006662782F42384135303843342D343331462D343546312D424341352D3532343432364645413344462F72
310
65736F75726365732F636F72652E786D6C504B0506000000000E000E0080040000651100000000
  0
XRECORD
  5
187
102
{ACAD_REACTORS
330
186
102
}
330
186
100
AcDbXrecord
280
     1
 70
     1
 90
429727718
  1
887D55A9-D0DD-414E-B741-A7DCD4DA2B4C
310
504B03040A0000080000B670623B3DEE336E79000000790000001B0000006175746F6465736B2D64657369676E2D7061636B6167652E786D6C3C3F786D6C2076657273696F6E3D22312E302220656E636F64696E673D227574662D3822203F3E3C666F726D6174733E3C666F726D61743E687474703A2F2F736368656D612E
310
6175746F6465736B2E636F6D2F64657369676E2D7061636B6167652F323030393C2F666F726D61743E3C2F666F726D6174733E504B0304140006080800B670623BD486FD9CA0000000F4000000130000005B436F6E74656E745F54797065735D2E786D6C7D8EC10E82300C865F65E91D8A1E8C310C0EEA1BF002731658846E
310
D98AC1B77784ABF1D8FE5FBFBF75BBCE937A534CCEB38643598122B6FEE978D0B0485F9C41B54DDD7D022595594E1A469170414C76A4D9A4D207E29CF43ECE46F218070CC6BECC4078ACAA135ACF422C856C0E68EA1BF5669944DDD7BCDE7B1F8E415D77AECB980613C2E4AC91FC167A2B244592486606FC29C8FD7F045B9A
310
EF7053A7E60B504B0304140006080800B670623BBC1638F5EC0000007C01000008000000636F72652E786D6C8D90416EC3201045AF82665B61836BE2D8C24471DB9CA01740401C94182C03558F5F9C3852BBEB6A467FFE9B197D7EF89E6EE8CB2CC17AD7032D0820E394D7D68D3DA478C67B4007C117EFE32F1B202727D3C3
310
2A83E0E3E2D3BC49CABB685CCCAAF3DA6CA20CC14440EA969B1E82BA98491632C5EC08D76296EA2A4753D06797E194AC468F2356E77DF66CCD02825543D50CACC62D39ED70FDC68EB8FD68F6F8787A6784342D1DDA1D2F5758F068A7E77DB518198D065111D2624A31A93E69DD11D6D5EC85EC3B4278B9DAFF4069D6FF8492
310
75F1B5DADE7D600104CD8FDC0782976B16B9DC83CA75CD4DFC00504B0304140006080800B670623B55019EA25F0000007C00000007000000636E782E786D6C4DCB3B0E80201045D1AD90E915ED2CF8AC45050C11660C8261F98AB1B07AC9C97D42D718D865D3E909258CFD00CCE24AC6E326A164D74DC0B4128928FF326038
310
472BA13128B1252AC747C6BAB984FC68F0B87FE8960A5C09FE86CFB69FBA01504B0304140006080800B670623B3586FFB671010000D40300000C0000006662782F636F72652E786D6CC553ED6E8320147D15C2DF4541A76D6D90A6DDD627D80B50A4CE54C120983EFEAE1F4DD7A55BBA5FF3879273EEE59E7310B6393735EA
310
95ED2AA3731C851423A5A5292A5DE6D8BB63B0C268C39935C67D29C3488B46E578803167A535BE9D2169B453DA01AA4DA16650749D7218C91A1639EEE4876A4428BC838AEE14B6429E44A9C228041AEA38EB9C0501681A32BC313F1ECE8C4C3867DE57C5CC56054CAB8E95B298A7F12E5EEED224C8E87E11242FE936C8DE96
310
AB60BB7F4D295D66D12E5B30323473E6AAE6A24E5A259C2A308F29CD82280A68FC1E256B9AAE93F489AED694323294DF34F9B678B0C957DA3DC7B3DCA9ADC33C022123F1CD2D44E450277AD04338234388F01913BE0D1A0281909D38D4171F27807A259DB1093085F157AA17B557309586747CD0CF0B46A64E983A6E0EAEEF
310
CE881F9EF1FB8E70D44297604238581EBC1B74B249C31C5AAB6CD0BB33D2C636A27ECCC62F0EFF445DC5DF95244D6DEC7F2922F30191F9F720C37DE49F504B0304140006080800B670623B4220A0FF7D0000009D0000000B0000006662782F636E782E786D6C4DCCD10A83201886E15B91FFDCE542CB0335D0EC3E6259C84A
310
C3E9D8E5AF46073BFAE0E1E315DD675BD1DBA5978F41C2FD4600B9F088930F8B849267CC01754AA418F3DF0D50183727E164506249B1EC174D6E1ECB9A0F5D7D785E68DB8151CD286E5A5363CA6B8A39E90D36D40E96B086F55A43A544F52B1D7B86D517504B0304140006080800B670623B2FA3FEDE290100001202000031
310
0000006662782F45374635344235342D363743322D343832342D383044432D4334454645303536354442422F636F72652E786D6C8D515B6EC32010BC0AE22B55850D2E386E848994D7097A0117488A1283C5A3CAF10BB523B57FF961D1ECCCECC0F2ED7DBC816FED8371B687A4C210682B9D32F6D2C314CFA883602BB8772E
310
FEA141608751F7B0C050F08B77695A20E96CD43666D43AA5177008414708E42D5F7A18E4971E876A483133C2B59A06791D2EBA22556E679EE021FA1C00CC43CA09C5717D6274C7286AD7FB06D1AEA1A8C3873DDAD3E3E98859CB0EBB1DAF67A1E02919B5C88DCA71CCD968FFAC49110B1ECDF8882FBD1EA256503418BF2342
310
106E3E08DD60B6A1EC15771B8C795DE8FF4469524F8A92B1F1AD59E2CEB20005E1F5DC105CB9F4797B84D1F7C9F908CABC55D0F2050A5C61CC1AD2F27A26E6E767C7962E8E213A9FBF7775FDCC5CC266DB960A5E970DE5F2BBBE5CCB36C50F504B0304140006080800B670623B1B8617914E01000033030000300000006662
310
782F45374635344235342D363743322D343832342D383044432D4334454645303536354442422F636E782E786D6CD593C16EC32010447F0571AD6CE3D489D20813A9877E410FBD62D82434182CC055F3F75D1292E692438FBD206B7698593D61BEFD1E2DF982108D773D6D6B460938E5B571FB9ECE6957AD29D90A1EBC4F77
310
364A9C1CA1A759A682EF839FA72269D8C9D92654AD71C72206887E0E0A22CAF926B15E498B01E0AA19451807D01A34B919F16B070157417138917400F2F6FA41FCF0092A45DEE414C19BDC21783E4BD39D891265658C3D8DEA00A3ACE59CBC8678ACB54CB26EEB6BD7839D7E9348BE70AD9C8321B9BCA7F9A4A26C542347DE
310
E050F09802D22BA6749A800A394DD62899107273365E3C82CFC6A55557BC06C10774B7ABE7AEC3B0F34CF06446280E154026D0542C187BA9DAB6628BF7B6DBB0E5A65B3EB1F58631DE64BBE083F7B65CC218087E22CABB042E51D1F2268F1FE12B3EA24D40D63E9CFE00120194D60B9D5BC67FE6D39CDF37E20AF817881F50
310
4B0304140006080800B670623B29652116630500003C100000340000006662782F45374635344235342D363743322D343832342D383044432D4334454645303536354442422F6F626A656374732E786D6CAD575D739B3814FD2B0CFB0C989834C90EA1639B24E3E9A6EDD4D3CE3E64C623834CD8006224913AFDF57B040203
310
B65BEF871F0C12D2FD3CF7E8CA7FBFCB33E3957291B2E2D674ED8969D02262715A24B76625B7D6B569BC0F7CCE98EC2D338D82E4F4D654D366E0279C55A59E8AE99654991CCDDECFFF3444440B6A1A514684B83545F44C7362934AB2988A173B2692D8C97667BB76B3702836E1A47C1E092D09A78584A5982F20C5688C7287
310
C389E904BEA3BE07BEFAD7ABA6A75739B53F43FD69212429A20365233153D70BEF2E2E6FAC4BCF9B5ADEBB0BD79ADFCF43CBBD9A4E16EF168B9BD9DD0D140BC921495BC2E9D60C1E101B9E46BED37CEA2CD6861F3329624541A3DA7F7858DBAC25C6B4A4458C3CA654405BCFEBC970E8AAD8F43E4FD558ABEC4F9FE7557F47
310
4F506B7BFBEC5BCA367FC105710E2AB8A00A554D7CB4A30DFE26FBA86D18CBF4B75418399194A72433B274C3097F33032C554B027F2046A1932B842B0FCCC0DDCBEBDB8AD2F835768F59B9ADB24C41D30C6A64AF817F2A456D59FA83F2E3DA60137255A585BCD60EC9B7929AC18DEFD49381AF1ED30BFDB109A4B1CD488294
310
C3CDE6EBC8D185AABD6568061FEE37BB95AAC7E3CA4BCE4ACAA5820FA0D526AE7DAA2869B5EE5999531BE0CC20E6FBA07C41E43FA27CF7A6206F3CDD793B4F6B919C1462CB788EDCD893FA674CDA17AB7B3B7C019F8D561FAEE966FED562DFE98C1D12C6A9FC015C2A35D7FF3D7FC398F591DA4B5FE0BFA2C0189FEA50AE22
310
92817A1ED3020951A03432862970F976B33383259812CC8E5D240BBA801CBCF8CE2BBEE3BF910DB6AAD5F79E05123AE2DB33981FB1ACCB02B69D00CB014FD68AB573A7627EF9BFD4CC2C5C7D58557C4B22FAA88925A4DBB44825CECE3D78FB060D1231F0E885BE7D673C86A3874958F593906B5502D1563157814FDAC3420D
310
F69A070A22EC4B98E23CFF171A1E5311D12C23056555ABA53B8614563B92D17D02AAB009E8F46284624E5F53D5490C560CCCC2591FF1B45421EB0EBD8EA7ED13BE7C5D7E0428CD60FEF60779EB13E6664FF711CB185F6FDED60D139A001FF60CD1FD6D086F1D51474901E26B2CB794A343BC8ED3EDB612E0DD2351FCB65CF4
310
33D511C9E14B5B40ADC6A6263DB0336A8F700DDF56271A024E70B0B3629DE21847591E55DED73D56206AB927E46FAABC5C939C55853C274C93D69FD6FA4E78BF8B11DF898C9ECD60553FAD39283BA6F18984AA23E8884F83F45C5F5F859797B31B2B9C84A1E5B9DE9D35BFF25C6B76152E422F9C5DCC3D847F5801ED09D5AF
310
41441327A25FF15487F9EB725FB666F048A4701E9A827292E6F97569A32DF61DEC01C0BB8DCBBCCC684E0B49147C1FD54BF685A0AB18C868E6973949E819523E3DAC463660E68C7D9F55A9D1EFA3BD7A76A16AE1A810F95CE59B82A4D968A376DC2E8B44BBDD86B27B368CDE0ED548C7137DA860591A83706223A12CA712B4
310
7306DBF39C0A20A6DF95C7FAF670C6EED7A61F946493D1D6926782963813403548A78AE470DEF80D2D9CEAA26E4D1C76F60BFE74219A06527D6B82DF641A51616F703CAAC6A7160E08A00BEB4810A0274592A1B36E3675E36E978A0DE80727A0D6DF2D39A75BD27E0D8837276589537B40ABB56D5A41F48F1C6FCD3188C4EB
310
A6929D2FFB89CE995A4D00AE813BDD032DC48B56BD437DFDDC2DD7AED70C2272D63DE9A72068A45A92F0A4BE17A8A06B9366E16707AD80B1FC649459952097E74BB23805982B55E0401150A165964402AA8BDF9F3E7386BB686EDCA780C0D382E5392BF460A6EFB2C6EA1937D3F809B440D5F5435C4C5CF7A9EEFAF54564BD
310
2182DA24162F98680B4E7930C21A0079709CEAEB99A372305ABE0C0D7D6078105A83F6A0296DAEE1068A47DD1C55A9F4C9B2FC69E3EFD44B81028E963DF81B504B0304140006080000B670623B000000000000000000000000350000006662782F45374635344235342D363743322D343832342D383044432D433445464530
310
3536354442422F76657274696365732E62696E504B0304140006080800B670623BF270F1330600000004000000360000006662782F45374635344235342D363743322D343832342D383044432D4334454645303536354442422F747269616E676C65732E62696E636660600000504B0304140006080000B670623B00000000
310
0000000000000000370000006662782F45374635344235342D363743322D343832342D383044432D4334454645303536354442422F617474726962757465732E62696E504B0304140006080800B670623B08DA0BD19000000041010000360000006662782F45374635344235342D363743322D343832342D383044432D4334
310
454645303536354442422F6469726563746F72792E786D6C858F410AC3201045AF22B36F53E9A60B35CBEEBAE80D244E44489C6234F4F835464A48035D0DF398FF9F8AF63D0E6CC63039F212F8F9020C7D47C6792B21C5FE7403D62A1188E2E60C98D7234A5830286103A55745067B9D86B8A3CF9C7F90C11DE607FB144396
310
D7B6A82D282E9A152AD114D5EF2CB866EEE831B8EEA07A7BB5A8D7D61A2BAAEB7FD5F70921FF497D00504B0304140006080800B670623B6378F24DFF000000A00100003B0000006662782F45374635344235342D363743322D343832342D383044432D4334454645303536354442422F7265736F75726365732F636F72652E
310
786D6C8D504B6E833010BD0A9A6D65B0094E42641C85B639412F6099496225D8C89FAAC7AF09546A77DDCC8CDE47F3F4C4F16B7C149FE88371B603565228D06A37187BED20C50BD9437194C23B177FC9A0B06AC40E6618A4B87A97A615D2CE46B431A3D60DB8822A048C50E8473E3A08FA86A32A558A5911EEE5A4F45D5DB1
310
6465A6B34E8A107D0E502C4FE609D26370C96B0CA25A58295232C3AA3143FE692E063D485EF7F5AEE71BD2D2F39634AFFC44DAF7DD9E9CCE6F9CD25DCBFA762BAAD92C4534E34F46ED51451C40D694B6843142EB0FD61C283F34FC85EE0F948A6A96FF31A569F8A729191B37F51A77B105902C0779125254735F793DCBCC7B
310
EE567E03504B010214000A0000080000B670623B3DEE336E79000000790000001B00000000000000000000000000000000006175746F6465736B2D64657369676E2D7061636B6167652E786D6C504B01021400140006080800B670623BD486FD9CA0000000F40000001300000000000000000000000000B20000005B436F6E
310
74656E745F54797065735D2E786D6C504B01021400140006080800B670623BBC1638F5EC0000007C010000080000000000000000000000000083010000636F72652E786D6C504B01021400140006080800B670623B55019EA25F0000007C000000070000000000000000000000000095020000636E782E786D6C504B010214
310
00140006080800B670623B3586FFB671010000D40300000C00000000000000000000000000190300006662782F636F72652E786D6C504B01021400140006080800B670623B4220A0FF7D0000009D0000000B00000000000000000000000000B40400006662782F636E782E786D6C504B01021400140006080800B670623B2F
310
A3FEDE290100001202000031000000000000000000000000005A0500006662782F45374635344235342D363743322D343832342D383044432D4334454645303536354442422F636F72652E786D6C504B01021400140006080800B670623B1B8617914E010000330300003000000000000000000000000000D2060000666278
310
2F45374635344235342D363743322D343832342D383044432D4334454645303536354442422F636E782E786D6C504B01021400140006080800B670623B29652116630500003C10000034000000000000000000000000006E0800006662782F45374635344235342D363743322D343832342D383044432D4334454645303536
310
354442422F6F626A656374732E786D6C504B01021400140006080000B670623B0000000000000000000000003500000000000000000000000000230E00006662782F45374635344235342D363743322D343832342D383044432D4334454645303536354442422F76657274696365732E62696E504B01021400140006080800
310
B670623BF270F13306000000040000003600000000000000000000000000760E00006662782F45374635344235342D363743322D343832342D383044432D4334454645303536354442422F747269616E676C65732E62696E504B01021400140006080000B670623B0000000000000000000000003700000000000000000000
310
000000D00E00006662782F45374635344235342D363743322D343832342D383044432D4334454645303536354442422F617474726962757465732E62696E504B01021400140006080800B670623B08DA0BD190000000410100003600000000000000000000000000250F00006662782F45374635344235342D363743322D34
310
3832342D383044432D4334454645303536354442422F6469726563746F72792E786D6C504B01021400140006080800B670623B6378F24DFF000000A00100003B00000000000000000000000000091000006662782F45374635344235342D363743322D343832342D383044432D4334454645303536354442422F7265736F75
310
726365732F636F72652E786D6C504B0506000000000E000E0080040000611100000000
  0
XRECORD
  5
112
102
{ACAD_REACTORS
330
110
102
}
330
110
100
AcDbXrecord
280
     1
270
     1
271
     1
  0
XRECORD
  5
111
102
{ACAD_REACTORS
330
110
102
}
330
110
100
AcDbXrecord
280
     1
270
     1
271
     1
  0
XRECORD
  5
18A
102
{ACAD_REACTORS
330
110
102
}
330
110
100
AcDbXrecord
280
     1
 70
     0
 90
1778669749
  1
9BF507EE-FAF7-4A99-A33D-4EE51894BC40
310
504B03040A0000080000B670623B3DEE336E79000000790000001B0000006175746F6465736B2D64657369676E2D7061636B6167652E786D6C3C3F786D6C2076657273696F6E3D22312E302220656E636F64696E673D227574662D3822203F3E3C666F726D6174733E3C666F726D61743E687474703A2F2F736368656D612E
310
6175746F6465736B2E636F6D2F64657369676E2D7061636B6167652F323030393C2F666F726D61743E3C2F666F726D6174733E504B0304140006080800B670623BD486FD9CA0000000F4000000130000005B436F6E74656E745F54797065735D2E786D6C7D8EC10E82300C865F65E91D8A1E8C310C0EEA1BF002731658846E
310
D98AC1B77784ABF1D8FE5FBFBF75BBCE937A534CCEB38643598122B6FEE978D0B0485F9C41B54DDD7D022595594E1A469170414C76A4D9A4D207E29CF43ECE46F218070CC6BECC4078ACAA135ACF422C856C0E68EA1BF5669944DDD7BCDE7B1F8E415D77AECB980613C2E4AC91FC167A2B244592486606FC29C8FD7F045B9A
310
EF7053A7E60B504B0304140006080800B670623BCA089DFFEC0000007C01000008000000636F72652E786D6C8D90416E83301045AF62CDB632D8402020E32882F604BD80653BC44AB011B6AB1EBF262152BBEB6A467FFE9B197D76FA9EEFE84BAFDE38DB03CD08206DA553C64E3DC470C1474027CE56E7C22F1B202B66DDC3
310
260367D3EAE2B24BD2D9A06D48AA754AEFA2F05E0740F29E9A1EBCBCEA59642286E4F0B76C11F226269DD15797E0188D42CF2346A57DE662F40ABCAEC77628C6120F654571D50C04B7F5B9C1E3997CD4F550BE3745C3F20DE62C98F9755FAE5A04AD801784B498524C8A4F5A75E4D055873772EC0861F966FF03C545FD138A
310
C686B2D8DF7D621E384D8F3C069CE55B16A93C824A75CB8DFF00504B0304140006080800B670623B55019EA25F0000007C00000007000000636E782E786D6C4DCB3B0E80201045D1AD90E915ED2CF8AC45050C11660C8261F98AB1B07AC9C97D42D718D865D3E909258CFD00CCE24AC6E326A164D74DC0B4128928FF326038
310
472BA13128B1252AC747C6BAB984FC68F0B87FE8960A5C09FE86CFB69FBA01504B0304140006080800B670623B68FC0B7272010000D40300000C0000006662782F636F72652E786D6CC5535B6E833010BC8AE5DF0A6C1E8124328E22D29EA01770C0A128602363A31CBFCB234A53A555FA553EC09AD9F5CE8C31DB5DDA060D
310
D2F4B556190E7C8A9154852E6B5565D8D993B7C668C799D1DA7E29C3488956667884316795D1AE5BA0422B2B950554E9522EA0E87B69312A1A5864B82F3E642B7CE12C54F467BF13C55954D20F7CA0A18EB3DE1A1080E621E31BF3D3F1C2C88C73E65C5D2E6C5DC2B4FA544B8379921C36797888BC3C8A032F4E73EA6D927D
310
EA1DF6F42D49F2E8350D5346C666CE6CDD5ED515460A2B4BCC434A375E1078347C0FE22D5D6DE3D50B5D6F2965642CBF6B725DF96493AB958DC245EEDCD6631E809089F8E61622B2A81703E8219C913144F84C09DF070D8140C8561C9BAB8F3340832CAC363130A576376A108D933095FA747AD0CF0B46E64E983A6D0EAE1F
310
CE089F9EF1FB8E70D44255604258581E9D1D75B259C3125A278D37D80B52DAB4A279CEC62F0EFF44DDC43F9454E8469BFF5244960322CBEF41C6FBC83F01504B0304140006080800B670623B0F71DDB67E0000009D0000000B0000006662782F636E782E786D6C4DCCD10A83201886E15B91FFDCA54DB73F502386BB8F5816
310
32D3703976F9ABD1C18E3E78F87855FB990379BBFCF2296AE02706C4C5471A7C9C349475A408A4352AA7B4FEDD80C47E761A7606A3A69CCA72D0E0C6BE8475D3E0E3F3409428EA6B27A84079A782899AA2EC1A7AE3ECCC2FD858CB2D544655BFD2B67BD87C01504B0304140006080800B670623BE134B4FB28010000120200
310
00310000006662782F38353834323741342D343835462D343034322D383541392D4331303331363839454531452F636F72652E786D6C8D515B6EC32010BC0AE22B55850D0EA424C24451959EA0172086A42831583CAA1CBF503B52FB971F16CDCECC0EACD8DFC71BF836215AEF7A481A0C817183D7D65D7A98D3197108F652
310
04EFD31F1A044E8DA6871586525C82CFD3020DDE25E352419DD76601558C264130DCCAA58771F832A36A544E8511AFCDA486ABBA988634A55D7852C4144A00300FA927949C71DABD1D28A29C7D208A6987383B6CD13BC16BB2E1DBE3911C453B0BA5C8D9EA456E758963CFD684674DAA588A64C747FC2118958C86B2C3788B
310
0841B8FB247487D98EB257CC77188BB6D2FF89F2A49F1465EBD2BA5BE2CEB2082511EDDC9042FB7CBA3DC298FBE4430275DE2A9AE1054ADC60CC08E3A29D89E5F9C5714317C7987C28DFBBBA9E0A97B0D97643A568EB864AF95D5FA9759BF207504B0304140006080800B670623B1B8617914E010000330300003000000066
310
62782F38353834323741342D343835462D343034322D383541392D4331303331363839454531452F636E782E786D6CD593C16EC32010447F0571AD6CE3D489D20813A9877E410FBD62D82434182CC055F3F75D1292E692438FBD206B7698593D61BEFD1E2DF982108D773D6D6B460938E5B571FB9ECE6957AD29D90A1EBC4F
310
77364A9C1CA1A759A682EF839FA72269D8C9D92654AD71C72206887E0E0A22CAF926B15E498B01E0AA19451807D01A34B919F16B070157417138917400F2F6FA41FCF0092A45DEE414C19BDC21783E4BD39D891265658C3D8DEA00A3ACE59CBC8678ACB54CB26EEB6BD7839D7E9348BE70AD9C8321B9BCA7F9A4A26C542347
310
DEE050F09802D22BA6749A800A394DD62899107273365E3C82CFC6A55557BC06C10774B7ABE7AEC3B0F34CF06446280E154026D0542C187BA9DAB6628BF7B6DBB0E5A65B3EB1F58631DE64BBE083F7B65CC218087E22CABB042E51D1F2268F1FE12B3EA24D40D63E9CFE00120194D60B9D5BC67FE6D39CDF37E20AF817881F
310
504B0304140006080800B670623B5933D422630500003B100000340000006662782F38353834323741342D343835462D343034322D383541392D4331303331363839454531452F6F626A656374732E786D6CAD575B6FA33814FE2B887D0642934E9B156594264D158D3A534DD4D13E548A0C38942D60649B4EBABF7E3F8321
310
40924EF6928780CDF1B97EE762EFF32E4B8D37CA45C2F21BD3B547A641F39045491EDF98A5DC5AD7A6F1D9F73863B243661A39C9E88DA9B64DDF8B392B0BBD15D12D295339D85DDEFE618890E6D434C2940871638AF08566C426A5641115AF764424B1E3EDCE76ED9AB0CF36E6A47819302D08A7B984A6D8CFC1C5A89572FB
310
CB91E9F89EA3BEFB9EFAD754E3D3544E654F5F7E920B49F2F040D880CDD89D2CEE2E2EA7D6E56432B6269F2E5CEB7679BBB0DCABF168FE693E9FCEEEA6102C240727AD09A75BD3BF876F78127A4EFDA9D5582B7E4CA590E5390D2BFB6161A5B3E618D182E611E2985001691DAB47FDA5AB7CD3F93C566B2DB2BB7D9E55DD13
310
1D468DEECDB3AB290BFE8409E21C54704115AA6AFF68436BFC8DF65E0B184BF5B74418199194272435D224E084BF9B3E481589EFF5D828747285706581E9BB7B7E5D5D911ABFC6EE312DB7659A2A689A7E85EC0DF04FA5A8344BFEA2FCB834E8845895492EAFB541F2BDA0A63FF59C6AD3F7D4637CA13FD68E34B629891172
310
98597F1D183A57B9B75A98FE9765B05BAB7C3C2EBCE0ACA05C2AF8005A4DE09AA7F29216EB9E15397500C6F47CBE77CA7778FE2BD277AF0AE2C693DD6437D1522427B9D8329E2136F6A8FA19A3E6C56ADF0E5F50CF06D48734EDCEBF22F69C56D97EC138153F804B85E6FABFC7AFEFB32E523BE1F3BD372418E363EDCA7548
310
52949E8724474014288D94610BB57C1BEC4C7F854A89CA8E5324F55B871CBC78CE1BBEE3BFE68D6A5589EF3C730474506FCFA8FCF0659516D0ED04580EEA6425581B77CAE797FF4BCECC16EB2FEB926F49481F746159D06D922712BD730FDEAE42BD40F42C7AA5EF3F198F60E86110D6DD20645A9480B795CF95E3E3A659A8
310
C55E724F408873315335CFFB8584874484344D494E59D94869DB90C26A5B64F49C802CAC1D3ABE18A098D3B7444D123D8A9E5AE8F5214F0AE5B2B6E9B575DA3E61CBD3EA2B4009FA940524DD1305FB6A1FB294F14DF0BEA90BA109ECE1481FDC3FFAE8D60E75141700BE82725371B4873751B2DD960265F788137FACE6DD40
310
B575E4F0A5C99F46629D92131467A41EE11ABD8D4CCC039CA0AFB37C93A08B232B8F0AEFCA1E0A1015DF13FC83322B362463652ECF71D3A8B1A7D1BE65DE1D62C44F22C317D35F574FEB16153BA2D13E543D10A80E74C4A65E78A6B7CBCBD1D5DD9DB59C2DAFACC96C3AB566E3F1C29ADCDD5DBAD7D3C9ED7C822ED74F80A6
310
41755310DE4443F44A9E68373FADF6596BFA0F440AE7BECE2727AE9F4F2B1B53B1E7E00CF0DD1E5C65454A339A4BA2D0FBA05ED2EF0443458F47BDBFCA484CCFE0F2ED7E3DD0013B679C7B5499467F0ECEEADDB9CA85A34CE44B99053949D2C1416DB85DE4B136BB7165FBAC0B7AB3542BED4F8CA182A549847A1319316519
310
95A83A67147B9E5101C47487F2485F1ECE38FD568F839204296D3479219888530154036E6528FBFBC66F98E0D4107563A2D7D9AFF8D389681A08F58D89F22693900A3B407754734FC51C10C010D6D640809EE4718AC1BA3ED4AEDB53CA37283F68805A7E4B72CEB0A4EDEAD5DD8C14059A76AFAA56BA6901E13F32BC51C720
310
12AF41295B5BF61BAD3195181FB506E6B40F4C10AF5AF40EF9F5B159AE5DD1F43C72D635E94310D45C2D49785C5D0B94D3B54AB3C5A38349C0587D338AB48C11CBF339599C02CCA54A70A008A8D03C0B2201D5F9EFCF8F9CE12A9A19CB0410789EB32C63B95ECCF455D658BFE0621A3DA32C5075FB101723D77DAE867E7D0F
310
D90444509B44E2151B4DC2290B065803200FBAA9BE9D392A0603F2D5C2D00D6302A615680F66D2FA166E2079D4C551A54AB758161FCEFD4E450A14704CECFEDF504B0304140006080000B670623B000000000000000000000000350000006662782F38353834323741342D343835462D343034322D383541392D4331303331
310
363839454531452F76657274696365732E62696E504B0304140006080800B670623BF270F1330600000004000000360000006662782F38353834323741342D343835462D343034322D383541392D4331303331363839454531452F747269616E676C65732E62696E636660600000504B0304140006080000B670623B000000
310
000000000000000000370000006662782F38353834323741342D343835462D343034322D383541392D4331303331363839454531452F617474726962757465732E62696E504B0304140006080800B670623B08DA0BD19000000041010000360000006662782F38353834323741342D343835462D343034322D383541392D43
310
31303331363839454531452F6469726563746F72792E786D6C858F410AC3201045AF22B36F53E9A60B35CBEEBAE80D244E44489C6234F4F835464A48035D0DF398FF9F8AF63D0E6CC63039F212F8F9020C7D47C6792B21C5FE7403D62A1188E2E60C98D7234A5830286103A55745067B9D86B8A3CF9C7F90C11DE607FB1443
310
96D7B6A82D282E9A152AD114D5EF2CB866EEE831B8EEA07A7BB5A8D7D61A2BAAEB7FD5F70921FF497D00504B0304140006080800B670623BD9A3B367FE000000A00100003B0000006662782F38353834323741342D343835462D343034322D383541392D4331303331363839454531452F7265736F75726365732F636F7265
310
2E786D6C8D504B6E833010BD0A9A6D65B01D0201194711694FD00B586642AD043BF2A7EAF16B122AB5BB6E6646EFA3797AE2F8B5DC8A4FF4C1383B002B291468B59B8C9D0748F1420E501CA5F0CEC55F3228AC5A708015062966EFD27D83B4B3116DCCA875136EA00A012314FA968F0182FEC045952AC5AC08D7F2AEF455CD
310
58B232D3592745883E07289E4FD609D26370C96B0CA27AB252A464A64D63A6FCD35C0C7A904D73EE467EE664DCD58CD4ED4849D79C5A723ED1B7A61977AF2D6F45B59AA58866F9C9A83DAA8813484E6947182394BFB3BAA7FBBEDEBFD0434FA9A856F91F53BA4FFF342563E38E6F719FB60092E5200F428A6AED2BAF479979
310
AFDDCA6F504B010214000A0000080000B670623B3DEE336E79000000790000001B00000000000000000000000000000000006175746F6465736B2D64657369676E2D7061636B6167652E786D6C504B01021400140006080800B670623BD486FD9CA0000000F40000001300000000000000000000000000B20000005B436F6E
310
74656E745F54797065735D2E786D6C504B01021400140006080800B670623BCA089DFFEC0000007C010000080000000000000000000000000083010000636F72652E786D6C504B01021400140006080800B670623B55019EA25F0000007C000000070000000000000000000000000095020000636E782E786D6C504B010214
310
00140006080800B670623B68FC0B7272010000D40300000C00000000000000000000000000190300006662782F636F72652E786D6C504B01021400140006080800B670623B0F71DDB67E0000009D0000000B00000000000000000000000000B50400006662782F636E782E786D6C504B01021400140006080800B670623BE1
310
34B4FB280100001202000031000000000000000000000000005C0500006662782F38353834323741342D343835462D343034322D383541392D4331303331363839454531452F636F72652E786D6C504B01021400140006080800B670623B1B8617914E010000330300003000000000000000000000000000D3060000666278
310
2F38353834323741342D343835462D343034322D383541392D4331303331363839454531452F636E782E786D6C504B01021400140006080800B670623B5933D422630500003B10000034000000000000000000000000006F0800006662782F38353834323741342D343835462D343034322D383541392D4331303331363839
310
454531452F6F626A656374732E786D6C504B01021400140006080000B670623B0000000000000000000000003500000000000000000000000000240E00006662782F38353834323741342D343835462D343034322D383541392D4331303331363839454531452F76657274696365732E62696E504B01021400140006080800
310
B670623BF270F13306000000040000003600000000000000000000000000770E00006662782F38353834323741342D343835462D343034322D383541392D4331303331363839454531452F747269616E676C65732E62696E504B01021400140006080000B670623B0000000000000000000000003700000000000000000000
310
000000D10E00006662782F38353834323741342D343835462D343034322D383541392D4331303331363839454531452F617474726962757465732E62696E504B01021400140006080800B670623B08DA0BD190000000410100003600000000000000000000000000260F00006662782F38353834323741342D343835462D34
310
3034322D383541392D4331303331363839454531452F6469726563746F72792E786D6C504B01021400140006080800B670623BD9A3B367FE000000A00100003B000000000000000000000000000A1000006662782F38353834323741342D343835462D343034322D383541392D4331303331363839454531452F7265736F75
310
726365732F636F72652E786D6C504B0506000000000E000E0080040000611100000000
  0
XRECORD
  5
113
102
{ACAD_REACTORS
330
110
102
}
330
110
100
AcDbXrecord
280
     1
270
     1
271
     1
  0
XRECORD
  5
114
102
{ACAD_REACTORS
330
110
102
}
330
110
100
AcDbXrecord
280
     1
270
     1
271
     1
  0
XRECORD
  5
ACA
102
{ACAD_REACTORS
330
AC9
102
}
330
AC9
100
AcDbXrecord
280
     1
102
DISPLAYNAME
  1
Imperial24
102
FLAGS
 90
        0
  0
XRECORD
  5
ACE
102
{ACAD_REACTORS
330
ACD
102
}
330
ACD
100
AcDbXrecord
280
     1
102
DISPLAYNAME
  1
Metric50
102
FLAGS
 90
        0
  0
CELLSTYLEMAP
  5
ABF
102
{ACAD_REACTORS
330
886
102
}
330
886
100
AcDbCellStyleMap
 90
        3
300
CELLSTYLE
  1
TABLEFORMAT_BEGIN
 90
        5
170
     1
 91
        0
 92
    32768
 62
   257
 93
        1
300
CONTENTFORMAT
  1
CONTENTFORMAT_BEGIN
 90
        0
 91
        0
 92
      512
 93
        0
300

 40
0.0
140
1.0
 94
        5
 62
     0
340
20C
144
0.25
309
CONTENTFORMAT_END
171
     1
301
MARGIN
  1
CELLMARGIN_BEGIN
 40
0.06
 40
0.06
 40
0.06
 40
0.06
 40
0.18
 40
0.18
309
CELLMARGIN_END
 94
        6
 95
        1
302
GRIDFORMAT
  1
GRIDFORMAT_BEGIN
 90
        0
 91
        1
 62
     0
 92
       -2
340
0
 93
        1
 40
0.045
309
GRIDFORMAT_END
 95
        2
302
GRIDFORMAT
  1
GRIDFORMAT_BEGIN
 90
        0
 91
        1
 62
     0
 92
       -2
340
0
 93
        1
 40
0.045
309
GRIDFORMAT_END
 95
        4
302
GRIDFORMAT
  1
GRIDFORMAT_BEGIN
 90
        0
 91
        1
 62
     0
 92
       -2
340
0
 93
        1
 40
0.045
309
GRIDFORMAT_END
 95
        8
302
GRIDFORMAT
  1
GRIDFORMAT_BEGIN
 90
        0
 91
        1
 62
     0
 92
       -2
340
0
 93
        1
 40
0.045
309
GRIDFORMAT_END
 95
       16
302
GRIDFORMAT
  1
GRIDFORMAT_BEGIN
 90
        0
 91
        1
 62
     0
 92
       -2
340
0
 93
        1
 40
0.045
309
GRIDFORMAT_END
 95
       32
302
GRIDFORMAT
  1
GRIDFORMAT_BEGIN
 90
        0
 91
        1
 62
     0
 92
       -2
340
0
 93
        1
 40
0.045
309
GRIDFORMAT_END
309
TABLEFORMAT_END
  1
CELLSTYLE_BEGIN
 90
        1
 91
        1
300
_TITLE
309
CELLSTYLE_END
300
CELLSTYLE
  1
TABLEFORMAT_BEGIN
 90
        5
170
     1
 91
        0
 92
        0
 62
   257
 93
        1
300
CONTENTFORMAT
  1
CONTENTFORMAT_BEGIN
 90
        0
 91
        0
 92
      512
 93
        0
300

 40
0.0
140
1.0
 94
        4
 62
     0
340
20C
144
0.18
309
CONTENTFORMAT_END
171
     1
301
MARGIN
  1
CELLMARGIN_BEGIN
 40
0.06
 40
0.06
 40
0.06
 40
0.06
 40
0.18
 40
0.18
309
CELLMARGIN_END
 94
        6
 95
        1
302
GRIDFORMAT
  1
GRIDFORMAT_BEGIN
 90
        0
 91
        1
 62
     0
 92
       -2
340
0
 93
        1
 40
0.045
309
GRIDFORMAT_END
 95
        2
302
GRIDFORMAT
  1
GRIDFORMAT_BEGIN
 90
        0
 91
        1
 62
     0
 92
       -2
340
0
 93
        1
 40
0.045
309
GRIDFORMAT_END
 95
        4
302
GRIDFORMAT
  1
GRIDFORMAT_BEGIN
 90
        0
 91
        1
 62
     0
 92
       -2
340
0
 93
        1
 40
0.045
309
GRIDFORMAT_END
 95
        8
302
GRIDFORMAT
  1
GRIDFORMAT_BEGIN
 90
        0
 91
        1
 62
     0
 92
       -2
340
0
 93
        1
 40
0.045
309
GRIDFORMAT_END
 95
       16
302
GRIDFORMAT
  1
GRIDFORMAT_BEGIN
 90
        0
 91
        1
 62
     0
 92
       -2
340
0
 93
        1
 40
0.045
309
GRIDFORMAT_END
 95
       32
302
GRIDFORMAT
  1
GRIDFORMAT_BEGIN
 90
        0
 91
        1
 62
     0
 92
       -2
340
0
 93
        1
 40
0.045
309
GRIDFORMAT_END
309
TABLEFORMAT_END
  1
CELLSTYLE_BEGIN
 90
        2
 91
        1
300
_HEADER
309
CELLSTYLE_END
300
CELLSTYLE
  1
TABLEFORMAT_BEGIN
 90
        5
170
     1
 91
        0
 92
        0
 62
   257
 93
        1
300
CONTENTFORMAT
  1
CONTENTFORMAT_BEGIN
 90
        0
 91
        0
 92
      512
 93
        0
300

 40
0.0
140
1.0
 94
        4
 62
     0
340
20C
144
0.18
309
CONTENTFORMAT_END
171
     1
301
MARGIN
  1
CELLMARGIN_BEGIN
 40
0.06
 40
0.06
 40
0.06
 40
0.06
 40
0.18
 40
0.18
309
CELLMARGIN_END
 94
        6
 95
        1
302
GRIDFORMAT
  1
GRIDFORMAT_BEGIN
 90
        0
 91
        1
 62
     0
 92
       -2
340
0
 93
        1
 40
0.045
309
GRIDFORMAT_END
 95
        2
302
GRIDFORMAT
  1
GRIDFORMAT_BEGIN
 90
        0
 91
        1
 62
     0
 92
       -2
340
0
 93
        1
 40
0.045
309
GRIDFORMAT_END
 95
        4
302
GRIDFORMAT
  1
GRIDFORMAT_BEGIN
 90
        0
 91
        1
 62
     0
 92
       -2
340
0
 93
        1
 40
0.045
309
GRIDFORMAT_END
 95
        8
302
GRIDFORMAT
  1
GRIDFORMAT_BEGIN
 90
        0
 91
        1
 62
     0
 92
       -2
340
0
 93
        1
 40
0.045
309
GRIDFORMAT_END
 95
       16
302
GRIDFORMAT
  1
GRIDFORMAT_BEGIN
 90
        0
 91
        1
 62
     0
 92
       -2
340
0
 93
        1
 40
0.045
309
GRIDFORMAT_END
 95
       32
302
GRIDFORMAT
  1
GRIDFORMAT_BEGIN
 90
        0
 91
        1
 62
     0
 92
       -2
340
0
 93
        1
 40
0.045
309
GRIDFORMAT_END
309
TABLEFORMAT_END
  1
CELLSTYLE_BEGIN
 90
        3
 91
        2
300
_DATA
309
CELLSTYLE_END
  0
CELLSTYLEMAP
  5
ABE
102
{ACAD_REACTORS
330
104
102
}
330
104
100
AcDbCellStyleMap
 90
        3
300
CELLSTYLE
  1
TABLEFORMAT_BEGIN
 90
        5
170
     1
 91
        0
 92
    32768
 62
   257
 93
        1
300
CONTENTFORMAT
  1
CONTENTFORMAT_BEGIN
 90
        0
 91
        0
 92
      512
 93
        0
300

 40
0.0
140
1.0
 94
        5
 62
     0
340
11
144
0.25
309
CONTENTFORMAT_END
171
     1
301
MARGIN
  1
CELLMARGIN_BEGIN
 40
0.06
 40
0.06
 40
0.06
 40
0.06
 40
0.18
 40
0.18
309
CELLMARGIN_END
 94
        6
 95
        1
302
GRIDFORMAT
  1
GRIDFORMAT_BEGIN
 90
        0
 91
        1
 62
     0
 92
       -2
340
0
 93
        0
 40
0.045
309
GRIDFORMAT_END
 95
        2
302
GRIDFORMAT
  1
GRIDFORMAT_BEGIN
 90
        0
 91
        1
 62
     0
 92
       -2
340
0
 93
        0
 40
0.045
309
GRIDFORMAT_END
 95
        4
302
GRIDFORMAT
  1
GRIDFORMAT_BEGIN
 90
        0
 91
        1
 62
     0
 92
       -2
340
0
 93
        0
 40
0.045
309
GRIDFORMAT_END
 95
        8
302
GRIDFORMAT
  1
GRIDFORMAT_BEGIN
 90
        0
 91
        1
 62
     0
 92
       -2
340
0
 93
        0
 40
0.045
309
GRIDFORMAT_END
 95
       16
302
GRIDFORMAT
  1
GRIDFORMAT_BEGIN
 90
        0
 91
        1
 62
     0
 92
       -2
340
0
 93
        0
 40
0.045
309
GRIDFORMAT_END
 95
       32
302
GRIDFORMAT
  1
GRIDFORMAT_BEGIN
 90
        0
 91
        1
 62
     0
 92
       -2
340
0
 93
        0
 40
0.045
309
GRIDFORMAT_END
309
TABLEFORMAT_END
  1
CELLSTYLE_BEGIN
 90
        1
 91
        1
300
_TITLE
309
CELLSTYLE_END
300
CELLSTYLE
  1
TABLEFORMAT_BEGIN
 90
        5
170
     1
 91
        0
 92
        0
 62
   257
 93
        1
300
CONTENTFORMAT
  1
CONTENTFORMAT_BEGIN
 90
        0
 91
        0
 92
      512
 93
        0
300

 40
0.0
140
1.0
 94
        5
 62
     0
340
11
144
0.18
309
CONTENTFORMAT_END
171
     1
301
MARGIN
  1
CELLMARGIN_BEGIN
 40
0.06
 40
0.06
 40
0.06
 40
0.06
 40
0.18
 40
0.18
309
CELLMARGIN_END
 94
        6
 95
        1
302
GRIDFORMAT
  1
GRIDFORMAT_BEGIN
 90
        0
 91
        1
 62
     0
 92
       -2
340
0
 93
        0
 40
0.045
309
GRIDFORMAT_END
 95
        2
302
GRIDFORMAT
  1
GRIDFORMAT_BEGIN
 90
        0
 91
        1
 62
     0
 92
       -2
340
0
 93
        0
 40
0.045
309
GRIDFORMAT_END
 95
        4
302
GRIDFORMAT
  1
GRIDFORMAT_BEGIN
 90
        0
 91
        1
 62
     0
 92
       -2
340
0
 93
        0
 40
0.045
309
GRIDFORMAT_END
 95
        8
302
GRIDFORMAT
  1
GRIDFORMAT_BEGIN
 90
        0
 91
        1
 62
     0
 92
       -2
340
0
 93
        0
 40
0.045
309
GRIDFORMAT_END
 95
       16
302
GRIDFORMAT
  1
GRIDFORMAT_BEGIN
 90
        0
 91
        1
 62
     0
 92
       -2
340
0
 93
        0
 40
0.045
309
GRIDFORMAT_END
 95
       32
302
GRIDFORMAT
  1
GRIDFORMAT_BEGIN
 90
        0
 91
        1
 62
     0
 92
       -2
340
0
 93
        0
 40
0.045
309
GRIDFORMAT_END
309
TABLEFORMAT_END
  1
CELLSTYLE_BEGIN
 90
        2
 91
        1
300
_HEADER
309
CELLSTYLE_END
300
CELLSTYLE
  1
TABLEFORMAT_BEGIN
 90
        5
170
     1
 91
        0
 92
        0
 62
   257
 93
        1
300
CONTENTFORMAT
  1
CONTENTFORMAT_BEGIN
 90
        0
 91
        0
 92
      512
 93
        0
300

 40
0.0
140
1.0
 94
        2
 62
     0
340
11
144
0.18
309
CONTENTFORMAT_END
171
     1
301
MARGIN
  1
CELLMARGIN_BEGIN
 40
0.06
 40
0.06
 40
0.06
 40
0.06
 40
0.18
 40
0.18
309
CELLMARGIN_END
 94
        6
 95
        1
302
GRIDFORMAT
  1
GRIDFORMAT_BEGIN
 90
        0
 91
        1
 62
     0
 92
       -2
340
0
 93
        0
 40
0.045
309
GRIDFORMAT_END
 95
        2
302
GRIDFORMAT
  1
GRIDFORMAT_BEGIN
 90
        0
 91
        1
 62
     0
 92
       -2
340
0
 93
        0
 40
0.045
309
GRIDFORMAT_END
 95
        4
302
GRIDFORMAT
  1
GRIDFORMAT_BEGIN
 90
        0
 91
        1
 62
     0
 92
       -2
340
0
 93
        0
 40
0.045
309
GRIDFORMAT_END
 95
        8
302
GRIDFORMAT
  1
GRIDFORMAT_BEGIN
 90
        0
 91
        1
 62
     0
 92
       -2
340
0
 93
        0
 40
0.045
309
GRIDFORMAT_END
 95
       16
302
GRIDFORMAT
  1
GRIDFORMAT_BEGIN
 90
        0
 91
        1
 62
     0
 92
       -2
340
0
 93
        0
 40
0.045
309
GRIDFORMAT_END
 95
       32
302
GRIDFORMAT
  1
GRIDFORMAT_BEGIN
 90
        0
 91
        1
 62
     0
 92
       -2
340
0
 93
        0
 40
0.045
309
GRIDFORMAT_END
309
TABLEFORMAT_END
  1
CELLSTYLE_BEGIN
 90
        3
 91
        2
300
_DATA
309
CELLSTYLE_END
  0
DMBASEELEMENT
  5
20E
102
{ACAD_XDICTIONARY
360
212
102
}
102
{ACAD_REACTORS
330
20B
102
}
330
20B
100
AcMapDMBaseElement
 70
     1
  1
Kartenbasis
 70
     1
330
20B
100
AcMapDMBaseElement
 70
     2
  1

 70
     2
  1

 70
     1
 40
1.797693134862314E+99
 70
        1
 70
     1
 70
     1
 70
     1
360
211
100
AcMapDMBaseElement
 70
     1
  0
DMDEFAULTSTYLE
  5
20F
102
{ACAD_REACTORS
330
20B
102
}
330
20B
100
AcMapDMDefaultStyle
 70
     1
 90
        1
  1
Vorgabe
100
AcMapDMDefaultStyle
 70
     1
280
   100
 90
        0
1001
AcMapDMDisplayStyleRegapp
1070
     2
1071
        1
1000
Vorgabe
1000

  0
DICTIONARY
  5
212
330
20E
100
AcDbDictionary
280
     1
281
     1
  3
AcMapDMSurrogateStyleSets
360
213
  0
DMSTYLEREFERENCE
  5
211
330
20E
100
AcMapDMStyleReference
 70
     1
 70
     0
340
20F
330
20B
  0
DMSURROGATESTYLESETS
  5
213
102
{ACAD_REACTORS
330
212
102
}
330
212
100
AcMapDMSurrogateStyleSets
 70
     1
  1
Kartenbasis
 70
     1
 40
1.797693134862314E+99
 70
        1
 70
     1
 70
     1
 70
     1
330
211
 70
     0
  0
ENDSEC
  0
SECTION
  2
ACDSDATA
 70
     2
 71
     8
  0
ACDSSCHEMA
 90
        0
  1
AcDb_Thumbnail_Schema
  2
AcDbDs::ID
280
    10
 91
        8
  2
Thumbnail_Data
280
    15
 91
        0
101
ACDSRECORD
 95
        0
 90
        1
  2
AcDbDs::TreatedAsObjectData
280
     1
291
     1
101
ACDSRECORD
 95
        0
 90
        2
  2
AcDbDs::Legacy
280
     1
291
     1
101
ACDSRECORD
  1
AcDbDs::ID
 90
        3
  2
AcDs:Indexable
280
     1
291
     1
101
ACDSRECORD
  1
AcDbDs::ID
 90
        4
  2
AcDbDs::HandleAttribute
280
     7
282
     1
  0
ACDSSCHEMA
 90
        1
  1
AcDbDs::TreatedAsObjectDataSchema
  2
AcDbDs::TreatedAsObjectData
280
     1
 91
        0
  0
ACDSSCHEMA
 90
        2
  1
AcDbDs::LegacySchema
  2
AcDbDs::Legacy
280
     1
 91
        0
  0
ACDSSCHEMA
 90
        3
  1
AcDbDs::IndexedPropertySchema
  2
AcDs:Indexable
280
     1
 91
        0
  0
ACDSSCHEMA
 90
        4
  1
AcDbDs::HandleAttributeSchema
  2
AcDbDs::HandleAttribute
280
     7
 91
        1
284
     1
  0
ACDSRECORD
 90
        0
  2
AcDbDs::ID
280
    10
320
22
  2
Thumbnail_Data
280
    15
 94
     1311
310
89504E470D0A1A0A0000000D49484452000001000000009308030000005629370D00000300504C5445000000FFFFFF0000000000000000000000000000000000000000000000000000000000330000660000990000CC0000FF0033000033330033660033990033CC0033FF0066000066330066660066990066CC0066FF0099
310
000099330099660099990099CC0099FF00CC0000CC3300CC6600CC9900CCCC00CCFF00FF0000FF3300FF6600FF9900FFCC00FFFF3300003300333300663300993300CC3300FF3333003333333333663333993333CC3333FF3366003366333366663366993366CC3366FF3399003399333399663399993399CC3399FF33CC00
310
33CC3333CC6633CC9933CCCC33CCFF33FF0033FF3333FF6633FF9933FFCC33FFFF6600006600336600666600996600CC6600FF6633006633336633666633996633CC6633FF6666006666336666666666996666CC6666FF6699006699336699666699996699CC6699FF66CC0066CC3366CC6666CC9966CCCC66CCFF66FF0066
310
FF3366FF6666FF9966FFCC66FFFF9900009900339900669900999900CC9900FF9933009933339933669933999933CC9933FF9966009966339966669966999966CC9966FF9999009999339999669999999999CC9999FF99CC0099CC3399CC6699CC9999CCCC99CCFF99FF0099FF3399FF6699FF9999FFCC99FFFFCC0000CC00
310
33CC0066CC0099CC00CCCC00FFCC3300CC3333CC3366CC3399CC33CCCC33FFCC6600CC6633CC6666CC6699CC66CCCC66FFCC9900CC9933CC9966CC9999CC99CCCC99FFCCCC00CCCC33CCCC66CCCC99CCCCCCCCCCFFCCFF00CCFF33CCFF66CCFF99CCFFCCCCFFFFFF0000FF0033FF0066FF0099FF00CCFF00FFFF3300FF3333
310
FF3366FF3399FF33CCFF33FFFF6600FF6633FF6666FF6699FF66CCFF66FFFF9900FF9933FF9966FF9999FF99CCFF99FFFFCC00FFCC33FFCC66FFCC99FFCCCCFFCCFFFFFF00FFFF33FFFF66FFFF99FFFFCCFFFFFF0000000D0D0D1A1A1A2828283535354343435050505D5D5D6B6B6B787878868686939393A1A1A1AEAEAEBB
310
BBBBC9C9C9D6D6D6E4E4E4F1F1F1FFFFFF0000000000000000000000000000000000000000000000000000000000003AE5ACE9000000FB4944415478DAEDDA010DC4300C0441F307652401539545941D33B8917D9F4A3F638CB96CF6D401567E000000C80F00000000F2173F04E204FB4F1C40070070010000A80000005400
310
00002A0000001500C00500700116C00258000B203F00F9DFCE6F01E40720BF37A005B00016A097FFD417E06800002A302DA00201A800BF01160000001500000080DC1C1DE847000000003A10800B000000800EB400005C00001700C00558000B600100C8AF00E47F3CFFCA2FBF02905FFE627EFF8C955F01A4057C02035001
310
00E4570100000000000000000000BC85731BB07980D50100000000E01900C009000000000000000000780A96006600003077CD0774A704C4655A7BBE0000000049454E44AE4260821A08000000000000000000008059000000000000380701C80100724008009003042401010004080070141200A00A009003000000000000
310
000000000000300D0100A00800900300E400003900400E00F8FFAB3B3D020E81E014E84AAF01F1EF4B7B5970785A511FA01504E0693D004E4245501F10BC1A000000F66F7D6B3D007F61440C8325AC390000000049454E44AE42608224BD0DAB5FE5BA89C59436F93DDDA61E6BDC7F40F54301141CC0FC1F5E2280CB791E33
310
01020DA082BDD4AF7EF5AB5F00EA1780FA5D6F5D1FC37207618EA3419E0000000049454E44AE426082
  0
ENDSEC
  0
EOF
