  0
SECTION
  2
HEADER
  9
$ACADVER
  1
AC1027
  9
$ACADMAINTVER
 70
   125
  9
$DWGCODEPAGE
  3
ANSI_1252
  9
$LASTSAVEDBY
  1
P04857991
  9
$REQUIREDVERSIONS
160
                 0
  9
$INSBASE
 10
0.0
 20
0.0
 30
0.0
  9
$EXTMIN
 10
99237.44903300359
 20
302628.418552167
 30
-0.0015258207003583
  9
$EXTMAX
 10
100077.3054567862
 20
303489.5219846184
 30
0.0000000349246037
  9
$LIMMIN
 10
0.0
 20
0.0
  9
$LIMMAX
 10
12.0
 20
9.0
  9
$ORTHOMODE
 70
     0
  9
$REGENMODE
 70
     1
  9
$FILLMODE
 70
     1
  9
$QTEXTMODE
 70
     0
  9
$MIRRTEXT
 70
     0
  9
$LTSCALE
 40
1.0
  9
$ATTMODE
 70
     1
  9
$TEXTSIZE
 40
0.2
  9
$TRACEWID
 40
0.05
  9
$TEXTSTYLE
  7
Legend
  9
$CLAYER
  8
0
  9
$CELTYPE
  6
ByLayer
  9
$CECOLOR
 62
   256
  9
$CELTSCALE
 40
1.0
  9
$DISPSILH
 70
     0
  9
$DIMSCALE
 40
1.0
  9
$DIMASZ
 40
0.18
  9
$DIMEXO
 40
0.0625
  9
$DIMDLI
 40
0.38
  9
$DIMRND
 40
0.0
  9
$DIMDLE
 40
0.0
  9
$DIMEXE
 40
0.18
  9
$DIMTP
 40
0.0
  9
$DIMTM
 40
0.0
  9
$DIMTXT
 40
0.18
  9
$DIMCEN
 40
0.09
  9
$DIMTSZ
 40
0.0
  9
$DIMTOL
 70
     0
  9
$DIMLIM
 70
     0
  9
$DIMTIH
 70
     1
  9
$DIMTOH
 70
     1
  9
$DIMSE1
 70
     0
  9
$DIMSE2
 70
     0
  9
$DIMTAD
 70
     0
  9
$DIMZIN
 70
     0
  9
$DIMBLK
  1

  9
$DIMASO
 70
     1
  9
$DIMSHO
 70
     1
  9
$DIMPOST
  1

  9
$DIMAPOST
  1

  9
$DIMALT
 70
     0
  9
$DIMALTD
 70
     2
  9
$DIMALTF
 40
25.4
  9
$DIMLFAC
 40
1.0
  9
$DIMTOFL
 70
     0
  9
$DIMTVP
 40
0.0
  9
$DIMTIX
 70
     0
  9
$DIMSOXD
 70
     0
  9
$DIMSAH
 70
     0
  9
$DIMBLK1
  1

  9
$DIMBLK2
  1

  9
$DIMSTYLE
  2
Standard
  9
$DIMCLRD
 70
     0
  9
$DIMCLRE
 70
     0
  9
$DIMCLRT
 70
     0
  9
$DIMTFAC
 40
1.0
  9
$DIMGAP
 40
0.09
  9
$DIMJUST
 70
     0
  9
$DIMSD1
 70
     0
  9
$DIMSD2
 70
     0
  9
$DIMTOLJ
 70
     1
  9
$DIMTZIN
 70
     0
  9
$DIMALTZ
 70
     0
  9
$DIMALTTZ
 70
     0
  9
$DIMUPT
 70
     0
  9
$DIMDEC
 70
     4
  9
$DIMTDEC
 70
     4
  9
$DIMALTU
 70
     2
  9
$DIMALTTD
 70
     2
  9
$DIMTXSTY
  7
Standard
  9
$DIMAUNIT
 70
     0
  9
$DIMADEC
 70
     0
  9
$DIMALTRND
 40
0.0
  9
$DIMAZIN
 70
     0
  9
$DIMDSEP
 70
    46
  9
$DIMATFIT
 70
     3
  9
$DIMFRAC
 70
     0
  9
$DIMLDRBLK
  1

  9
$DIMLUNIT
 70
     2
  9
$DIMLWD
 70
    -2
  9
$DIMLWE
 70
    -2
  9
$DIMTMOVE
 70
     0
  9
$DIMFXL
 40
1.0
  9
$DIMFXLON
 70
     0
  9
$DIMJOGANG
 40
0.7853981633974483
  9
$DIMTFILL
 70
     0
  9
$DIMTFILLCLR
 70
     0
  9
$DIMARCSYM
 70
     0
  9
$DIMLTYPE
  6

  9
$DIMLTEX1
  6

  9
$DIMLTEX2
  6

  9
$DIMTXTDIRECTION
 70
     0
  9
$LUNITS
 70
     2
  9
$LUPREC
 70
     4
  9
$SKETCHINC
 40
0.1
  9
$FILLETRAD
 40
0.0
  9
$AUNITS
 70
     0
  9
$AUPREC
 70
     0
  9
$MENU
  1
.
  9
$ELEVATION
 40
0.0
  9
$PELEVATION
 40
0.0
  9
$THICKNESS
 40
0.0
  9
$LIMCHECK
 70
     0
  9
$CHAMFERA
 40
0.0
  9
$CHAMFERB
 40
0.0
  9
$CHAMFERC
 40
0.0
  9
$CHAMFERD
 40
0.0
  9
$SKPOLY
 70
     0
  9
$TDCREATE
 40
2459389.492465278
  9
$TDUCREATE
 40
2459389.409131945
  9
$TDUPDATE
 40
2459390.525578704
  9
$TDUUPDATE
 40
2459390.442245370
  9
$TDINDWG
 40
0.0653819444
  9
$TDUSRTIMER
 40
0.0653587963
  9
$USRTIMER
 70
     1
  9
$ANGBASE
 50
0.0
  9
$ANGDIR
 70
     0
  9
$PDMODE
 70
     0
  9
$PDSIZE
 40
0.0
  9
$PLINEWID
 40
0.0
  9
$SPLFRAME
 70
     0
  9
$SPLINETYPE
 70
     6
  9
$SPLINESEGS
 70
     8
  9
$HANDSEED
  5
6DD
  9
$SURFTAB1
 70
     6
  9
$SURFTAB2
 70
     6
  9
$SURFTYPE
 70
     6
  9
$SURFU
 70
     6
  9
$SURFV
 70
     6
  9
$UCSBASE
  2

  9
$UCSNAME
  2

  9
$UCSORG
 10
0.0
 20
0.0
 30
0.0
  9
$UCSXDIR
 10
1.0
 20
0.0
 30
0.0
  9
$UCSYDIR
 10
0.0
 20
1.0
 30
0.0
  9
$UCSORTHOREF
  2

  9
$UCSORTHOVIEW
 70
     0
  9
$UCSORGTOP
 10
0.0
 20
0.0
 30
0.0
  9
$UCSORGBOTTOM
 10
0.0
 20
0.0
 30
0.0
  9
$UCSORGLEFT
 10
0.0
 20
0.0
 30
0.0
  9
$UCSORGRIGHT
 10
0.0
 20
0.0
 30
0.0
  9
$UCSORGFRONT
 10
0.0
 20
0.0
 30
0.0
  9
$UCSORGBACK
 10
0.0
 20
0.0
 30
0.0
  9
$PUCSBASE
  2

  9
$PUCSNAME
  2

  9
$PUCSORG
 10
0.0
 20
0.0
 30
0.0
  9
$PUCSXDIR
 10
1.0
 20
0.0
 30
0.0
  9
$PUCSYDIR
 10
0.0
 20
1.0
 30
0.0
  9
$PUCSORTHOREF
  2

  9
$PUCSORTHOVIEW
 70
     0
  9
$PUCSORGTOP
 10
0.0
 20
0.0
 30
0.0
  9
$PUCSORGBOTTOM
 10
0.0
 20
0.0
 30
0.0
  9
$PUCSORGLEFT
 10
0.0
 20
0.0
 30
0.0
  9
$PUCSORGRIGHT
 10
0.0
 20
0.0
 30
0.0
  9
$PUCSORGFRONT
 10
0.0
 20
0.0
 30
0.0
  9
$PUCSORGBACK
 10
0.0
 20
0.0
 30
0.0
  9
$USERI1
 70
     0
  9
$USERI2
 70
     0
  9
$USERI3
 70
     0
  9
$USERI4
 70
     0
  9
$USERI5
 70
     0
  9
$USERR1
 40
0.0
  9
$USERR2
 40
0.0
  9
$USERR3
 40
0.0
  9
$USERR4
 40
0.0
  9
$USERR5
 40
0.0
  9
$WORLDVIEW
 70
     1
  9
$SHADEDGE
 70
     3
  9
$SHADEDIF
 70
    70
  9
$TILEMODE
 70
     1
  9
$MAXACTVP
 70
    64
  9
$PINSBASE
 10
0.0
 20
0.0
 30
0.0
  9
$PLIMCHECK
 70
     0
  9
$PEXTMIN
 10
0.0
 20
0.0
 30
0.0
  9
$PEXTMAX
 10
0.0
 20
0.0
 30
0.0
  9
$PLIMMIN
 10
0.0
 20
0.0
  9
$PLIMMAX
 10
12.0
 20
9.0
  9
$UNITMODE
 70
     0
  9
$VISRETAIN
 70
     1
  9
$PLINEGEN
 70
     0
  9
$PSLTSCALE
 70
     1
  9
$TREEDEPTH
 70
  3020
  9
$CMLSTYLE
  2
Standard
  9
$CMLJUST
 70
     0
  9
$CMLSCALE
 40
1.0
  9
$PROXYGRAPHICS
 70
     1
  9
$MEASUREMENT
 70
     1
  9
$CELWEIGHT
370
    -1
  9
$ENDCAPS
280
     0
  9
$JOINSTYLE
280
     0
  9
$LWDISPLAY
290
     0
  9
$INSUNITS
 70
     1
  9
$HYPERLINKBASE
  1

  9
$STYLESHEET
  1

  9
$XEDIT
290
     1
  9
$CEPSNTYPE
380
     0
  9
$PSTYLEMODE
290
     1
  9
$FINGERPRINTGUID
  2
{64AB614E-DCAE-D841-BC38-59E23EB6FA23}
  9
$VERSIONGUID
  2
{91CA07C6-5933-3047-B893-41A9956FE873}
  9
$EXTNAMES
290
     1
  9
$PSVPSCALE
 40
0.0
  9
$OLESTARTUP
290
     0
  9
$SORTENTS
280
   127
  9
$INDEXCTL
280
     0
  9
$HIDETEXT
280
     1
  9
$XCLIPFRAME
280
     2
  9
$HALOGAP
280
     0
  9
$OBSCOLOR
 70
   257
  9
$OBSLTYPE
280
     0
  9
$INTERSECTIONDISPLAY
280
     0
  9
$INTERSECTIONCOLOR
 70
   257
  9
$DIMASSOC
280
     2
  9
$PROJECTNAME
  1

  9
$CAMERADISPLAY
290
     0
  9
$LENSLENGTH
 40
50.0
  9
$CAMERAHEIGHT
 40
0.0
  9
$STEPSPERSEC
 40
2.0
  9
$STEPSIZE
 40
100.0
  9
$3DDWFPREC
 40
2.0
  9
$PSOLWIDTH
 40
0.25
  9
$PSOLHEIGHT
 40
4.0
  9
$LOFTANG1
 40
1.570796326794896
  9
$LOFTANG2
 40
1.570796326794896
  9
$LOFTMAG1
 40
0.0
  9
$LOFTMAG2
 40
0.0
  9
$LOFTPARAM
 70
     7
  9
$LOFTNORMALS
280
     1
  9
$LATITUDE
 40
37.795
  9
$LONGITUDE
 40
-122.394
  9
$NORTHDIRECTION
 40
0.0
  9
$TIMEZONE
 70
 -8000
  9
$LIGHTGLYPHDISPLAY
280
     1
  9
$TILEMODELIGHTSYNCH
280
     1
  9
$CMATERIAL
347
96
  9
$SOLIDHIST
280
     0
  9
$SHOWHIST
280
     1
  9
$DWFFRAME
280
     2
  9
$DGNFRAME
280
     0
  9
$REALWORLDSCALE
290
     1
  9
$INTERFERECOLOR
 62
     1
  9
$INTERFEREOBJVS
345
A3
  9
$INTERFEREVPVS
346
A0
  9
$CSHADOW
280
     0
  9
$SHADOWPLANELOCATION
 40
0.0
  0
ENDSEC
  0
SECTION
  2
CLASSES
  0
CLASS
  1
ACDBDICTIONARYWDFLT
  2
AcDbDictionaryWithDefault
  3
ObjectDBX Classes
 90
        0
 91
        1
280
     0
281
     0
  0
CLASS
  1
DICTIONARYVAR
  2
AcDbDictionaryVar
  3
ObjectDBX Classes
 90
        0
 91
        9
280
     0
281
     0
  0
CLASS
  1
TABLESTYLE
  2
AcDbTableStyle
  3
ObjectDBX Classes
 90
     4095
 91
        2
280
     0
281
     0
  0
CLASS
  1
MATERIAL
  2
AcDbMaterial
  3
ObjectDBX Classes
 90
     1153
 91
        3
280
     0
281
     0
  0
CLASS
  1
VISUALSTYLE
  2
AcDbVisualStyle
  3
ObjectDBX Classes
 90
     4095
 91
       24
280
     0
281
     0
  0
CLASS
  1
SCALE
  2
AcDbScale
  3
ObjectDBX Classes
 90
     1153
 91
       33
280
     0
281
     0
  0
CLASS
  1
MLEADERSTYLE
  2
AcDbMLeaderStyle
  3
ACDB_MLEADERSTYLE_CLASS
 90
     4095
 91
        2
280
     0
281
     0
  0
CLASS
  1
CELLSTYLEMAP
  2
AcDbCellStyleMap
  3
ObjectDBX Classes
 90
     1152
 91
       12
280
     0
281
     0
  0
CLASS
  1
EXACXREFPANELOBJECT
  2
ExAcXREFPanelObject
  3
EXAC_ESW
 90
     1025
 91
        0
280
     0
281
     0
  0
CLASS
  1
NPOCOLLECTION
  2
AcDbImpNonPersistentObjectsCollection
  3
ObjectDBX Classes
 90
     1153
 91
        0
280
     0
281
     0
  0
CLASS
  1
LAYER_INDEX
  2
AcDbLayerIndex
  3
ObjectDBX Classes
 90
        0
 91
        0
280
     0
281
     0
  0
CLASS
  1
SPATIAL_INDEX
  2
AcDbSpatialIndex
  3
ObjectDBX Classes
 90
        0
 91
        0
280
     0
281
     0
  0
CLASS
  1
IDBUFFER
  2
AcDbIdBuffer
  3
ObjectDBX Classes
 90
        0
 91
        0
280
     0
281
     0
  0
CLASS
  1
ACDBSECTIONVIEWSTYLE
  2
AcDbSectionViewStyle
  3
ObjectDBX Classes
 90
     1025
 91
        2
280
     0
281
     0
  0
CLASS
  1
ACDBDETAILVIEWSTYLE
  2
AcDbDetailViewStyle
  3
ObjectDBX Classes
 90
     1025
 91
        2
280
     0
281
     0
  0
CLASS
  1
DMMAPMANAGER
  2
AcMapDMMapManager
  3
AcMapDisplayManagement
 90
     1024
 91
        1
280
     0
281
     0
  0
CLASS
  1
DMSTYLELIBRARY
  2
AcMapDMStyleLibrary
  3
AcMapDisplayManagement
 90
     1024
 91
        1
280
     0
281
     0
  0
CLASS
  1
DMSTYLECATEGORY
  2
AcMapDMStyleCategory
  3
AcMapDisplayManagement
 90
     1024
 91
        1
280
     0
281
     0
  0
CLASS
  1
DATATABLE
  2
AcDbDataTable
  3
ObjectDBX Classes
 90
        0
 91
        1
280
     0
281
     0
  0
CLASS
  1
MAPRESOURCEMANAGEROBJECT
  2
AcMapResourceManager
  3
AcMapSharedComponents
 90
     1024
 91
        1
280
     0
281
     0
  0
CLASS
  1
MAPGWSUNDOOBJECT
  2
AcMapGWSUndoRecorder
  3
AcMapFeatureSourceManager
 90
     1025
 91
        1
280
     0
281
     0
  0
CLASS
  1
DMMAP
  2
AcMapDMMap
  3
AcMapDisplayManagement
 90
     1024
 91
        1
280
     0
281
     0
  0
CLASS
  1
DMBASEELEMENT
  2
AcMapDMBaseElement
  3
AcMapDisplayManagement
 90
     1024
 91
        1
280
     0
281
     0
  0
CLASS
  1
DMDEFAULTSTYLE
  2
AcMapDMDefaultStyle
  3
AcMapDisplayManagement
 90
     1024
 91
        1
280
     0
281
     0
  0
CLASS
  1
DMSTYLEREFERENCE
  2
AcMapDMStyleReference
  3
AcMapDisplayManagement
 90
     1024
 91
        1
280
     0
281
     0
  0
CLASS
  1
DMSURROGATESTYLESETS
  2
AcMapDMSurrogateStyleSets
  3
AcMapDisplayManagement
 90
     1153
 91
        1
280
     0
281
     0
  0
CLASS
  1
SORTENTSTABLE
  2
AcDbSortentsTable
  3
ObjectDBX Classes
 90
        0
 91
        1
280
     0
281
     0
  0
CLASS
  1
DMSTYLIZEDENTITIESTABLE
  2
AcMapDMStylizedEntitiesTable
  3
AcMapDisplayManagement
 90
     1024
 91
        1
280
     0
281
     0
  0
CLASS
  1
SUN
  2
AcDbSun
  3
SCENEOE
 90
     1153
 91
        1
280
     0
281
     0
  0
CLASS
  1
IRD_DSC_DICT
  2
CIrdDscDict
  3
"IRD"
 90
     1025
 91
        1
280
     0
281
     0
  0
CLASS
  1
IRD_DSC_RECORD
  2
CIrdDscRecord
  3
"IRD"
 90
     1025
 91
        3
280
     0
281
     0
  0
CLASS
  1
IRD_OBJ_RECORD
  2
CIrdObjRecord
  3
"IRD"
 90
     1025
 91
      144
280
     0
281
     0
  0
ENDSEC
  0
SECTION
  2
TABLES
  0
TABLE
  2
VPORT
  5
8
330
0
100
AcDbSymbolTable
 70
     1
1001
ACAD
1000
DbSaveVer
1071
      122
  0
VPORT
  5
94
330
8
100
AcDbSymbolTableRecord
100
AcDbViewportTableRecord
  2
*Active
 70
     0
 10
0.0
 20
0.0
 11
1.0
 21
1.0
 12
99657.37724489489
 22
303058.9702683927
 13
0.0
 23
0.0
 14
0.5
 24
0.5
 15
0.5
 25
0.5
 16
0.0
 26
0.0
 36
1.0
 17
0.0
 27
0.0
 37
0.0
 40
868.7690416424302
 41
1.736998514115899
 42
50.0
 43
0.0
 44
0.0
 50
0.0
 51
0.0
 71
     0
 72
  1000
 73
     1
 74
     3
 75
     0
 76
     0
 77
     0
 78
     0
281
     0
 65
     1
110
0.0
120
0.0
130
0.0
111
1.0
121
0.0
131
0.0
112
0.0
122
1.0
132
0.0
 79
     0
146
0.0
348
9F
 60
     3
 61
     5
292
     1
282
     1
141
0.0
142
0.0
 63
   250
421
  3355443
361
217
1001
ACAD_NAV_VCDISPLAY
1070
     3
  0
ENDTAB
  0
TABLE
  2
LTYPE
  5
5
330
0
100
AcDbSymbolTable
 70
     3
  0
LTYPE
  5
14
330
5
100
AcDbSymbolTableRecord
100
AcDbLinetypeTableRecord
  2
ByBlock
 70
     0
  3

 72
    65
 73
     0
 40
0.0
  0
LTYPE
  5
15
330
5
100
AcDbSymbolTableRecord
100
AcDbLinetypeTableRecord
  2
ByLayer
 70
     0
  3

 72
    65
 73
     0
 40
0.0
  0
LTYPE
  5
16
330
5
100
AcDbSymbolTableRecord
100
AcDbLinetypeTableRecord
  2
Continuous
 70
     0
  3
Solid line
 72
    65
 73
     0
 40
0.0
  0
LTYPE
  5
265
330
5
100
AcDbSymbolTableRecord
100
AcDbLinetypeTableRecord
  2
STRP1
 70
     0
  3
strichpunktierte linie fuer einbauteile
 72
    65
 73
     4
 40
0.4100000000000001
 49
0.25
 74
     0
 49
-0.06
 74
     0
 49
0.04
 74
     0
 49
-0.06
 74
     0
  0
LTYPE
  5
266
330
5
100
AcDbSymbolTableRecord
100
AcDbLinetypeTableRecord
  2
PT1
 70
     0
  3
punktierte linie - eng
 72
    65
 73
     2
 40
0.07
 49
0.02
 74
     0
 49
-0.05
 74
     0
  0
ENDTAB
  0
TABLE
  2
LAYER
  5
2
102
{ACAD_XDICTIONARY
360
18E
102
}
330
0
100
AcDbSymbolTable
 70
     7
  0
LAYER
  5
10
102
{ACAD_XDICTIONARY
360
E6
102
}
330
2
100
AcDbSymbolTableRecord
100
AcDbLayerTableRecord
  2
0
 70
     0
 62
     7
  6
Continuous
370
    -3
390
F
347
98
348
0
  0
LAYER
  5
50B
330
2
100
AcDbSymbolTableRecord
100
AcDbLayerTableRecord
  2
Straßenverlauf_ACHS
 70
     0
 62
    50
  6
Continuous
370
    -3
390
F
347
98
348
0
  0
LAYER
  5
547
330
2
100
AcDbSymbolTableRecord
100
AcDbLayerTableRecord
  2
Straßenverlauf_FBRD
 70
     0
 62
    10
  6
Continuous
370
    -3
390
F
347
98
348
0
  0
ENDTAB
  0
TABLE
  2
STYLE
  5
3
330
0
100
AcDbSymbolTable
 70
     3
  0
STYLE
  5
11
330
3
100
AcDbSymbolTableRecord
100
AcDbTextStyleTableRecord
  2
Standard
 70
     0
 40
0.0
 41
1.0
 50
0.0
 71
     0
 42
0.2
  3
arial.ttf
  4

1001
ACAD
1000
Arial
1071
       34
  0
STYLE
  5
DC
330
3
100
AcDbSymbolTableRecord
100
AcDbTextStyleTableRecord
  2
Beschriftung
 70
     0
 40
0.0
 41
1.0
 50
0.0
 71
     0
 42
0.2
  3
arial.ttf
  4

1001
AcadAnnotative
1000
AnnotativeData
1002
{
1070
     1
1070
     1
1002
}
1001
ACAD
1000
Arial
1071
       34
  0
STYLE
  5
20C
330
3
100
AcDbSymbolTableRecord
100
AcDbTextStyleTableRecord
  2
Legend
 70
     0
 40
0.0
 41
1.0
 50
0.0
 71
     0
 42
0.2
  3
calibri.ttf
  4

1001
ACAD
1000
Calibri
1071
       80
  0
ENDTAB
  0
TABLE
  2
VIEW
  5
6
330
0
100
AcDbSymbolTable
 70
     9
  0
ENDTAB
  0
TABLE
  2
UCS
  5
7
330
0
100
AcDbSymbolTable
 70
     0
  0
ENDTAB
  0
TABLE
  2
APPID
  5
9
330
0
100
AcDbSymbolTable
 70
    14
  0
APPID
  5
12
330
9
100
AcDbSymbolTableRecord
100
AcDbRegAppTableRecord
  2
ACAD
 70
     0
  0
APPID
  5
DD
330
9
100
AcDbSymbolTableRecord
100
AcDbRegAppTableRecord
  2
AcadAnnoPO
 70
     0
  0
APPID
  5
DE
330
9
100
AcDbSymbolTableRecord
100
AcDbRegAppTableRecord
  2
AcadAnnotative
 70
     0
  0
APPID
  5
DF
330
9
100
AcDbSymbolTableRecord
100
AcDbRegAppTableRecord
  2
ACAD_DSTYLE_DIMJAG
 70
     0
  0
APPID
  5
E0
330
9
100
AcDbSymbolTableRecord
100
AcDbRegAppTableRecord
  2
ACAD_DSTYLE_DIMTALN
 70
     0
  0
APPID
  5
107
330
9
100
AcDbSymbolTableRecord
100
AcDbRegAppTableRecord
  2
ACAD_MLEADERVER
 70
     0
  0
APPID
  5
1A6
330
9
100
AcDbSymbolTableRecord
100
AcDbRegAppTableRecord
  2
ACAD_NAV_VCDISPLAY
 70
     0
  0
APPID
  5
210
330
9
100
AcDbSymbolTableRecord
100
AcDbRegAppTableRecord
  2
AcMapDMDisplayStyleRegapp
 70
     0
  0
APPID
  5
21A
330
9
100
AcDbSymbolTableRecord
100
AcDbRegAppTableRecord
  2
ADE
 70
     0
  0
APPID
  5
21F
330
9
100
AcDbSymbolTableRecord
100
AcDbRegAppTableRecord
  2
DCO15
 70
     0
  0
APPID
  5
221
330
9
100
AcDbSymbolTableRecord
100
AcDbRegAppTableRecord
  2
MapGWS
 70
     0
  0
APPID
  5
32B
330
9
100
AcDbSymbolTableRecord
100
AcDbRegAppTableRecord
  2
ADE_PROJECTION
 70
     0
  0
APPID
  5
343
330
9
100
AcDbSymbolTableRecord
100
AcDbRegAppTableRecord
  2
AcMap_E615D161-C9D7-11d3-839F-0060B0FB6B57
 70
     0
  0
APPID
  5
347
330
9
100
AcDbSymbolTableRecord
100
AcDbRegAppTableRecord
  2
IRD
 70
     0
  0
ENDTAB
  0
TABLE
  2
DIMSTYLE
  5
A
330
0
100
AcDbSymbolTable
 70
     2
100
AcDbDimStyleTable
 71
     2
340
27
340
E1
  0
DIMSTYLE
105
27
330
A
100
AcDbSymbolTableRecord
100
AcDbDimStyleTableRecord
  2
Standard
 70
     0
340
11
  0
DIMSTYLE
105
E1
330
A
100
AcDbSymbolTableRecord
100
AcDbDimStyleTableRecord
  2
Beschriftung
 70
     0
 40
0.0
340
11
1001
AcadAnnotative
1000
AnnotativeData
1002
{
1070
     1
1070
     1
1002
}
1001
ACAD_DSTYLE_DIMJAG
1070
   388
1040
1.5
1001
ACAD_DSTYLE_DIMTALN
1070
   392
1070
     0
  0
ENDTAB
  0
TABLE
  2
BLOCK_RECORD
  5
1
330
0
100
AcDbSymbolTable
 70
     1
  0
BLOCK_RECORD
  5
1F
102
{ACAD_XDICTIONARY
360
15D
102
}
330
1
100
AcDbSymbolTableRecord
100
AcDbBlockTableRecord
  2
*Model_Space
340
22
 70
     0
280
     1
281
     0
  0
BLOCK_RECORD
  5
58
330
1
100
AcDbSymbolTableRecord
100
AcDbBlockTableRecord
  2
*Paper_Space
340
59
 70
     0
280
     1
281
     0
  0
BLOCK_RECORD
  5
5D
330
1
100
AcDbSymbolTableRecord
100
AcDbBlockTableRecord
  2
*Paper_Space0
340
5E
 70
     0
280
     1
281
     0
  0
ENDTAB
  0
ENDSEC
  0
SECTION
  2
BLOCKS
  0
BLOCK
  5
20
330
1F
100
AcDbEntity
  8
0
100
AcDbBlockBegin
  2
*Model_Space
 70
     0
 10
0.0
 20
0.0
 30
0.0
  3
*Model_Space
  1

  0
ENDBLK
  5
21
330
1F
100
AcDbEntity
  8
0
100
AcDbBlockEnd
  0
BLOCK
  5
5A
330
58
100
AcDbEntity
 67
     1
  8
0
100
AcDbBlockBegin
  2
*Paper_Space
 70
     0
 10
0.0
 20
0.0
 30
0.0
  3
*Paper_Space
  1

  0
ENDBLK
  5
5B
330
58
100
AcDbEntity
 67
     1
  8
0
100
AcDbBlockEnd
  0
BLOCK
  5
5F
330
5D
100
AcDbEntity
 67
     1
  8
0
100
AcDbBlockBegin
  2
*Paper_Space0
 70
     0
 10
0.0
 20
0.0
 30
0.0
  3
*Paper_Space0
  1

  0
ENDBLK
  5
60
330
5D
100
AcDbEntity
 67
     1
  8
0
100
AcDbBlockEnd
  0
ENDSEC
  0
SECTION
  2
ENTITIES
  0
LWPOLYLINE
  5
5DF
330
1F
100
AcDbEntity
  8
Straßenverlauf_ACHS
100
AcDbPolyline
 90
       21
 70
     0
 43
0.0
 10
99372.75299999956
 20
302746.3796999995
 10
99369.59499999973
 20
302745.8249999993
 10
99364.70500000007
 20
302744.7949999999
 10
99360.81500000041
 20
302743.8550000005
 10
99357.91500000004
 20
302743.0850000009
 10
99355.03500000015
 20
302742.2550000008
 10
99350.26999999955
 20
302740.7449999992
 10
99344.08999999986
 20
302738.5050000008
 10
99340.84179999958
 20
302737.1578000002
 10
99337.82550000026
 20
302735.8136999998
 10
99335.06319999974
 20
302734.4591000006
 10
99330.68169999961
 20
302732.0778000001
 10
99326.97850000019
 20
302729.7727000006
 10
99321.58420000039
 20
302726.0107000005
 10
99316.43649999983
 20
302721.9178
 10
99308.26009999961
 20
302714.7079000008
 10
99303.84250000026
 20
302710.2437999994
 10
99295.19060000032
 20
302700.5203000009
 10
99279.67279999982
 20
302681.8169
 10
99260.83440000006
 20
302658.4276999999
 10
99240.11670000012
 20
302632.3413999993
1001
AcMap_E615D161-C9D7-11d3-839F-0060B0FB6B57
1071
        1
1071
        5
  0
LWPOLYLINE
  5
5E0
330
1F
100
AcDbEntity
  8
Straßenverlauf_ACHS
100
AcDbPolyline
 90
        9
 70
     0
 43
0.0
 10
99372.75299999956
 20
302746.3796999995
 10
99371.29930000008
 20
302755.8938999996
 10
99371.30266781656
 20
302756.9376173643
 10
99371.45703294564
 20
302757.9698618539
 10
99371.7591458817
 20
302758.9689039218
 10
99372.20264691319
 20
302759.9137129579
 10
99372.77819999959
 20
302760.7843999993
 10
99376.94519999995
 20
302765.7566
 10
99381.58029999957
 20
302770.9946999997
1001
AcMap_E615D161-C9D7-11d3-839F-0060B0FB6B57
1071
        1
1071
        5
  0
LWPOLYLINE
  5
5E1
330
1F
100
AcDbEntity
  8
Straßenverlauf_ACHS
100
AcDbPolyline
 90
       56
 70
     0
 43
0.0
 10
99679.10900000017
 20
302833.4728999995
 10
99669.73959999997
 20
302826.3907999992
 10
99652.88499999978
 20
302813.9949999992
 10
99646.04000000004
 20
302808.9550000001
 10
99642.01499999967
 20
302805.9900000002
 10
99639.19500000029
 20
302803.9149999991
 10
99635.67499999982
 20
302801.3249999993
 10
99631.94000000042
 20
302798.5899999999
 10
99629.11000000033
 20
302796.5350000002
 10
99627.88999999967
 20
302795.6600000002
 10
99625.4450000003
 20
302793.92
 10
99622.99000000022
 20
302792.1950000003
 10
99619.6950000003
 20
302789.9299999997
 10
99615.9450000003
 20
302787.4399999995
 10
99605.66480000037
 20
302781.0624000002
 10
99595.11170000023
 20
302775.1475000009
 10
99584.30640000011
 20
302769.7068000008
 10
99573.27020000015
 20
302764.7510000002
 10
99562.02500000037
 20
302760.2899999991
 10
99558.73000000044
 20
302759.0999999997
 10
99557.32000000029
 20
302758.5999999996
 10
99554.48000000044
 20
302757.625
 10
99551.62999999989
 20
302756.6850000006
 10
99548.29499999993
 20
302755.625
 10
99547.81500000041
 20
302755.4800000005
 10
99543.50499999989
 20
302754.1899999995
 10
99543.02500000038
 20
302754.0500000008
 10
99539.65500000027
 20
302753.1050000005
 10
99538.20999999996
 20
302752.7100000009
 10
99535.3049999997
 20
302751.9550000001
 10
99523.2807
 20
302749.2332000006
 10
99522.76059999968
 20
302749.1153999996
 10
99515.22030000017
 20
302747.6741000004
 10
99507.62640000041
 20
302746.5490000006
 10
99503.38999999967
 20
302746.2050000001
 10
99499.90000000036
 20
302745.9550000001
 10
99498.40000000037
 20
302745.8699999992
 10
99494.61500000023
 20
302745.7249999997
 10
99491.12000000011
 20
302745.6750000008
 10
99489.62000000012
 20
302745.67
 10
99484.3700000001
 20
302745.7249999997
 10
99478.875
 20
302745.8499999996
 10
99460.37999999989
 20
302746.375
 10
99429.89499999955
 20
302747.2349999995
 10
99420.29499999993
 20
302747.5500000008
 10
99417.29999999981
 20
302747.6850000005
 10
99409.30999999959
 20
302748.1199999992
 10
99403.91999999993
 20
302748.4250000008
 10
99398.92499999981
 20
302748.5350000002
 10
99394.42499999982
 20
302748.4949999992
 10
99389.42999999969
 20
302748.2899999991
 10
99383.94500000029
 20
302747.8800000008
 10
99380.46499999986
 20
302747.5099999998
 10
99377.49000000023
 20
302747.125
 10
99374.51999999955
 20
302746.6899999995
 10
99372.75299999956
 20
302746.3796999995
1001
AcMap_E615D161-C9D7-11d3-839F-0060B0FB6B57
1071
        1
1071
        5
  0
LWPOLYLINE
  5
5E2
330
1F
100
AcDbEntity
  8
Straßenverlauf_ACHS
100
AcDbPolyline
 90
       10
 70
     0
 43
0.0
 10
99679.10900000017
 20
302833.4728999995
 10
99684.55319999996
 20
302825.9136999995
 10
99688.20734193709
 20
302820.9709523933
 10
99692.15020000003
 20
302816.2553000003
 10
99695.6900000004
 20
302812.2886999995
 10
99701.29140000045
 20
302805.8221000005
 10
99708.90139999985
 20
302798.3914000001
 10
99713.07992435651
 20
302794.2259486217
 10
99716.76088186422
 20
302789.6149180631
 10
99719.89709999972
 20
302784.6173999999
1001
AcMap_E615D161-C9D7-11d3-839F-0060B0FB6B57
1071
        1
1071
        5
  0
LWPOLYLINE
  5
5E3
330
1F
100
AcDbEntity
  8
Straßenverlauf_ACHS
100
AcDbPolyline
 90
        6
 70
     0
 43
0.0
 10
99658.75059999991
 20
302866.8802000005
 10
99663.16849999968
 20
302857.0927000009
 10
99664.96451284545
 20
302853.3460496032
 10
99667.08994569566
 20
302849.7759534499
 10
99669.52759999967
 20
302846.4112999998
 10
99679.10900000017
 20
302833.4728999995
1001
AcMap_E615D161-C9D7-11d3-839F-0060B0FB6B57
1071
        1
1071
        5
  0
LWPOLYLINE
  5
5E4
330
1F
100
AcDbEntity
  8
Straßenverlauf_ACHS
100
AcDbPolyline
 90
       70
 70
     0
 43
0.0
 10
99960.85149999988
 20
303345.9337000009
 10
99977.25569999962
 20
303354.1886999998
 10
99985.13458985948
 20
303357.5004877457
 10
99993.2366000004
 20
303360.2212000005
 10
100021.1149000004
 20
303366.4046
 10
100029.8051000005
 20
303346.4530999996
 10
100040.8148999996
 20
303320.4258999993
 10
100045.2933
 20
303307.9557000008
 10
100049.2010000003
 20
303295.2949999999
 10
100052.5300000002
 20
303282.4700000007
 10
100055.2421000004
 20
303269.2866999991
 10
100057.2933
 20
303255.9846000001
 10
100058.6563999997
 20
303242.8772999999
 10
100059.3777999999
 20
303229.7191000004
 10
100059.4557999996
 20
303216.5413000007
 10
100058.8901000004
 20
303203.3753999993
 10
100057.6823000004
 20
303190.2529000007
 10
100055.8349999999
 20
303177.2050000001
 10
100053.2610999997
 20
303163.8267000001
 10
100050.0155999995
 20
303150.5952000003
 10
100046.1068000002
 20
303137.5442999993
 10
100041.5448000002
 20
303124.7072000001
 10
100036.341
 20
303112.1164999996
 10
100030.5087999999
 20
303099.8043000009
 10
100024.0630000001
 20
303087.8018999994
 10
100017.0199999995
 20
303076.1400000006
 10
100010.3496000003
 20
303066.2782000006
 10
100003.5038999999
 20
303056.9747000002
 10
99996.29999999982
 20
303047.9456999991
 10
99988.74909999967
 20
303039.2049000003
 10
99978.1453999998
 20
303028.1460999996
 10
99967.00999999978
 20
303017.6228
 10
99955.37000000011
 20
303007.6605999992
 10
99943.25349999964
 20
302998.2836000007
 10
99930.69000000041
 20
302989.5146999992
 10
99917.70999999996
 20
302981.3750000001
 10
99914.69500000031
 20
302979.5999999997
 10
99911.65000000037
 20
302977.8699999992
 10
99909.03000000026
 20
302976.4100000002
 10
99905.95500000008
 20
302974.7400000002
 10
99901.53000000026
 20
302972.4149999991
 10
99894.23500000034
 20
302968.7799999994
 10
99888.35500000044
 20
302966.0099999998
 10
99882.11000000033
 20
302963.1950000003
 10
99875.69000000041
 20
302960.4100000002
 10
99869.70000000018
 20
302957.8750000001
 10
99863.70000000018
 20
302955.3849999998
 10
99856.40000000037
 20
302952.3699999992
 10
99851.32510000001
 20
302950.2539000008
 10
99846.61500000022
 20
302948.2899999991
 10
99833.78000000026
 20
302942.6950000003
 10
99830.14499999955
 20
302941.0299999994
 10
99825.625
 20
302938.8849999998
 10
99821.04000000004
 20
302936.6199999992
 10
99817.48000000045
 20
302934.795
 10
99812.62999999989
 20
302932.2050000001
 10
99809.23000000045
 20
302930.3200000003
 10
99806.19000000041
 20
302928.5850000009
 10
99803.60500000045
 20
302927.0649999995
 10
99801.03500000016
 20
302925.5199999996
 10
99798.48000000044
 20
302923.9499999993
 10
99795.09499999974
 20
302921.8149999995
 10
99790.91000000014
 20
302919.0800000001
 10
99786.91500000003
 20
302916.3699999992
 10
99782.41000000014
 20
302913.2100000009
 10
99777.61500000022
 20
302909.7400000003
 10
99772.60500000046
 20
302906.0050000008
 10
99728.36500000022
 20
302871.6699999999
 10
99687.66750000044
 20
302839.9420999996
 10
99679.10900000017
 20
302833.4728999995
1001
AcMap_E615D161-C9D7-11d3-839F-0060B0FB6B57
1071
        1
1071
        5
  0
LWPOLYLINE
  5
5E5
330
1F
100
AcDbEntity
  8
Straßenverlauf_ACHS
100
AcDbPolyline
 90
       14
 70
     0
 43
0.0
 10
100066.4011000004
 20
303482.4708999992
 10
100063.5682748509
 20
303471.1591748213
 10
100061.3211000003
 20
303459.7167000007
 10
100059.6277
 20
303450.0857999996
 10
100058.351098261
 20
303441.7076208696
 10
100056.5318508913
 20
303433.4303062964
 10
100054.1776741818
 20
303425.2889642968
 10
100051.2985533124
 20
303417.3181261631
 10
100047.9067000002
 20
303409.5515999999
 10
100042.7361532767
 20
303400.058537162
 10
100036.9699999997
 20
303390.9149999991
 10
100032.0599999996
 20
303383.3699999992
 10
100028.5099999998
 20
303377.9250000008
 10
100021.1149000004
 20
303366.4203999993
1001
AcMap_E615D161-C9D7-11d3-839F-0060B0FB6B57
1071
        1
1071
        5
  0
LWPOLYLINE
  5
5E6
330
1F
100
AcDbEntity
  8
Straßenverlauf_FBRD
100
AcDbPolyline
 90
       25
 70
     0
 43
0.0
 10
99365.76269999985
 20
302689.0065000002
 10
99369.9467000002
 20
302708.1385999993
 10
99371.00839703978
 20
302714.4835132349
 10
99371.43769999966
 20
302720.9023000002
 10
99371.63219999987
 20
302732.1600000002
 10
99371.75940326413
 20
302733.5202134594
 10
99372.09101703063
 20
302734.8455034785
 10
99372.61940050328
 20
302736.1053337173
 10
99373.33237906578
 20
302737.270676111
 10
99374.21352479999
 20
302738.3146797125
 10
99375.24253500567
 20
302739.2132893728
 10
99376.39570000023
 20
302739.9458000008
 10
99379.49332379654
 20
302741.3364665015
 10
99382.75082091772
 20
302742.2945578358
 10
99386.10809999984
 20
302742.8024000004
 10
99396.81297750603
 20
302743.2860297189
 10
99407.52429999969
 20
302742.9763999991
 10
99418.23257022674
 20
302742.3840904529
 10
99428.95100000034
 20
302742.0192000009
 10
99431.27594188363
 20
302741.7826613961
 10
99433.53592815574
 20
302741.1878779716
 10
99435.67610369305
 20
302740.2492865047
 10
99437.64452145712
 20
302738.9896687935
 10
99439.39340337021
 20
302737.4395986899
 10
99440.88030000031
 20
302735.6367000006
1001
AcMap_E615D161-C9D7-11d3-839F-0060B0FB6B57
1071
        1
1071
        6
  0
LWPOLYLINE
  5
5E7
330
1F
100
AcDbEntity
  8
Straßenverlauf_FBRD
100
AcDbPolyline
 90
       16
 70
     0
 43
0.0
 10
99361.83820000012
 20
302694.7544999999
 10
99363.90477476583
 20
302701.6661834184
 10
99365.24902063528
 20
302708.7538559547
 10
99365.85666057789
 20
302715.9422405186
 10
99365.7212409424
 20
302723.154990373
 10
99364.84420000017
 20
302730.3155000006
 10
99364.51486797096
 20
302731.5784279274
 10
99363.98456496512
 20
302732.7709987874
 10
99363.26740568848
 20
302733.8614707521
 10
99362.38247827015
 20
302734.8208194887
 10
99361.35333620711
 20
302735.6235106797
 10
99360.20737145707
 20
302736.2481796525
 10
99358.97508536587
 20
302736.6782000282
 10
99357.68927683444
 20
302736.9021262537
 10
99356.38416933315
 20
302736.9139982406
 10
99355.09449999965
 20
302736.7135000006
1001
AcMap_E615D161-C9D7-11d3-839F-0060B0FB6B57
1071
        1
1071
        6
  0
LWPOLYLINE
  5
5E8
330
1F
100
AcDbEntity
  8
Straßenverlauf_FBRD
100
AcDbPolyline
 90
       15
 70
     0
 43
0.0
 10
99294.82230000012
 20
302694.7888999992
 10
99297.89680000022
 20
302698.1678
 10
99302.3161000004
 20
302703.0625999998
 10
99307.22530000005
 20
302708.3587999996
 10
99309.51939999964
 20
302710.8642999996
 10
99311.34709999989
 20
302712.8731999994
 10
99313.49210000037
 20
302715.0588000007
 10
99315.48230000027
 20
302716.8850999996
 10
99317.15830000024
 20
302718.3258999996
 10
99319.35360000004
 20
302720.1421000008
 10
99325.93074173182
 20
302724.5731686724
 10
99332.83833052316
 20
302728.4691127201
 10
99340.032922514
 20
302731.8054294044
 10
99347.46926879666
 20
302734.5611356473
 10
99355.10059999954
 20
302736.7189000007
1001
AcMap_E615D161-C9D7-11d3-839F-0060B0FB6B57
1071
        1
1071
        6
  0
LWPOLYLINE
  5
5E9
330
1F
100
AcDbEntity
  8
Straßenverlauf_FBRD
100
AcDbPolyline
 90
       23
 70
     0
 43
0.0
 10
99305.22119999956
 20
302715.7718000002
 10
99312.61959999986
 20
302723.5118000005
 10
99317.88168729013
 20
302728.5379244108
 10
99323.57870798528
 20
302733.0651138743
 10
99329.66352681608
 20
302737.0559119192
 10
99336.08579999953
 20
302740.4772999995
 10
99341.36490050583
 20
302742.8041529685
 10
99346.76939999963
 20
302744.8226999995
 10
99352.13533727175
 20
302746.5440460715
 10
99357.56030000002
 20
302748.0691999998
 10
99359.00629658295
 20
302748.5684467457
 10
99360.35922487361
 20
302749.2824064585
 10
99361.58742416761
 20
302750.1943713291
 10
99362.66215262028
 20
302751.2829999087
 10
99363.55825985218
 20
302752.5228165322
 10
99364.2547755086
 20
302753.8848074909
 10
99364.73539999965
 20
302755.3370999992
 10
99365.61544660932
 20
302758.0020100054
 10
99366.88847124218
 20
302760.5031368836
 10
99368.52517761764
 20
302762.7829218771
 10
99370.48790000007
 20
302764.7888999991
 10
99374.84344468179
 20
302768.8157611394
 10
99378.98519999999
 20
302773.0622000005
1001
AcMap_E615D161-C9D7-11d3-839F-0060B0FB6B57
1071
        1
1071
        6
  0
LINE
  5
5EA
330
1F
100
AcDbEntity
  8
Straßenverlauf_FBRD
100
AcDbLine
 10
99540.6353000002
 20
302747.0988999997
 30
0.0
 11
99541.08990000001
 21
302747.2168000005
 31
0.0
1001
AcMap_E615D161-C9D7-11d3-839F-0060B0FB6B57
1071
        1
1071
        6
  0
LWPOLYLINE
  5
5EB
330
1F
100
AcDbEntity
  8
Straßenverlauf_FBRD
100
AcDbPolyline
 90
        4
 70
     0
 43
0.0
 10
99540.6353000002
 20
302747.0988999997
 10
99541.0683811318
 20
302747.3579101572
 10
99541.41055924672
 20
302747.8684803138
 10
99541.76499999967
 20
302749.5424000007
1001
AcMap_E615D161-C9D7-11d3-839F-0060B0FB6B57
1071
        1
1071
        6
  0
LWPOLYLINE
  5
5EC
330
1F
100
AcDbEntity
  8
Straßenverlauf_FBRD
100
AcDbPolyline
 90
        4
 70
     0
 43
0.0
 10
99541.10510000028
 20
302747.2205999997
 10
99541.54848285725
 20
302747.4829890939
 10
99541.89240735686
 20
302747.99614373
 10
99542.24810000043
 20
302749.6778999996
1001
AcMap_E615D161-C9D7-11d3-839F-0060B0FB6B57
1071
        1
1071
        6
  0
LWPOLYLINE
  5
5ED
330
1F
100
AcDbEntity
  8
Straßenverlauf_FBRD
100
AcDbPolyline
 90
       39
 70
     0
 43
0.0
 10
99401.94189999997
 20
302747.3002000004
 10
99408.85390000046
 20
302746.9282000009
 10
99413.46179999969
 20
302747.4945999999
 10
99413.60664867447
 20
302747.5253987499
 10
99413.74395359495
 20
302747.5808700073
 10
99413.86954709097
 20
302747.659330031
 10
99413.97961697381
 20
302747.7583972934
 10
99414.07082224907
 20
302747.8750647668
 10
99414.1403945272
 20
302748.0057911976
 10
99414.18622205349
 20
302748.146608595
 10
99414.20691380706
 20
302748.2932426733
 10
99414.20184172299
 20
302748.4412425907
 10
99414.17115975621
 20
302748.5861160475
 10
99414.11579920854
 20
302748.7234656428
 10
99414.03744046041
 20
302748.8491223505
 10
99413.9384619657
 20
302748.959272063
 10
99413.82186805753
 20
302749.0505713629
 10
99413.69119775663
 20
302749.1202490067
 10
99413.55041734992
 20
302749.1661900414
 10
99413.40380000044
 20
302749.1870000009
 10
99406.49179999995
 20
302749.5590000004
 10
99401.88389999978
 20
302748.9925999996
 10
99401.73905031185
 20
302748.9618023046
 10
99401.60174426864
 20
302748.9063317664
 10
99401.47614962443
 20
302748.8278721242
 10
99401.36607864852
 20
302748.728804923
 10
99401.27487240856
 20
302748.6121372243
 10
99401.2052993566
 20
302748.4814103313
 10
99401.15947129614
 20
302748.3405922963
 10
99401.13877928101
 20
302748.1939574757
 10
99401.1438513916
 20
302748.0459567872
 10
99401.1745336703
 20
302747.9010826077
 10
99401.22989479469
 20
302747.7637324129
 10
99401.30825434662
 20
302747.6380752972
 10
99401.40723381933
 20
302747.5279254261
 10
99401.52382881393
 20
302747.4366262622
 10
99401.65450023428
 20
302747.366949078
 10
99401.79528171189
 20
302747.3210088377
 10
99401.94189999997
 20
302747.3002000004
1001
AcMap_E615D161-C9D7-11d3-839F-0060B0FB6B57
1071
        1
1071
        6
  0
LINE
  5
5EE
330
1F
100
AcDbEntity
  8
Straßenverlauf_FBRD
100
AcDbLine
 10
99540.53199999966
 20
302747.4854000006
 30
0.0
 11
99540.6353000002
 21
302747.0988999997
 31
0.0
1001
AcMap_E615D161-C9D7-11d3-839F-0060B0FB6B57
1071
        1
1071
        6
  0
LWPOLYLINE
  5
5EF
330
1F
100
AcDbEntity
  8
Straßenverlauf_FBRD
100
AcDbPolyline
 90
        4
 70
     0
 43
0.0
 10
99540.53199999966
 20
302747.4854000006
 10
99540.42939999979
 20
302747.8719999995
 10
99541.01253547216
 20
302748.3668340819
 10
99541.35340000037
 20
302749.4269999992
1001
AcMap_E615D161-C9D7-11d3-839F-0060B0FB6B57
1071
        1
1071
        6
  0
LWPOLYLINE
  5
5F0
330
1F
100
AcDbEntity
  8
Straßenverlauf_FBRD
100
AcDbPolyline
 90
        3
 70
     0
 43
0.0
 10
99540.53199999966
 20
302747.4854000006
 10
99541.21319690058
 20
302748.1174181991
 10
99541.56549999956
 20
302749.4865000006
1001
AcMap_E615D161-C9D7-11d3-839F-0060B0FB6B57
1071
        1
1071
        6
  0
LWPOLYLINE
  5
5F1
330
1F
100
AcDbEntity
  8
Straßenverlauf_FBRD
100
AcDbPolyline
 90
       25
 70
     0
 43
0.0
 10
99541.35340000037
 20
302749.4269999992
 10
99540.72240000032
 20
302749.2500000001
 10
99540.13700000011
 20
302749.0895000007
 10
99537.81049999967
 20
302748.4682
 10
99534.20019999985
 20
302747.5523000006
 10
99529.85940000042
 20
302746.5083000008
 10
99514.93259999994
 20
302743.1784000006
 10
99507.00596444164
 20
302741.6134685136
 10
99498.97886392902
 20
302740.6935667832
 10
99490.90369999968
 20
302740.4246999994
 10
99490.83800000046
 20
302740.4239000008
 10
99486.69620000012
 20
302740.4351000004
 10
99485.03070000001
 20
302740.4616
 10
99482.12079999969
 20
302740.5176999998
 10
99479.88750000019
 20
302740.5749999993
 10
99479.43549999967
 20
302740.5870999992
 10
99473.18700272731
 20
302740.429747082
 10
99466.98878091845
 20
302739.6231960845
 10
99460.90809999965
 20
302738.1762000006
 10
99460.90500000027
 20
302738.1753000002
 10
99459.20785582513
 20
302737.5336735838
 10
99457.62684576799
 20
302736.6435106726
 10
99456.19811306134
 20
302735.5251611466
 10
99454.95431974814
 20
302734.2041914257
 10
99453.92389999982
 20
302732.7107999996
1001
AcMap_E615D161-C9D7-11d3-839F-0060B0FB6B57
1071
        1
1071
        6
  0
LWPOLYLINE
  5
5F2
330
1F
100
AcDbEntity
  8
Straßenverlauf_FBRD
100
AcDbPolyline
 90
        5
 70
     0
 43
0.0
 10
99541.35340000037
 20
302749.4269999992
 10
99541.38200796389
 20
302751.2999384237
 10
99540.98063072892
 20
302753.4756061664
 10
99540.22337829366
 20
302755.5520903856
 10
99539.25009999982
 20
302757.1458000001
1001
AcMap_E615D161-C9D7-11d3-839F-0060B0FB6B57
1071
        1
1071
        6
  0
LINE
  5
5F3
330
1F
100
AcDbEntity
  8
Straßenverlauf_FBRD
100
AcDbLine
 10
99541.56549999956
 20
302749.4865000006
 30
0.0
 11
99541.35340000037
 21
302749.4269999992
 31
0.0
1001
AcMap_E615D161-C9D7-11d3-839F-0060B0FB6B57
1071
        1
1071
        6
  0
LWPOLYLINE
  5
5F4
330
1F
100
AcDbEntity
  8
Straßenverlauf_FBRD
100
AcDbPolyline
 90
        5
 70
     0
 43
0.0
 10
99541.56549999956
 20
302749.4865000006
 10
99541.53387064673
 20
302751.3823629389
 10
99541.12327691056
 20
302753.5158600771
 10
99540.39639305257
 20
302755.5611336011
 10
99539.46420000027
 20
302757.2058000006
1001
AcMap_E615D161-C9D7-11d3-839F-0060B0FB6B57
1071
        1
1071
        6
  0
LINE
  5
5F5
330
1F
100
AcDbEntity
  8
Straßenverlauf_FBRD
100
AcDbLine
 10
99541.76499999967
 20
302749.5424000007
 30
0.0
 11
99541.56549999956
 21
302749.4865000006
 31
0.0
1001
AcMap_E615D161-C9D7-11d3-839F-0060B0FB6B57
1071
        1
1071
        6
  0
LWPOLYLINE
  5
5F6
330
1F
100
AcDbEntity
  8
Straßenverlauf_FBRD
100
AcDbPolyline
 90
        5
 70
     0
 43
0.0
 10
99541.76499999967
 20
302749.5424000007
 10
99541.68630404186
 20
302751.4536507154
 10
99541.26765592649
 20
302753.5565158005
 10
99540.56307856248
 20
302755.5795727591
 10
99539.6634999998
 20
302757.2617000006
1001
AcMap_E615D161-C9D7-11d3-839F-0060B0FB6B57
1071
        1
1071
        6
  0
LINE
  5
5F7
330
1F
100
AcDbEntity
  8
Straßenverlauf_FBRD
100
AcDbLine
 10
99542.24810000043
 20
302749.6778999996
 30
0.0
 11
99541.76499999967
 21
302749.5424000007
 31
0.0
1001
AcMap_E615D161-C9D7-11d3-839F-0060B0FB6B57
1071
        1
1071
        6
  0
LWPOLYLINE
  5
5F8
330
1F
100
AcDbEntity
  8
Straßenverlauf_FBRD
100
AcDbPolyline
 90
        5
 70
     0
 43
0.0
 10
99542.24810000043
 20
302749.6778999996
 10
99542.16838490625
 20
302751.5913521027
 10
99541.74821748033
 20
302753.6946282418
 10
99541.04177952579
 20
302755.7162557898
 10
99540.14020000025
 20
302757.3953000009
1001
AcMap_E615D161-C9D7-11d3-839F-0060B0FB6B57
1071
        1
1071
        6
  0
LWPOLYLINE
  5
5F9
330
1F
100
AcDbEntity
  8
Straßenverlauf_FBRD
100
AcDbPolyline
 90
        4
 70
     0
 43
0.0
 10
99539.25009999982
 20
302757.1458000001
 10
99538.42630012033
 20
302757.8764369638
 10
99537.67889999971
 20
302758.0053000003
 10
99537.57409999985
 20
302758.3914000001
1001
AcMap_E615D161-C9D7-11d3-839F-0060B0FB6B57
1071
        1
1071
        6
  0
LWPOLYLINE
  5
5FA
330
1F
100
AcDbEntity
  8
Straßenverlauf_FBRD
100
AcDbPolyline
 90
       36
 70
     0
 43
0.0
 10
99539.25009999982
 20
302757.1458000001
 10
99538.5876000002
 20
302756.9600000009
 10
99537.91449999995
 20
302756.7754999996
 10
99534.63939999975
 20
302755.9130000007
 10
99530.64850000012
 20
302754.9177000001
 10
99521.4524666742
 20
302753.0225520769
 10
99512.15587995765
 20
302751.7064631728
 10
99502.79516544631
 20
302750.9745899464
 10
99493.40699999966
 20
302750.8298000004
 10
99485.23840000015
 20
302750.9595999998
 10
99482.5290000001
 20
302751.0110999998
 10
99479.76339999959
 20
302751.0807000008
 10
99476.77850000001
 20
302751.1627999992
 10
99461.14190000017
 20
302751.6051000003
 10
99460.47090000007
 20
302751.6240999997
 10
99437.47709999978
 20
302752.2748000007
 10
99426.81319999975
 20
302752.5778999999
 10
99408.21569999959
 20
302753.4536000006
 10
99399.81145587367
 20
302753.7801152927
 10
99391.40186215148
 20
302753.6510223351
 10
99383.01159999985
 20
302753.0667000004
 10
99382.16217933257
 20
302753.0568693296
 10
99381.32335361824
 20
302753.1909720255
 10
99380.51933525123
 20
302753.4651372633
 10
99379.77333192476
 20
302753.8714513646
 10
99379.10687674927
 20
302754.3981862232
 10
99378.53920670725
 20
302755.0301378316
 10
99378.08670738476
 20
302755.7490651404
 10
99377.76244000762
 20
302756.5342165781
 10
99377.57576443388
 20
302757.3629290386
 10
99377.53206898506
 20
302758.2112820429
 10
99377.6326149141
 20
302759.0547881947
 10
99377.87449999992
 20
302759.8691000007
 10
99378.81723807604
 20
302761.8377303504
 10
99380.0356999999
 20
302763.6487000008
 10
99384.17549999989
 20
302768.9272000007
1001
AcMap_E615D161-C9D7-11d3-839F-0060B0FB6B57
1071
        1
1071
        6
  0
LINE
  5
5FB
330
1F
100
AcDbEntity
  8
Straßenverlauf_FBRD
100
AcDbLine
 10
99539.46420000027
 20
302757.2058000006
 30
0.0
 11
99539.25009999982
 21
302757.1458000001
 31
0.0
1001
AcMap_E615D161-C9D7-11d3-839F-0060B0FB6B57
1071
        1
1071
        6
  0
LWPOLYLINE
  5
5FC
330
1F
100
AcDbEntity
  8
Straßenverlauf_FBRD
100
AcDbPolyline
 90
        3
 70
     0
 43
0.0
 10
99539.46420000027
 20
302757.2058000006
 10
99538.47574492813
 20
302758.1946195134
 10
99537.57409999985
 20
302758.3914000001
1001
AcMap_E615D161-C9D7-11d3-839F-0060B0FB6B57
1071
        1
1071
        6
  0
LINE
  5
5FD
330
1F
100
AcDbEntity
  8
Straßenverlauf_FBRD
100
AcDbLine
 10
99539.6634999998
 20
302757.2617000006
 30
0.0
 11
99539.46420000027
 21
302757.2058000006
 31
0.0
1001
AcMap_E615D161-C9D7-11d3-839F-0060B0FB6B57
1071
        1
1071
        6
  0
LWPOLYLINE
  5
5FE
330
1F
100
AcDbEntity
  8
Straßenverlauf_FBRD
100
AcDbPolyline
 90
        4
 70
     0
 43
0.0
 10
99539.6634999998
 20
302757.2617000006
 10
99538.54696520263
 20
302758.4911244019
 10
99538.00886099699
 20
302758.7633365464
 10
99537.52379999961
 20
302758.7908999995
1001
AcMap_E615D161-C9D7-11d3-839F-0060B0FB6B57
1071
        1
1071
        6
  0
LINE
  5
5FF
330
1F
100
AcDbEntity
  8
Straßenverlauf_FBRD
100
AcDbLine
 10
99540.14020000025
 20
302757.3953000009
 30
0.0
 11
99539.6634999998
 21
302757.2617000006
 31
0.0
1001
AcMap_E615D161-C9D7-11d3-839F-0060B0FB6B57
1071
        1
1071
        6
  0
LWPOLYLINE
  5
600
330
1F
100
AcDbEntity
  8
Straßenverlauf_FBRD
100
AcDbPolyline
 90
        5
 70
     0
 43
0.0
 10
99540.14020000025
 20
302757.3953000009
 10
99538.99714007471
 20
302758.6365568251
 10
99538.44828982205
 20
302758.8980745079
 10
99537.94730000012
 20
302758.9013
 10
99537.52379999961
 20
302758.7908999995
1001
AcMap_E615D161-C9D7-11d3-839F-0060B0FB6B57
1071
        1
1071
        6
  0
LWPOLYLINE
  5
601
330
1F
100
AcDbEntity
  8
Straßenverlauf_FBRD
100
AcDbPolyline
 90
        3
 70
     0
 43
0.0
 10
99537.57409999985
 20
302758.3914000001
 10
99537.46949999965
 20
302758.7774000001
 10
99537.52379999961
 20
302758.7908999995
1001
AcMap_E615D161-C9D7-11d3-839F-0060B0FB6B57
1071
        1
1071
        6
  0
LWPOLYLINE
  5
602
330
1F
100
AcDbEntity
  8
Straßenverlauf_FBRD
100
AcDbPolyline
 90
        5
 70
     0
 43
0.0
 10
99605.58550000005
 20
302774.0041000005
 10
99605.20380000025
 20
302773.7902000007
 10
99604.70293200293
 20
302773.6664561887
 10
99604.08474514199
 20
302773.794014141
 10
99602.61610000022
 20
302774.7682000008
1001
AcMap_E615D161-C9D7-11d3-839F-0060B0FB6B57
1071
        1
1071
        6
  0
LWPOLYLINE
  5
603
330
1F
100
AcDbEntity
  8
Straßenverlauf_FBRD
100
AcDbPolyline
 90
        3
 70
     0
 43
0.0
 10
99605.43570000027
 20
302774.3779000007
 10
99605.63470000028
 20
302774.0308999997
 10
99605.58550000005
 20
302774.0041000005
1001
AcMap_E615D161-C9D7-11d3-839F-0060B0FB6B57
1071
        1
1071
        6
  0
LWPOLYLINE
  5
604
330
1F
100
AcDbEntity
  8
Straßenverlauf_FBRD
100
AcDbPolyline
 90
       14
 70
     0
 43
0.0
 10
99602.61610000022
 20
302774.7682000008
 10
99596.9899000004
 20
302771.6148000006
 10
99586.02599999961
 20
302766.0941000004
 10
99574.82780000008
 20
302761.0656000004
 10
99563.4422000004
 20
302756.5490000006
 10
99560.07780000009
 20
302755.333900001
 10
99558.63790000044
 20
302754.8233000003
 10
99555.75590000023
 20
302753.8339000009
 10
99552.86230000016
 20
302752.8794999998
 10
99549.47919999995
 20
302751.8041999992
 10
99548.9667999996
 20
302751.6493999995
 10
99544.63850000035
 20
302750.3539000005
 10
99544.125
 20
302750.2041999996
 10
99542.24810000043
 20
302749.6778999996
1001
AcMap_E615D161-C9D7-11d3-839F-0060B0FB6B57
1071
        1
1071
        6
  0
LINE
  5
605
330
1F
100
AcDbEntity
  8
Straßenverlauf_FBRD
100
AcDbLine
 10
99603.05069999956
 20
302775.0118000005
 30
0.0
 11
99602.61610000022
 21
302774.7682000008
 31
0.0
1001
AcMap_E615D161-C9D7-11d3-839F-0060B0FB6B57
1071
        1
1071
        6
  0
LWPOLYLINE
  5
606
330
1F
100
AcDbEntity
  8
Straßenverlauf_FBRD
100
AcDbPolyline
 90
        4
 70
     0
 43
0.0
 10
99603.05069999956
 20
302775.0118000005
 10
99604.48601763586
 20
302774.0482124664
 10
99605.09463626058
 20
302773.9084332452
 10
99605.58550000005
 20
302774.0041000005
1001
AcMap_E615D161-C9D7-11d3-839F-0060B0FB6B57
1071
        1
1071
        6
  0
LINE
  5
607
330
1F
100
AcDbEntity
  8
Straßenverlauf_FBRD
100
AcDbLine
 10
99603.22869999986
 20
302775.1116000005
 30
0.0
 11
99603.05069999956
 21
302775.0118000005
 31
0.0
1001
AcMap_E615D161-C9D7-11d3-839F-0060B0FB6B57
1071
        1
1071
        6
  0
LWPOLYLINE
  5
608
330
1F
100
AcDbEntity
  8
Straßenverlauf_FBRD
100
AcDbPolyline
 90
        4
 70
     0
 43
0.0
 10
99603.22869999986
 20
302775.1116000005
 10
99604.48037987037
 20
302774.3508715863
 10
99605.00605637689
 20
302774.2631892547
 10
99605.43570000027
 20
302774.3779000007
1001
AcMap_E615D161-C9D7-11d3-839F-0060B0FB6B57
1071
        1
1071
        6
  0
LINE
  5
609
330
1F
100
AcDbEntity
  8
Straßenverlauf_FBRD
100
AcDbLine
 10
99603.49959999975
 20
302775.1591999997
 30
0.0
 11
99603.45590000041
 21
302775.1336000003
 31
0.0
1001
AcMap_E615D161-C9D7-11d3-839F-0060B0FB6B57
1071
        1
1071
        6
  0
LWPOLYLINE
  5
60A
330
1F
100
AcDbEntity
  8
Straßenverlauf_FBRD
100
AcDbPolyline
 90
        4
 70
     0
 43
0.0
 10
99603.49959999975
 20
302775.1591999997
 10
99604.48113513159
 20
302774.6607263409
 10
99605.23670000025
 20
302774.7249999996
 10
99605.43570000027
 20
302774.3779000007
1001
AcMap_E615D161-C9D7-11d3-839F-0060B0FB6B57
1071
        1
1071
        6
  0
LINE
  5
60B
330
1F
100
AcDbEntity
  8
Straßenverlauf_FBRD
100
AcDbLine
 10
99603.41100000031
 20
302775.2137000002
 30
0.0
 11
99603.22869999986
 21
302775.1116000005
 31
0.0
1001
AcMap_E615D161-C9D7-11d3-839F-0060B0FB6B57
1071
        1
1071
        6
  0
LWPOLYLINE
  5
60C
330
1F
100
AcDbEntity
  8
Straßenverlauf_FBRD
100
AcDbPolyline
 90
       18
 70
     0
 43
0.0
 10
99631.37310000043
 20
302777.9268999994
 10
99632.28955520719
 20
302778.7069262368
 10
99633.07863052845
 20
302779.6156017644
 10
99633.72246889401
 20
302780.6323629143
 10
99634.20650000031
 20
302781.7342000008
 10
99634.4604382075
 20
302782.3073817524
 10
99634.80081485597
 20
302782.8338470129
 10
99635.21926906894
 20
302783.3006638989
 10
99635.70552210335
 20
302783.6963657058
 10
99636.24762983274
 20
302784.0112325715
 10
99636.83227613822
 20
302784.2375302314
 10
99637.44510000013
 20
302784.3696999997
 10
99640.30382297146
 20
302784.5045389706
 10
99643.14284388924
 20
302784.143375845
 10
99645.87675229875
 20
302783.2970760263
 10
99648.4232999999
 20
302781.9911000003
 10
99652.70239999984
 20
302779.3041999992
 10
99654.75910000037
 20
302782.5796000008
1001
AcMap_E615D161-C9D7-11d3-839F-0060B0FB6B57
1071
        1
1071
        6
  0
LWPOLYLINE
  5
60D
330
1F
100
AcDbEntity
  8
Straßenverlauf_FBRD
100
AcDbPolyline
 90
       23
 70
     0
 43
0.0
 10
99629.49309999961
 20
302780.9036999997
 10
99630.0198636101
 20
302781.4573620288
 10
99630.44558680113
 20
302782.0920125692
 10
99630.7580462968
 20
302782.7894296664
 10
99630.94827082496
 20
302783.5295892252
 10
99631.0107986984
 20
302784.2912399384
 10
99630.94383462985
 20
302785.0525134486
 10
99630.74930127772
 20
302785.7915522289
 10
99630.43278404324
 20
302786.4871371511
 10
99630.00337070353
 20
302787.1192967255
 10
99629.47339048527
 20
302787.6698805176
 10
99628.85806007045
 20
302788.1230802797
 10
99628.17504669823
 20
302788.4658838345
 10
99627.44396090673
 20
302788.6884486774
 10
99626.68579347948
 20
302788.7843845729
 10
99625.9223127622
 20
302788.7509370293
 10
99625.17543965478
 20
302788.5890663858
 10
99624.46661822287
 20
302788.3034202385
 10
99623.81620000023
 20
302787.9022000004
 10
99620.94259999972
 20
302785.9507999998
 10
99613.99920000042
 20
302781.4429000001
 10
99609.15749999974
 20
302778.4746000004
 10
99603.49959999975
 20
302775.1591999997
1001
AcMap_E615D161-C9D7-11d3-839F-0060B0FB6B57
1071
        1
1071
        6
  0
LWPOLYLINE
  5
60E
330
1F
100
AcDbEntity
  8
Straßenverlauf_FBRD
100
AcDbPolyline
 90
       14
 70
     0
 43
0.0
 10
99598.6969999997
 20
302781.6835999992
 10
99593.23340000025
 20
302778.6801999994
 10
99582.58679999969
 20
302773.3193999995
 10
99571.71270000003
 20
302768.4364000001
 10
99560.60780000035
 20
302764.0309999995
 10
99557.38219999988
 20
302762.8661000003
 10
99556.00210000016
 20
302762.3767000009
 10
99553.20409999973
 20
302761.4160999991
 10
99550.39769999963
 20
302760.4904999994
 10
99547.11079999992
 20
302759.4458000008
 10
99546.66320000031
 20
302759.3105999995
 10
99542.37150000036
 20
302758.0261000004
 10
99541.92499999981
 20
302757.8958000001
 10
99540.14020000025
 20
302757.3953000009
1001
AcMap_E615D161-C9D7-11d3-839F-0060B0FB6B57
1071
        1
1071
        6
  0
LWPOLYLINE
  5
60F
330
1F
100
AcDbEntity
  8
Straßenverlauf_FBRD
100
AcDbPolyline
 90
        5
 70
     0
 43
0.0
 10
99598.6969999997
 20
302781.6835999992
 10
99599.23782066699
 20
302779.875226978
 10
99600.15444452899
 20
302777.9605396097
 10
99601.33035998042
 20
302776.1828866297
 10
99602.61610000022
 20
302774.7682000008
1001
AcMap_E615D161-C9D7-11d3-839F-0060B0FB6B57
1071
        1
1071
        6
  0
LINE
  5
610
330
1F
100
AcDbEntity
  8
Straßenverlauf_FBRD
100
AcDbLine
 10
99599.13269999995
 20
302781.9231000003
 30
0.0
 11
99598.6969999997
 21
302781.6835999992
 31
0.0
1001
AcMap_E615D161-C9D7-11d3-839F-0060B0FB6B57
1071
        1
1071
        6
  0
LWPOLYLINE
  5
611
330
1F
100
AcDbEntity
  8
Straßenverlauf_FBRD
100
AcDbPolyline
 90
        5
 70
     0
 43
0.0
 10
99599.13269999995
 20
302781.9231000003
 10
99599.67498796059
 20
302780.1160470835
 10
99600.59179300223
 20
302778.2027884694
 10
99601.76674384454
 20
302776.4261978039
 10
99603.05069999956
 20
302775.0118000005
1001
AcMap_E615D161-C9D7-11d3-839F-0060B0FB6B57
1071
        1
1071
        6
  0
LINE
  5
612
330
1F
100
AcDbEntity
  8
Straßenverlauf_FBRD
100
AcDbLine
 10
99599.31429999974
 20
302782.0230000001
 30
0.0
 11
99599.13269999995
 21
302781.9231000003
 31
0.0
1001
AcMap_E615D161-C9D7-11d3-839F-0060B0FB6B57
1071
        1
1071
        6
  0
LWPOLYLINE
  5
613
330
1F
100
AcDbEntity
  8
Straßenverlauf_FBRD
100
AcDbPolyline
 90
        5
 70
     0
 43
0.0
 10
99599.31429999974
 20
302782.0230000001
 10
99599.80648944918
 20
302780.2211701095
 10
99600.72165214564
 20
302778.2780669777
 10
99601.92245276752
 20
302776.4852161661
 10
99603.22869999986
 20
302775.1116000005
1001
AcMap_E615D161-C9D7-11d3-839F-0060B0FB6B57
1071
        1
1071
        6
  0
LINE
  5
614
330
1F
100
AcDbEntity
  8
Straßenverlauf_FBRD
100
AcDbLine
 10
99599.50980000012
 20
302782.1305
 30
0.0
 11
99599.31429999974
 21
302782.0230000001
 31
0.0
1001
AcMap_E615D161-C9D7-11d3-839F-0060B0FB6B57
1071
        1
1071
        6
  0
LWPOLYLINE
  5
615
330
1F
100
AcDbEntity
  8
Straßenverlauf_FBRD
100
AcDbPolyline
 90
        5
 70
     0
 43
0.0
 10
99599.50980000012
 20
302782.1305
 10
99599.94746703303
 20
302780.3083082391
 10
99600.88516247154
 20
302778.2940139163
 10
99602.14779485255
 20
302776.4637271783
 10
99603.49959999975
 20
302775.1591999997
1001
AcMap_E615D161-C9D7-11d3-839F-0060B0FB6B57
1071
        1
1071
        6
  0
LWPOLYLINE
  5
616
330
1F
100
AcDbEntity
  8
Straßenverlauf_FBRD
100
AcDbPolyline
 90
        4
 70
     0
 43
0.0
 10
99599.50980000012
 20
302782.1305
 10
99599.57841280068
 20
302783.2194706413
 10
99600.01410000026
 20
302783.8340000008
 10
99599.81510000025
 20
302784.1809999999
1001
AcMap_E615D161-C9D7-11d3-839F-0060B0FB6B57
1071
        1
1071
        6
  0
LWPOLYLINE
  5
617
330
1F
100
AcDbEntity
  8
Straßenverlauf_FBRD
100
AcDbPolyline
 90
       16
 70
     0
 43
0.0
 10
99716.11239999999
 20
302782.1775000003
 10
99713.68250879608
 20
302786.2048746697
 10
99710.88492289421
 20
302789.9860955192
 10
99707.7444000002
 20
302793.4877000004
 10
99707.36985169505
 20
302793.7802058966
 10
99706.95399173925
 20
302794.0102203076
 10
99706.50715344577
 20
302794.1720278218
 10
99706.04043987929
 20
302794.2616078362
 10
99705.56544796634
 20
302794.2767344615
 10
99705.0939803344
 20
302794.2170318302
 10
99704.63775203937
 20
302794.0839834371
 10
99704.20809946912
 20
302793.8808952763
 10
99703.81569865644
 20
302793.6128136949
 10
99703.47030000016
 20
302793.2863999997
 10
99701.79440000002
 20
302791.4317000006
 10
99694.40589999967
 20
302798.1927000005
1001
AcMap_E615D161-C9D7-11d3-839F-0060B0FB6B57
1071
        1
1071
        6
  0
LWPOLYLINE
  5
618
330
1F
100
AcDbEntity
  8
Straßenverlauf_FBRD
100
AcDbPolyline
 90
        3
 70
     0
 43
0.0
 10
99599.81510000025
 20
302784.1809999999
 10
99599.31799899139
 20
302783.4099856455
 10
99599.31429999974
 20
302782.0230000001
1001
AcMap_E615D161-C9D7-11d3-839F-0060B0FB6B57
1071
        1
1071
        6
  0
LINE
  5
619
330
1F
100
AcDbEntity
  8
Straßenverlauf_FBRD
100
AcDbLine
 10
99599.81510000025
 20
302784.1809999999
 30
0.0
 11
99599.61620000004
 21
302784.5280000009
 31
0.0
1001
AcMap_E615D161-C9D7-11d3-839F-0060B0FB6B57
1071
        1
1071
        6
  0
LWPOLYLINE
  5
61A
330
1F
100
AcDbEntity
  8
Straßenverlauf_FBRD
100
AcDbPolyline
 90
        4
 70
     0
 43
0.0
 10
99599.19240000006
 20
302784.2913000006
 10
99598.83407833824
 20
302783.9321312871
 10
99598.63076878296
 20
302783.3617683381
 10
99598.6969999997
 20
302781.6835999992
1001
AcMap_E615D161-C9D7-11d3-839F-0060B0FB6B57
1071
        1
1071
        6
  0
LINE
  5
61B
330
1F
100
AcDbEntity
  8
Straßenverlauf_FBRD
100
AcDbLine
 10
99599.61620000004
 20
302784.5280000009
 30
0.0
 11
99599.20409999973
 21
302784.2978000008
 31
0.0
1001
AcMap_E615D161-C9D7-11d3-839F-0060B0FB6B57
1071
        1
1071
        6
  0
LWPOLYLINE
  5
61C
330
1F
100
AcDbEntity
  8
Straßenverlauf_FBRD
100
AcDbPolyline
 90
        4
 70
     0
 43
0.0
 10
99599.61620000004
 20
302784.5280000009
 10
99599.26591504631
 20
302784.1731530087
 10
99599.06371943972
 20
302783.6026152175
 10
99599.13269999995
 20
302781.9231000003
1001
AcMap_E615D161-C9D7-11d3-839F-0060B0FB6B57
1071
        1
1071
        6
  0
LWPOLYLINE
  5
61D
330
1F
100
AcDbEntity
  8
Straßenverlauf_FBRD
100
AcDbPolyline
 90
        3
 70
     0
 43
0.0
 10
99604.9804999996
 20
302785.2990000006
 10
99600.45529999957
 20
302782.6502000001
 10
99599.50980000012
 20
302782.1305
1001
AcMap_E615D161-C9D7-11d3-839F-0060B0FB6B57
1071
        1
1071
        6
  0
LWPOLYLINE
  5
61E
330
1F
100
AcDbEntity
  8
Straßenverlauf_FBRD
100
AcDbPolyline
 90
       10
 70
     0
 43
0.0
 10
99604.9804999996
 20
302785.2990000006
 10
99605.31309999991
 20
302789.5968999994
 10
99609.03409999982
 20
302791.9099000003
 10
99612.59530000017
 20
302794.2148000002
 10
99616.08210000024
 20
302796.5473999996
 10
99618.20110000019
 20
302798.0110999998
 10
99620.64859999996
 20
302799.7137000002
 10
99622.37480000034
 20
302800.9419
 10
99623.54569999966
 20
302801.7763000001
 10
99629.35570000018
 20
302801.6577000004
1001
AcMap_E615D161-C9D7-11d3-839F-0060B0FB6B57
1071
        1
1071
        6
  0
LWPOLYLINE
  5
61F
330
1F
100
AcDbEntity
  8
Straßenverlauf_FBRD
100
AcDbPolyline
 90
       31
 70
     0
 43
0.0
 10
99724.53550000023
 20
302785.4682999999
 10
99721.74982627695
 20
302790.2702047805
 10
99718.5251634867
 20
302794.7890339989
 10
99714.89006051626
 20
302798.9847811326
 10
99710.8766999999
 20
302802.8202999998
 10
99706.05826492096
 20
302807.5087865128
 10
99701.79459999968
 20
302812.7069000006
 10
99701.77639999986
 20
302812.7318999991
 10
99701.47558779304
 20
302813.235925556
 10
99701.26323397972
 20
302813.7831326499
 10
99701.14531078491
 20
302814.3581316637
 10
99701.12513467302
 20
302814.9447513618
 10
99701.20327307576
 20
302815.5264936894
 10
99701.37752843363
 20
302816.0869977625
 10
99701.64300000016
 20
302816.6105000004
 10
99702.23138807492
 20
302817.7621359671
 10
99702.62653005322
 20
302818.9935289763
 10
99702.81809999979
 20
302820.2725000009
 10
99702.94807991217
 20
302821.1148825872
 10
99703.21924912729
 20
302821.9229484608
 10
99703.62372751512
 20
302822.6732153685
 10
99704.14976100446
 20
302823.3438806855
 10
99704.78206315403
 20
302823.9154549947
 10
99705.50225937392
 20
302824.3713284465
 10
99706.28942088787
 20
302824.6982534382
 10
99707.12067291986
 20
302824.8867295867
 10
99707.97185943116
 20
302824.9312798081
 10
99708.81824509055
 20
302824.8306094806
 10
99709.63523407871
 20
302824.5876440665
 10
99710.39908483843
 20
302824.2094440981
 10
99711.08760000021
 20
302823.7070000004
1001
AcMap_E615D161-C9D7-11d3-839F-0060B0FB6B57
1071
        1
1071
        6
  0
LWPOLYLINE
  5
620
330
1F
100
AcDbEntity
  8
Straßenverlauf_FBRD
100
AcDbPolyline
 90
       34
 70
     0
 43
0.0
 10
99648.58559999987
 20
302786.7982999999
 10
99648.13200000021
 20
302786.1294
 10
99645.39637602472
 20
302787.1739498309
 10
99642.53754787049
 20
302787.8078460915
 10
99639.61679999997
 20
302788.0175000001
 10
99638.78390772824
 20
302788.088029737
 10
99637.97427217189
 20
302788.2958138701
 10
99637.21035047807
 20
302788.6350890177
 10
99636.51333181234
 20
302789.0964445853
 10
99635.90254962742
 20
302789.6670837906
 10
99635.39494540427
 20
302790.3311786127
 10
99635.00459874035
 20
302791.0703088191
 10
99634.74233681886
 20
302791.8639728945
 10
99634.61543409124
 20
302792.6901566984
 10
99634.62741050323
 20
302793.5259440791
 10
99634.77793386084
 20
302794.3481525069
 10
99635.06282904463
 20
302795.1339760968
 10
99635.47419381631
 20
302795.8616181824
 10
99636.00061800608
 20
302796.5108958984
 10
99636.62750000041
 20
302797.0637999997
 10
99643.86524688059
 20
302802.5389396566
 10
99651.38721703446
 20
302807.616547279
 10
99659.1716
 20
302812.2818999998
 10
99667.9759999998
 20
302817.2412999999
 10
99668.0678000003
 20
302817.2930999994
 10
99669.87430100987
 20
302818.1032581621
 10
99671.78942331745
 20
302818.6053624272
 10
99673.76103789199
 20
302818.7857456736
 10
99675.73547800052
 20
302818.6394979254
 10
99677.65899999999
 20
302818.1706000008
 10
99680.88711593381
 20
302816.8378044199
 10
99683.89800176938
 20
302815.0681595324
 10
99686.63289999962
 20
302812.8961999994
 10
99698.65469999984
 20
302801.8954000008
1001
AcMap_E615D161-C9D7-11d3-839F-0060B0FB6B57
1071
        1
1071
        6
  0
LWPOLYLINE
  5
621
330
1F
100
AcDbEntity
  8
Straßenverlauf_FBRD
100
AcDbPolyline
 90
       10
 70
     0
 43
0.0
 10
99696.99149999954
 20
302800.5709000006
 10
99699.42779999971
 20
302798.3416000009
 10
99699.59766460368
 20
302798.798947412
 10
99699.69115185401
 20
302799.2777801303
 10
99699.70578922003
 20
302799.7654340913
 10
99699.64118957586
 20
302800.2490119278
 10
99699.49906143895
 20
302800.7157240777
 10
99699.28316378366
 20
302801.1532270383
 10
99698.9992066247
 20
302801.5499498256
 10
99698.65469999984
 20
302801.8954000008
1001
AcMap_E615D161-C9D7-11d3-839F-0060B0FB6B57
1071
        1
1071
        6
  0
LWPOLYLINE
  5
622
330
1F
100
AcDbEntity
  8
Straßenverlauf_FBRD
100
AcDbPolyline
 90
       16
 70
     0
 43
0.0
 10
99629.35570000018
 20
302801.6577000004
 10
99626.24870000034
 20
302799.4090999998
 10
99624.18429999985
 20
302797.9269999992
 10
99622.02300000004
 20
302796.3969999999
 10
99620.19089999982
 20
302795.1316999998
 10
99618.55150000006
 20
302793.9946999997
 10
99617.16280000004
 20
302793.0515000001
 10
99616.11519999989
 20
302792.3586
 10
99614.26350000035
 20
302791.1197999995
 10
99612.14780000039
 20
302789.7540000007
 10
99610.90720000024
 20
302788.9530999996
 10
99609.39869999979
 20
302788.0154999998
 10
99608.2145999996
 20
302787.2646999993
 10
99606.95160000026
 20
302786.4885000009
 10
99605.74899999983
 20
302785.7619000003
 10
99604.9804999996
 20
302785.2990000006
1001
AcMap_E615D161-C9D7-11d3-839F-0060B0FB6B57
1071
        1
1071
        6
  0
LINE
  5
623
330
1F
100
AcDbEntity
  8
Straßenverlauf_FBRD
100
AcDbLine
 10
99698.65469999984
 20
302801.8954000008
 30
0.0
 11
99698.72499999963
 21
302801.8311000001
 31
0.0
1001
AcMap_E615D161-C9D7-11d3-839F-0060B0FB6B57
1071
        1
1071
        6
  0
LWPOLYLINE
  5
624
330
1F
100
AcDbEntity
  8
Straßenverlauf_FBRD
100
AcDbPolyline
 90
       41
 70
     0
 43
0.0
 10
99696.66150000039
 20
302812.1073000003
 10
99689.77780000027
 20
302821.5408999995
 10
99689.71224919185
 20
302821.6165622513
 10
99689.63503042628
 20
302821.6802721177
 10
99689.54829345115
 20
302821.730255935
 10
99689.45445299821
 20
302821.7651221683
 10
99689.35612155787
 20
302821.7839001521
 10
99689.25603664832
 20
302821.786067113
 10
99689.15698460385
 20
302821.7715627232
 10
99689.06172300403
 20
302821.7407907808
 10
99688.97290390364
 20
302821.6946079675
 10
99688.89300000016
 20
302821.6342999991
 10
99687.16119999998
 20
302820.0844000001
 10
99687.09243562761
 20
302820.0116463819
 10
99687.0367252394
 20
302819.9284719837
 10
99686.99561979601
 20
302819.8371923563
 10
99686.97026366086
 20
302819.7403486973
 10
99686.96136274125
 20
302819.6406371058
 10
99686.96916483613
 20
302819.5408335228
 10
99686.99345273751
 20
302819.4437164505
 10
99687.0335502774
 20
302819.3519895997
 10
99687.08834115211
 20
302819.2682066187
 10
99687.15629999991
 20
302819.1947000009
 10
99695.77170000039
 20
302811.3110000007
 10
99695.85397945333
 20
302811.2478528861
 10
99695.94590428984
 20
302811.1998186181
 10
99696.04472780893
 20
302811.168332454
 10
99696.14749717804
 20
302811.1543351956
 10
99696.25114166305
 20
302811.1582450792
 10
99696.35256438158
 20
302811.179945278
 10
99696.4487348373
 20
302811.2187873932
 10
99696.53677947075
 20
302811.2736108279
 10
99696.61406752084
 20
302811.3427774656
 10
99696.67828963171
 20
302811.4242206172
 10
99696.72752685584
 20
302811.5155067729
 10
99696.76030799202
 20
302811.6139083155
 10
99696.77565354459
 20
302811.7164850208
 10
99696.77310499063
 20
302811.8201719117
 10
99696.75273848057
 20
302811.9218708385
 10
99696.71516256282
 20
302812.018543052
 10
99696.66150000039
 20
302812.1073000003
1001
AcMap_E615D161-C9D7-11d3-839F-0060B0FB6B57
1071
        1
1071
        6
  0
LWPOLYLINE
  5
625
330
1F
100
AcDbEntity
  8
Straßenverlauf_FBRD
100
AcDbPolyline
 90
       17
 70
     0
 43
0.0
 10
99713.58139999956
 20
302825.5450999998
 10
99712.71102416045
 20
302826.3906607131
 10
99711.72665662718
 20
302827.1002715789
 10
99710.64933905955
 20
302827.6587640854
 10
99709.50210000015
 20
302828.0541999992
 10
99709.1244689024
 20
302828.1873251293
 10
99708.77293494272
 20
302828.3790317317
 10
99708.45651594935
 20
302828.6244019966
 10
99708.1833289536
 20
302828.9171414911
 10
99707.96038196517
 20
302829.249740629
 10
99707.79339419729
 20
302829.6136673134
 10
99707.68664935274
 20
302829.9995858079
 10
99707.64288573503
 20
302830.3975962249
 10
99707.66322600326
 20
302830.7974884851
 10
99707.74714837268
 20
302831.1890042346
 10
99707.89250000008
 20
302831.5621000007
 10
99709.42679999955
 20
302834.7248999998
1001
AcMap_E615D161-C9D7-11d3-839F-0060B0FB6B57
1071
        1
1071
        6
  0
LWPOLYLINE
  5
626
330
1F
100
AcDbEntity
  8
Straßenverlauf_FBRD
100
AcDbPolyline
 90
       41
 70
     0
 43
0.0
 10
99665.0055999998
 20
302825.5465999991
 10
99655.88929999992
 20
302817.1835999992
 10
99655.80828655523
 20
302817.0953760921
 10
99655.74349869358
 20
302816.994633008
 10
99655.69683308673
 20
302816.8843200117
 10
99655.66965587543
 20
302816.7676665283
 10
99655.6627626755
 20
302816.6480876013
 10
99655.67635528612
 20
302816.5290839166
 10
99655.71003578215
 20
302816.4141393205
 10
99655.76281816336
 20
302816.3066188283
 10
99655.83315721978
 20
302816.2096701143
 10
99655.91899376784
 20
302816.1261313626
 10
99656.01781493321
 20
302816.0584481795
 10
99656.12672771545
 20
302816.0086019973
 10
99656.24254368098
 20
302815.9780520688
 10
99656.36187230469
 20
302815.9676927461
 10
99656.48122022814
 20
302815.9778272998
 10
99656.59709352777
 20
302816.0081590396
 10
99656.70610000007
 20
302816.0578000006
 10
99667.47640000004
 20
302822.1247000005
 10
99667.57366759262
 20
302822.1908214642
 10
99667.65849262573
 20
302822.2722938294
 10
99667.72848072816
 20
302822.366817361
 10
99667.7816563333
 20
302822.4717239267
 10
99667.81651844394
 20
302822.5840523103
 10
99667.83208300112
 20
302822.7006317986
 10
99667.8279106613
 20
302822.8181716817
 10
99667.80411919785
 20
302822.9333541403
 10
99667.76138017662
 20
302823.042927899
 10
99667.70089999959
 20
302823.1437999997
 10
99666.04679999965
 20
302825.4398999997
 10
99665.96994730327
 20
302825.5295497798
 10
99665.87911934594
 20
302825.6050064044
 10
99665.77690059526
 20
302825.6641227899
 10
99665.66619963868
 20
302825.705216807
 10
99665.55016642081
 20
302825.7271191443
 10
99665.43210261335
 20
302825.7292065807
 10
99665.31536766744
 20
302825.7114197196
 10
99665.20328322213
 20
302825.6742646776
 10
99665.09903858861
 20
302825.6187986843
 10
99665.0055999998
 20
302825.5465999991
1001
AcMap_E615D161-C9D7-11d3-839F-0060B0FB6B57
1071
        1
1071
        6
  0
LWPOLYLINE
  5
627
330
1F
100
AcDbEntity
  8
Straßenverlauf_FBRD
100
AcDbPolyline
 90
       37
 70
     0
 43
0.0
 10
99685.65490000043
 20
302833.3326999992
 10
99685.55615039502
 20
302834.4614131541
 10
99685.26290203554
 20
302835.5558309308
 10
99684.78406512502
 20
302836.5826999992
 10
99684.1341888807
 20
302837.5108194622
 10
99683.33301946339
 20
302838.3119888795
 10
99682.40490000043
 20
302838.9618651238
 10
99681.37803093204
 20
302839.4407020344
 10
99680.28361315527
 20
302839.7339503938
 10
99679.15490000043
 20
302839.8326999993
 10
99678.0261868456
 20
302839.7339503938
 10
99676.93176906882
 20
302839.4407020344
 10
99675.90490000043
 20
302838.9618651238
 10
99674.97678053748
 20
302838.3119888795
 10
99674.17561112016
 20
302837.5108194622
 10
99673.52573487582
 20
302836.5826999992
 10
99673.04689796533
 20
302835.5558309308
 10
99672.75364960585
 20
302834.4614131541
 10
99672.65490000043
 20
302833.3326999992
 10
99672.75364960585
 20
302832.2039868444
 10
99673.04689796533
 20
302831.1095690676
 10
99673.52573487582
 20
302830.0826999992
 10
99674.17561112016
 20
302829.1545805363
 10
99674.97678053748
 20
302828.353411119
 10
99675.90490000043
 20
302827.7035348746
 10
99676.93176906882
 20
302827.2246979641
 10
99678.0261868456
 20
302826.9314496047
 10
99679.15490000043
 20
302826.8326999992
 10
99680.28361315527
 20
302826.9314496047
 10
99681.37803093204
 20
302827.2246979641
 10
99682.40490000043
 20
302827.7035348746
 10
99683.33301946339
 20
302828.353411119
 10
99684.1341888807
 20
302829.1545805363
 10
99684.78406512502
 20
302830.0826999992
 10
99685.26290203554
 20
302831.1095690676
 10
99685.55615039502
 20
302832.2039868444
 10
99685.65490000043
 20
302833.3326999992
1001
AcMap_E615D161-C9D7-11d3-839F-0060B0FB6B57
1071
        1
1071
        6
  0
LWPOLYLINE
  5
628
330
1F
100
AcDbEntity
  8
Straßenverlauf_FBRD
100
AcDbPolyline
 90
       27
 70
     0
 43
0.0
 10
99706.16459999979
 20
302836.0192000009
 10
99700.24060000014
 20
302823.8078000005
 10
99699.99667093391
 20
302823.336866048
 10
99699.67873620033
 20
302822.9123690726
 10
99699.29542374293
 20
302822.545828847
 10
99698.85713569095
 20
302822.2471923448
 10
99698.37576607217
 20
302822.0245638041
 10
99697.86437803888
 20
302821.8839848
 10
99697.33684936723
 20
302821.8292702903
 10
99696.80749584931
 20
302821.8619050886
 10
99696.29068279898
 20
302821.9810035688
 10
99695.80043521354
 20
302822.1833336998
 10
99695.35005717084
 20
302822.4634047545
 10
99694.95177079039
 20
302822.8136163136
 10
99694.6163845558
 20
302823.2244645224
 10
99694.35300000013
 20
302823.6848000009
 10
99693.86773401776
 20
302825.3766152783
 10
99693.63515843344
 20
302827.1212156922
 10
99693.66027645158
 20
302828.88107111
 10
99693.94254772922
 20
302830.6183232312
 10
99694.47589999996
 20
302832.2956000008
 10
99696.01801202697
 20
302835.7716694789
 10
99698.06950101229
 20
302838.9736316061
 10
99700.58289999981
 20
302841.8274000008
 10
99712.60020000022
 20
302853.5410999991
 10
99716.069154112
 20
302856.7657337309
 10
99719.68690000009
 20
302859.8224999998
1001
AcMap_E615D161-C9D7-11d3-839F-0060B0FB6B57
1071
        1
1071
        6
  0
LWPOLYLINE
  5
629
330
1F
100
AcDbEntity
  8
Straßenverlauf_FBRD
100
AcDbPolyline
 90
       41
 70
     0
 43
0.0
 10
99693.0906999996
 20
302841.5068999995
 10
99701.94969999976
 20
302850.142000001
 10
99702.02800253142
 20
302850.2326259869
 10
99702.08970967295
 20
302850.3352738534
 10
99702.13301494105
 20
302850.4469385727
 10
99702.15665056926
 20
302850.5643511481
 10
99702.159924622
 20
302850.6840743137
 10
99702.14274125099
 20
302850.8026031607
 10
99702.10560350134
 20
302850.9164677441
 10
99702.04959858467
 20
302851.0223346658
 10
99701.97636605107
 20
302851.1171046601
 10
99701.88804979095
 20
302851.1980033251
 10
99701.78723527247
 20
302851.2626623435
 10
99701.67687385167
 20
302851.3091888154
 10
99701.56019637119
 20
302851.3362206735
 10
99701.44061857705
 20
302851.342966557
 10
99701.32164112222
 20
302851.3292289795
 10
99701.20674708466
 20
302851.2954101101
 10
99701.09929999988
 20
302851.2424999997
 10
99690.51740000024
 20
302844.8523999993
 10
99690.42219289624
 20
302844.783355361
 10
99690.33988865589
 20
302844.6993460358
 10
99690.27281049566
 20
302844.6027433694
 10
99690.22285184264
 20
302844.4962741827
 10
99690.19142288864
 20
302844.3829438003
 10
99690.1794107843
 20
302844.2659512191
 10
99690.18715459743
 20
302844.1485988093
 10
99690.21443574204
 20
302844.0341990983
 10
99690.26048414841
 20
302843.9259812671
 10
99690.32400000003
 20
302843.8269999996
 10
99692.04679999966
 20
302841.5820000005
 10
99692.12632951013
 20
302841.4947245063
 10
99692.21939711903
 20
302841.4220583169
 10
99692.32335463058
 20
302841.3660691152
 10
99692.43524398164
 20
302841.328350048
 10
99692.55188141239
 20
302841.3099743942
 10
99692.66994805854
 20
302841.3114650242
 10
99692.78608438811
 20
302841.3327795231
 10
99692.89698579544
 20
302841.3733113965
 10
99692.99949663213
 20
302841.4319073287
 10
99693.0906999996
 20
302841.5068999995
1001
AcMap_E615D161-C9D7-11d3-839F-0060B0FB6B57
1071
        1
1071
        6
  0
LINE
  5
62A
330
1F
100
AcDbEntity
  8
Straßenverlauf_FBRD
100
AcDbLine
 10
99682.6029000003
 20
302847.9310999997
 30
0.0
 11
99680.79270000011
 21
302848.2430000007
 31
0.0
1001
AcMap_E615D161-C9D7-11d3-839F-0060B0FB6B57
1071
        1
1071
        6
  0
LWPOLYLINE
  5
62B
330
1F
100
AcDbEntity
  8
Straßenverlauf_FBRD
100
AcDbPolyline
 90
       41
 70
     0
 43
0.0
 10
99665.12370000035
 20
302851.693
 10
99668.40460000002
 20
302845.2521000002
 10
99668.45884279885
 20
302845.1649613208
 10
99668.52714331203
 20
302845.0883423247
 10
99668.60750296044
 20
302845.0244850027
 10
99668.69757029591
 20
302844.9752579192
 10
99668.79470980831
 20
302844.9421015353
 10
99668.89607904457
 20
302844.9259860581
 10
99668.99871178338
 20
302844.9273830516
 10
99669.09960483135
 20
302844.9462516376
 10
99669.19580590117
 20
302844.9820396919
 10
99669.28450000006
 20
302845.0337000005
 10
99670.95669999999
 20
302846.2100000009
 10
99671.03529098377
 20
302846.2760149126
 10
99671.10148098436
 20
302846.3544584917
 10
99671.15333317956
 20
302846.4430353575
 10
99671.18933029356
 20
302846.5391536132
 10
99671.20841899493
 20
302846.6400006893
 10
99671.21004071863
 20
302846.7426256439
 10
99671.19414801048
 20
302846.8440255114
 10
99671.16120591581
 20
302846.9412331741
 10
99671.1121783715
 20
302847.0314041849
 10
99671.04849999957
 20
302847.1118999999
 10
99666.09530000017
 20
302852.3763999995
 10
99666.02035675782
 20
302852.4437192434
 10
99665.93520642625
 20
302852.4975503795
 10
99665.84224965485
 20
302852.5363757426
 10
99665.74410718047
 20
302852.5591007265
 10
99665.64354594094
 20
302852.5650846443
 10
99665.5434010664
 20
302852.5541587907
 10
99665.44649594844
 20
302852.5266311994
 10
99665.35556264
 20
302852.4832779574
 10
99665.27316483032
 20
302852.425321326
 10
99665.20162556669
 20
302852.3543952804
 10
99665.1429617607
 20
302852.2724994439
 10
99665.09882732518
 20
302852.1819427116
 10
99665.07046654546
 20
302852.0852781558
 10
99665.05867899902
 20
302851.9852310473
 10
99665.06379701298
 20
302851.8846220214
 10
99665.0856762948
 20
302851.7862875554
 10
99665.12370000035
 20
302851.693
1001
AcMap_E615D161-C9D7-11d3-839F-0060B0FB6B57
1071
        1
1071
        6
  0
LWPOLYLINE
  5
62C
330
1F
100
AcDbEntity
  8
Straßenverlauf_FBRD
100
AcDbPolyline
 90
        3
 70
     0
 43
0.0
 10
99720.92349999957
 20
302858.6465000008
 10
99720.72339999956
 20
302858.4907000009
 10
99719.68690000009
 20
302859.8224999998
1001
AcMap_E615D161-C9D7-11d3-839F-0060B0FB6B57
1071
        1
1071
        6
  0
LWPOLYLINE
  5
62D
330
1F
100
AcDbEntity
  8
Straßenverlauf_FBRD
100
AcDbPolyline
 90
        8
 70
     0
 43
0.0
 10
99720.92349999957
 20
302858.6465000008
 10
99721.39130000025
 20
302858.0460999999
 10
99718.84779999964
 20
302853.4656000007
 10
99701.15220000035
 20
302836.6079999991
 10
99701.91089999955
 20
302835.8115999997
 10
99719.72800000012
 20
302852.7849000003
 10
99722.7061999999
 20
302858.1480999999
 10
99720.74639999959
 20
302860.6637999993
1001
AcMap_E615D161-C9D7-11d3-839F-0060B0FB6B57
1071
        1
1071
        6
  0
LINE
  5
62E
330
1F
100
AcDbEntity
  8
Straßenverlauf_FBRD
100
AcDbLine
 10
99719.68690000009
 20
302859.8224999998
 30
0.0
 11
99714.76360000018
 21
302866.1484999992
 31
0.0
1001
AcMap_E615D161-C9D7-11d3-839F-0060B0FB6B57
1071
        1
1071
        6
  0
LINE
  5
62F
330
1F
100
AcDbEntity
  8
Straßenverlauf_FBRD
100
AcDbLine
 10
99719.88410000037
 20
302859.9807999991
 30
0.0
 11
99719.68690000009
 21
302859.8224999998
 31
0.0
1001
AcMap_E615D161-C9D7-11d3-839F-0060B0FB6B57
1071
        1
1071
        6
  0
LINE
  5
630
330
1F
100
AcDbEntity
  8
Straßenverlauf_FBRD
100
AcDbLine
 10
99719.88410000037
 20
302859.9807999991
 30
0.0
 11
99720.92349999957
 21
302858.6465000008
 31
0.0
1001
AcMap_E615D161-C9D7-11d3-839F-0060B0FB6B57
1071
        1
1071
        6
  0
LINE
  5
631
330
1F
100
AcDbEntity
  8
Straßenverlauf_FBRD
100
AcDbLine
 10
99720.07679999991
 20
302860.1348000001
 30
0.0
 11
99719.88410000037
 21
302859.9807999991
 31
0.0
1001
AcMap_E615D161-C9D7-11d3-839F-0060B0FB6B57
1071
        1
1071
        6
  0
LWPOLYLINE
  5
632
330
1F
100
AcDbEntity
  8
Straßenverlauf_FBRD
100
AcDbPolyline
 90
        3
 70
     0
 43
0.0
 10
99720.07679999991
 20
302860.1348000001
 10
99721.11780000012
 20
302858.7979000006
 10
99720.92349999957
 20
302858.6465000008
1001
AcMap_E615D161-C9D7-11d3-839F-0060B0FB6B57
1071
        1
1071
        6
  0
LINE
  5
633
330
1F
100
AcDbEntity
  8
Straßenverlauf_FBRD
100
AcDbLine
 10
99720.74639999959
 20
302860.6637999993
 30
0.0
 11
99720.07679999991
 21
302860.1348000001
 31
0.0
1001
AcMap_E615D161-C9D7-11d3-839F-0060B0FB6B57
1071
        1
1071
        6
  0
LINE
  5
634
330
1F
100
AcDbEntity
  8
Straßenverlauf_FBRD
100
AcDbLine
 10
99720.74639999959
 20
302860.6637999993
 30
0.0
 11
99715.82809999958
 21
302866.9773999993
 31
0.0
1001
AcMap_E615D161-C9D7-11d3-839F-0060B0FB6B57
1071
        1
1071
        6
  0
LINE
  5
635
330
1F
100
AcDbEntity
  8
Straßenverlauf_FBRD
100
AcDbLine
 10
99721.1118999999
 20
302860.9486999996
 30
0.0
 11
99720.74639999959
 21
302860.6637999993
 31
0.0
1001
AcMap_E615D161-C9D7-11d3-839F-0060B0FB6B57
1071
        1
1071
        6
  0
LWPOLYLINE
  5
636
330
1F
100
AcDbEntity
  8
Straßenverlauf_FBRD
100
AcDbPolyline
 90
        3
 70
     0
 43
0.0
 10
99714.76360000018
 20
302866.1484999992
 10
99713.75430000014
 20
302867.4452999998
 10
99713.95029999968
 20
302867.5978999995
1001
AcMap_E615D161-C9D7-11d3-839F-0060B0FB6B57
1071
        1
1071
        6
  0
LWPOLYLINE
  5
637
330
1F
100
AcDbEntity
  8
Straßenverlauf_FBRD
100
AcDbPolyline
 90
       35
 70
     0
 43
0.0
 10
99714.76360000018
 20
302866.1484999992
 10
99714.75879999996
 20
302866.1447999999
 10
99713.89300000016
 20
302865.4645000007
 10
99706.69534871314
 20
302860.1887677418
 10
99699.1967000002
 20
302855.3504000008
 10
99690.05900000036
 20
302849.8323999997
 10
99688.41649119614
 20
302849.0051587017
 10
99686.66686505391
 20
302848.4386150587
 10
99684.85121531243
 20
302848.1460755685
 10
99683.01218641693
 20
302848.1344111512
 10
99681.19297192247
 20
302848.4038957707
 10
99679.43630000018
 20
302848.9482000005
 10
99676.14320139825
 20
302850.5405433702
 10
99673.11771145309
 20
302852.5963805234
 10
99670.42459999957
 20
302855.0716999993
 10
99669.89517261769
 20
302855.7416057378
 10
99669.48744656104
 20
302856.4918233823
 10
99669.21331202716
 20
302857.3004749194
 10
99669.08076338805
 20
302858.1439782742
 10
99669.09366605642
 20
302858.997735015
 10
99669.25164376185
 20
302859.8368476986
 10
99669.55008952348
 20
302860.6368459353
 10
99669.98029999993
 20
302861.3743999992
 10
99675.29559999984
 20
302868.6927000005
 10
99676.43822179741
 20
302870.0077135289
 10
99677.79172021272
 20
302871.1044756691
 10
99679.31501876936
 20
302871.949701473
 10
99680.96188783265
 20
302872.5177397117
 10
99682.68234760394
 20
302872.7913513482
 10
99684.42418492625
 20
302872.762232714
 10
99686.13453786867
 20
302872.4312675125
 10
99687.76150000001
 20
302871.8084999994
 10
99689.84740948185
 20
302870.9929024238
 10
99692.03668609599
 20
302870.5203712837
 10
99694.27329999954
 20
302870.4030000009
1001
AcMap_E615D161-C9D7-11d3-839F-0060B0FB6B57
1071
        1
1071
        6
  0
LINE
  5
638
330
1F
100
AcDbEntity
  8
Straßenverlauf_FBRD
100
AcDbLine
 10
99714.96019999962
 20
302866.3015000001
 30
0.0
 11
99714.76360000018
 21
302866.1484999992
 31
0.0
1001
AcMap_E615D161-C9D7-11d3-839F-0060B0FB6B57
1071
        1
1071
        6
  0
LINE
  5
639
330
1F
100
AcDbEntity
  8
Straßenverlauf_FBRD
100
AcDbLine
 10
99714.96019999962
 20
302866.3015000001
 30
0.0
 11
99719.88410000037
 21
302859.9807999991
 31
0.0
1001
AcMap_E615D161-C9D7-11d3-839F-0060B0FB6B57
1071
        1
1071
        6
  0
LINE
  5
63A
330
1F
100
AcDbEntity
  8
Straßenverlauf_FBRD
100
AcDbLine
 10
99715.15570000001
 20
302866.4538000003
 30
0.0
 11
99714.96019999962
 21
302866.3015000001
 31
0.0
1001
AcMap_E615D161-C9D7-11d3-839F-0060B0FB6B57
1071
        1
1071
        6
  0
LINE
  5
63B
330
1F
100
AcDbEntity
  8
Straßenverlauf_FBRD
100
AcDbLine
 10
99715.15570000001
 20
302866.4538000003
 30
0.0
 11
99720.07679999991
 21
302860.1348000001
 31
0.0
1001
AcMap_E615D161-C9D7-11d3-839F-0060B0FB6B57
1071
        1
1071
        6
  0
LINE
  5
63C
330
1F
100
AcDbEntity
  8
Straßenverlauf_FBRD
100
AcDbLine
 10
99715.82809999958
 20
302866.9773999993
 30
0.0
 11
99715.15570000001
 21
302866.4538000003
 31
0.0
1001
AcMap_E615D161-C9D7-11d3-839F-0060B0FB6B57
1071
        1
1071
        6
  0
LWPOLYLINE
  5
63D
330
1F
100
AcDbEntity
  8
Straßenverlauf_FBRD
100
AcDbPolyline
 90
        6
 70
     0
 43
0.0
 10
99715.82809999958
 20
302866.9773999993
 10
99713.9497999996
 20
302869.3884999994
 10
99704.70679999982
 20
302864.8578999993
 10
99705.19089999982
 20
302863.8702000007
 10
99713.63129999954
 20
302868.0074000005
 10
99713.95029999968
 20
302867.5978999995
1001
AcMap_E615D161-C9D7-11d3-839F-0060B0FB6B57
1071
        1
1071
        6
  0
LINE
  5
63E
330
1F
100
AcDbEntity
  8
Straßenverlauf_FBRD
100
AcDbLine
 10
99713.95029999968
 20
302867.5978999995
 30
0.0
 11
99714.96019999962
 21
302866.3015000001
 31
0.0
1001
AcMap_E615D161-C9D7-11d3-839F-0060B0FB6B57
1071
        1
1071
        6
  0
LWPOLYLINE
  5
63F
330
1F
100
AcDbEntity
  8
Straßenverlauf_FBRD
100
AcDbPolyline
 90
        3
 70
     0
 43
0.0
 10
99713.95029999968
 20
302867.5978999995
 10
99714.14599999972
 20
302867.7503999994
 10
99715.15570000001
 20
302866.4538000003
1001
AcMap_E615D161-C9D7-11d3-839F-0060B0FB6B57
1071
        1
1071
        6
  0
LWPOLYLINE
  5
640
330
1F
100
AcDbEntity
  8
Straßenverlauf_FBRD
100
AcDbPolyline
 90
       47
 70
     0
 43
0.0
 10
99654.0614
 20
302869.7672000006
 10
99656.37179999985
 20
302864.0587000009
 10
99660.61220000032
 20
302852.8268999998
 10
99660.68048759543
 20
302852.5875448892
 10
99660.70825406964
 20
302852.3401927364
 10
99660.69473486912
 20
302852.0916544178
 10
99660.640302247
 20
302851.8487734711
 10
99660.54645501321
 20
302851.6182376576
 10
99660.41577726459
 20
302851.4063948135
 10
99660.25186723141
 20
302851.2190780613
 10
99660.05923819963
 20
302851.0614451944
 10
99659.84319423684
 20
302850.9378366561
 10
99659.60968414414
 20
302850.8516560249
 10
99659.36513765486
 20
302850.8052762966
 10
99659.11628839123
 20
302850.7999745437
 10
99658.86998845283
 20
302850.8358967507
 10
99658.63301974332
 20
302850.9120537944
 10
99658.41190722958
 20
302851.02634868
 10
99658.21273927597
 20
302851.1756342816
 10
99658.04100000021
 20
302851.3557999991
 10
99656.53839999996
 20
302853.2200000007
 10
99653.77139999997
 20
302851.0756999999
 10
99655.86220000032
 20
302848.4816999994
 10
99655.4282999998
 20
302848.1319999993
 10
99652.72919999994
 20
302850.2954999991
 10
99648.11600000039
 20
302844.5402000007
 10
99644.69639999979
 20
302841.8202999998
 10
99648.43130000028
 20
302837.1245000009
 10
99655.00470000041
 20
302842.3529000003
 10
99661.19589999969
 20
302844.0592000001
 10
99661.64426571562
 20
302844.1572435323
 10
99662.10223799937
 20
302844.1873389935
 10
99662.55957828893
 20
302844.1488135606
 10
99663.00606215142
 20
302844.0425285194
 10
99663.43170786339
 20
302843.8708600094
 10
99663.82699956511
 20
302843.6376459017
 10
99664.18310000003
 20
302843.3480999991
 10
99664.61461899447
 20
302840.7451663281
 10
99664.59735142564
 20
302838.1067626118
 10
99664.13179999962
 20
302835.5097000003
 10
99662.46836995814
 20
302831.7926780672
 10
99660.22354888846
 20
302828.3950274202
 10
99657.45689999964
 20
302825.4068999999
 10
99646.12600000016
 20
302815.0121999998
 10
99639.47835570875
 20
302809.2873886526
 10
99632.50739999953
 20
302803.9609999992
 10
99629.35570000018
 20
302801.6577000004
1001
AcMap_E615D161-C9D7-11d3-839F-0060B0FB6B57
1071
        1
1071
        6
  0
LINE
  5
641
330
1F
100
AcDbEntity
  8
Straßenverlauf_FBRD
100
AcDbLine
 10
99694.27329999954
 20
302870.4030000009
 30
0.0
 11
99694.69209999964
 21
302870.4209000003
 31
0.0
1001
AcMap_E615D161-C9D7-11d3-839F-0060B0FB6B57
1071
        1
1071
        6
  0
LINE
  5
642
330
1F
100
AcDbEntity
  8
Straßenverlauf_FBRD
100
AcDbLine
 10
99694.27329999954
 20
302870.4030000009
 30
0.0
 11
99694.69209999964
 21
302870.4209000003
 31
0.0
1001
AcMap_E615D161-C9D7-11d3-839F-0060B0FB6B57
1071
        1
1071
        6
  0
LWPOLYLINE
  5
643
330
1F
100
AcDbEntity
  8
Straßenverlauf_FBRD
100
AcDbPolyline
 90
        8
 70
     0
 43
0.0
 10
99694.69209999964
 20
302870.4209000003
 10
99694.7304999996
 20
302870.4232000001
 10
99704.0661000004
 20
302870.8206999991
 10
99708.61539999955
 20
302870.6443000008
 10
99709.09489999991
 20
302874.6154999994
 10
99706.49940426598
 20
302874.8221477144
 10
99703.89570000023
 20
302874.8170999997
 10
99694.48929999956
 20
302874.4158999995
1001
AcMap_E615D161-C9D7-11d3-839F-0060B0FB6B57
1071
        1
1071
        6
  0
LWPOLYLINE
  5
644
330
1F
100
AcDbEntity
  8
Straßenverlauf_FBRD
100
AcDbPolyline
 90
       17
 70
     0
 43
0.0
 10
99660.13839999959
 20
302872.2180000004
 10
99662.16669999994
 20
302867.1305999998
 10
99663.06219999959
 20
302865.0319999997
 10
99663.27629454097
 20
302864.6637768719
 10
99663.54979120648
 20
302864.3372430782
 10
99663.87475061011
 20
302864.0618776292
 10
99664.24173944442
 20
302863.8456741603
 10
99664.64010432174
 20
302863.6949088824
 10
99665.05828103333
 20
302863.6139583892
 10
99665.48413024906
 20
302863.6051726075
 10
99665.90528991215
 20
302863.6688065816
 10
99666.30953409982
 20
302863.8030130689
 10
99666.68512793173
 20
302864.003896164
 10
99667.02116822414
 20
302864.265624394
 10
99667.30790000037
 20
302864.5806000009
 10
99674.84949999954
 20
302873.5197999999
 10
99680.65500000026
 20
302882.3350000009
1001
AcMap_E615D161-C9D7-11d3-839F-0060B0FB6B57
1071
        1
1071
        6
  0
LINE
  5
645
330
1F
100
AcDbEntity
  8
Straßenverlauf_FBRD
100
AcDbLine
 10
99694.1353000002
 20
302874.4008000009
 30
0.0
 11
99694.48929999956
 21
302874.4158999995
 31
0.0
1001
AcMap_E615D161-C9D7-11d3-839F-0060B0FB6B57
1071
        1
1071
        6
  0
LINE
  5
646
330
1F
100
AcDbEntity
  8
Straßenverlauf_FBRD
100
AcDbLine
 10
99694.1353000002
 20
302874.4008000009
 30
0.0
 11
99694.48929999956
 21
302874.4158999995
 31
0.0
1001
AcMap_E615D161-C9D7-11d3-839F-0060B0FB6B57
1071
        1
1071
        6
  0
LWPOLYLINE
  5
647
330
1F
100
AcDbEntity
  8
Straßenverlauf_FBRD
100
AcDbPolyline
 90
       22
 70
     0
 43
0.0
 10
99694.1353000002
 20
302874.4008000009
 10
99692.48055051593
 20
302874.4969803075
 10
99690.86441994878
 20
302874.8651765825
 10
99689.33131031851
 20
302875.4952728995
 10
99687.92334270462
 20
302876.3699578172
 10
99686.67920000013
 20
302877.4651999996
 10
99686.24159844418
 20
302878.0077300336
 10
99685.90481921202
 20
302878.6179871175
 10
99685.67908842899
 20
302879.2774411138
 10
99685.57126029235
 20
302879.9660680466
 10
99685.5846089471
 20
302880.662958119
 10
99685.71872906831
 20
302881.3469506282
 10
99685.96954816863
 20
302881.9972764992
 10
99686.32945025715
 20
302882.594188927
 10
99686.78750709507
 20
302883.1195629774
 10
99687.32981002593
 20
302883.5574459421
 10
99687.93989230468
 20
302883.8945417338
 10
99688.59922910178
 20
302884.1206146149
 10
99689.28780000005
 20
302884.2288000006
 10
99698.34350000043
 20
302884.8509999998
 10
99698.20110000018
 20
302887.8483000007
 10
99689.68969999998
 20
302887.2634999995
1001
AcMap_E615D161-C9D7-11d3-839F-0060B0FB6B57
1071
        1
1071
        6
  0
LWPOLYLINE
  5
648
330
1F
100
AcDbEntity
  8
Straßenverlauf_FBRD
100
AcDbPolyline
 90
       61
 70
     0
 43
0.0
 10
100042.5185000002
 20
303303.3828999997
 10
100045.3521999996
 20
303294.2020999994
 10
100048.6326000001
 20
303281.5638999995
 10
100051.3039999995
 20
303268.5785000008
 10
100053.3250000002
 20
303255.4726
 10
100054.6677000001
 20
303242.5607999992
 10
100055.3783999998
 20
303229.5976999999
 10
100055.4551999997
 20
303216.6152999997
 10
100054.898
 20
303203.6447000001
 10
100053.7079999996
 20
303190.7168000005
 10
100051.8883999996
 20
303177.8636000007
 10
100049.3521999996
 20
303164.6815000009
 10
100046.1547999996
 20
303151.6460999996
 10
100042.3039999995
 20
303138.7885999996
 10
100037.8095000004
 20
303126.1416999996
 10
100032.6829000004
 20
303113.7376000006
 10
100026.9370999997
 20
303101.6078999993
 10
100020.5867999997
 20
303089.7833999992
 10
100013.6491
 20
303078.2959000003
 10
100007.0807999996
 20
303068.5848999992
 10
100000.3284
 20
303059.4082999993
 10
99993.22200000007
 20
303050.5013999995
 10
99985.79000000004
 20
303041.8982999996
 10
99975.32639999967
 20
303030.9856000003
 10
99964.33420000039
 20
303020.5976999998
 10
99952.84389999975
 20
303010.7635999993
 10
99940.88329999987
 20
303001.5073000007
 10
99928.48149999977
 20
302992.8510999996
 10
99915.63239999953
 20
302984.7936000005
 10
99912.6922000004
 20
302983.0625999999
 10
99909.68840000034
 20
302981.3561000004
 10
99907.10190000012
 20
302979.9146999997
 10
99904.07019999995
 20
302978.2682000007
 10
99899.70760000032
 20
302975.9759999998
 10
99892.49050000031
 20
302972.3797999993
 10
99886.68070000038
 20
302969.6428999994
 10
99880.49210000038
 20
302966.8532999997
 10
99874.11459999997
 20
302964.0866999999
 10
99868.15390000026
 20
302961.5640999992
 10
99862.16990000009
 20
302959.0808000006
 10
99854.86679999995
 20
302956.0645000004
 10
99845.04600000009
 20
302951.9695999995
 10
99832.14780000038
 20
302946.3469999992
 10
99828.45459999982
 20
302944.6554000005
 10
99823.88159999997
 20
302942.4852000009
 10
99819.24170000013
 20
302940.1930999998
 10
99815.62540000025
 20
302938.3391999994
 10
99810.71800000034
 20
302935.7185999993
 10
99807.26879999973
 20
302933.8062999994
 10
99804.18479999993
 20
302932.0461999998
 10
99801.56070000026
 20
302930.5032000002
 10
99798.95739999973
 20
302928.9382000007
 10
99796.36589999962
 20
302927.3457999993
 10
99792.93379999976
 20
302925.1809999999
 10
99788.69299999997
 20
302922.4096000008
 10
99784.64360000007
 20
302919.6626999993
 10
99780.08880000002
 20
302916.4678000007
 10
99775.24700000044
 20
302912.9638999999
 10
99770.18310000003
 20
302909.1886999998
 10
99725.90909999981
 20
302874.8272999991
 10
99715.82809999958
 20
302866.9773999993
1001
AcMap_E615D161-C9D7-11d3-839F-0060B0FB6B57
1071
        1
1071
        6
  0
LWPOLYLINE
  5
649
330
1F
100
AcDbEntity
  8
Straßenverlauf_FBRD
100
AcDbPolyline
 90
        8
 70
     0
 43
0.0
 10
100042.5185000002
 20
303303.3828999997
 10
100039.7077999999
 20
303302.4575999994
 10
100035.0442000003
 20
303308.9671
 10
100028.2788000004
 20
303327.2411000002
 10
100029.3103
 20
303327.6229999997
 10
100036.0245000003
 20
303309.4876000006
 10
100040.1312999995
 20
303303.7551000007
 10
100040.6743999999
 20
303303.9339000005
1001
AcMap_E615D161-C9D7-11d3-839F-0060B0FB6B57
1071
        1
1071
        6
  0
LINE
  5
64A
330
1F
100
AcDbEntity
  8
Straßenverlauf_FBRD
100
AcDbLine
 10
100040.6743999999
 20
303303.9339000005
 30
0.0
 11
100042.1940999999
 21
303304.4341000002
 31
0.0
1001
AcMap_E615D161-C9D7-11d3-839F-0060B0FB6B57
1071
        1
1071
        6
  0
LWPOLYLINE
  5
64B
330
1F
100
AcDbEntity
  8
Straßenverlauf_FBRD
100
AcDbPolyline
 90
        3
 70
     0
 43
0.0
 10
100040.6743999999
 20
303303.9339000005
 10
100040.5963000003
 20
303304.1717000008
 10
100042.1201999998
 20
303304.6732999999
1001
AcMap_E615D161-C9D7-11d3-839F-0060B0FB6B57
1071
        1
1071
        6
  0
LWPOLYLINE
  5
64C
330
1F
100
AcDbEntity
  8
Straßenverlauf_FBRD
100
AcDbPolyline
 90
        3
 70
     0
 43
0.0
 10
100042.2676999997
 20
303304.1954999994
 10
100040.7522
 20
303303.6966999993
 10
100040.6743999999
 20
303303.9339000005
1001
AcMap_E615D161-C9D7-11d3-839F-0060B0FB6B57
1071
        1
1071
        6
  0
LINE
  5
64D
330
1F
100
AcDbEntity
  8
Straßenverlauf_FBRD
100
AcDbLine
 10
100042.2676999997
 20
303304.1954999994
 30
0.0
 11
100042.5185000002
 21
303303.3828999997
 31
0.0
1001
AcMap_E615D161-C9D7-11d3-839F-0060B0FB6B57
1071
        1
1071
        6
  0
LINE
  5
64E
330
1F
100
AcDbEntity
  8
Straßenverlauf_FBRD
100
AcDbLine
 10
100042.1940999999
 20
303304.4341000002
 30
0.0
 11
100042.2676999997
 21
303304.1954999994
 31
0.0
1001
AcMap_E615D161-C9D7-11d3-839F-0060B0FB6B57
1071
        1
1071
        6
  0
LINE
  5
64F
330
1F
100
AcDbEntity
  8
Straßenverlauf_FBRD
100
AcDbLine
 10
100042.1940999999
 20
303304.4341000002
 30
0.0
 11
100049.7943000002
 21
303306.9360000007
 31
0.0
1001
AcMap_E615D161-C9D7-11d3-839F-0060B0FB6B57
1071
        1
1071
        6
  0
LINE
  5
650
330
1F
100
AcDbEntity
  8
Straßenverlauf_FBRD
100
AcDbLine
 10
100042.1201999998
 20
303304.6732999999
 30
0.0
 11
100042.1940999999
 21
303304.4341000002
 31
0.0
1001
AcMap_E615D161-C9D7-11d3-839F-0060B0FB6B57
1071
        1
1071
        6
  0
LINE
  5
651
330
1F
100
AcDbEntity
  8
Straßenverlauf_FBRD
100
AcDbLine
 10
100042.1201999998
 20
303304.6732999999
 30
0.0
 11
100049.7204999998
 21
303307.174900001
 31
0.0
1001
AcMap_E615D161-C9D7-11d3-839F-0060B0FB6B57
1071
        1
1071
        6
  0
LINE
  5
652
330
1F
100
AcDbEntity
  8
Straßenverlauf_FBRD
100
AcDbLine
 10
100042.1178000001
 20
303304.6812999994
 30
0.0
 11
100042.1201999998
 21
303304.6732999999
 31
0.0
1001
AcMap_E615D161-C9D7-11d3-839F-0060B0FB6B57
1071
        1
1071
        6
  0
LWPOLYLINE
  5
653
330
1F
100
AcDbEntity
  8
Straßenverlauf_FBRD
100
AcDbPolyline
 90
       28
 70
     0
 43
0.0
 10
100042.1584999999
 20
303304.6939000004
 10
100040.6759000001
 20
303309.0648999996
 10
100039.7275999999
 20
303311.7529000007
 10
100038.6613999996
 20
303314.6655999999
 10
100037.8232000004
 20
303316.8931000009
 10
100034.5539869749
 20
303324.684498629
 10
100030.6387
 20
303332.1721000001
 10
100023.9730000002
 20
303343.7049000003
 10
100022.0209875317
 20
303346.5959756453
 10
100019.685556455
 20
303349.1871978953
 10
100017.0121772028
 20
303351.4281161083
 10
100014.0528999995
 20
303353.2751000002
 10
100012.0362999998
 20
303354.5618999992
 10
100010.4806754271
 20
303355.5605193585
 10
100008.7901314638
 20
303356.3083626202
 10
100007.0047854784
 20
303356.7876831274
 10
100005.1670045343
 20
303356.9871063889
 10
100003.3203999996
 20
303356.9019000009
 10
99998.64780000038
 20
303356.3232000005
 10
99998.17446342223
 20
303356.2253518617
 10
99997.72298380257
 20
303356.0527600672
 10
99997.30508062359
 20
303355.809904745
 10
99996.93160179216
 20
303355.5030899199
 10
99996.61224205047
 20
303355.1402798733
 10
99996.35529132048
 20
303354.7308924079
 10
99996.16741951458
 20
303354.2855543801
 10
99996.05350339836
 20
303353.8158258489
 10
99996.01649999991
 20
303353.3339000009
1001
AcMap_E615D161-C9D7-11d3-839F-0060B0FB6B57
1071
        1
1071
        6
  0
LINE
  5
654
330
1F
100
AcDbEntity
  8
Straßenverlauf_FBRD
100
AcDbLine
 10
100050.1187000004
 20
303305.8848000001
 30
0.0
 11
100042.5185000002
 21
303303.3828999997
 31
0.0
1001
AcMap_E615D161-C9D7-11d3-839F-0060B0FB6B57
1071
        1
1071
        6
  0
LWPOLYLINE
  5
655
330
1F
100
AcDbEntity
  8
Straßenverlauf_FBRD
100
AcDbPolyline
 90
       61
 70
     0
 43
0.0
 10
100050.1187000004
 20
303305.8848000001
 10
100053.0499
 20
303296.3879000005
 10
100056.4274000004
 20
303283.3761
 10
100059.1802000003
 20
303269.9949999992
 10
100061.2615999998
 20
303256.4966000002
 10
100062.6449999995
 20
303243.1939000003
 10
100063.3771000001
 20
303229.8405000009
 10
100063.4562999997
 20
303216.4671999999
 10
100062.8821999999
 20
303203.1061000005
 10
100061.6564999996
 20
303189.7888999991
 10
100059.7816000003
 20
303176.5463999994
 10
100057.1699000001
 20
303162.9717999995
 10
100053.8764000004
 20
303149.5442999993
 10
100049.9096999997
 20
303136.3000000008
 10
100045.2801000001
 20
303123.2726000008
 10
100039.9992000004
 20
303110.4953000006
 10
100034.0805000001
 20
303098.0007000007
 10
100027.5392000004
 20
303085.8204999995
 10
100020.3909
 20
303073.9840999991
 10
100013.6184
 20
303063.9714000002
 10
100006.6793999998
 20
303054.5410999991
 10
99999.37799999957
 20
303045.3899000008
 10
99991.70810000039
 20
303036.5113999993
 10
99980.96439999994
 20
303025.3065000009
 10
99969.68580000009
 20
303014.6479000003
 10
99957.89599999971
 20
303004.5576000009
 10
99945.62370000034
 20
302995.0600000006
 10
99932.89859999995
 20
302986.1782000009
 10
99919.78760000039
 20
302977.9563999996
 10
99916.6978000002
 20
302976.1373999994
 10
99913.61160000041
 20
302974.3838999998
 10
99910.95810000039
 20
302972.9053000007
 10
99907.83980000019
 20
302971.2117999997
 10
99903.35240000021
 20
302968.8540000003
 10
99895.97950000037
 20
302965.1801999994
 10
99890.02929999958
 20
302962.3771000002
 10
99883.72790000029
 20
302959.5366999992
 10
99877.26539999991
 20
302956.7333000005
 10
99871.24610000011
 20
302954.1859000009
 10
99865.23010000027
 20
302951.6892000009
 10
99857.93319999986
 20
302948.6754999999
 10
99848.18400000035
 20
302944.6104000006
 10
99835.41220000013
 20
302939.0429999996
 10
99831.83540000021
 20
302937.4046
 10
99827.36840000004
 20
302935.2848000005
 10
99822.83829999994
 20
302933.0469000004
 10
99819.33459999972
 20
302931.2508000006
 10
99814.54200000037
 20
302928.6914000008
 10
99811.19120000023
 20
302926.8336999994
 10
99808.19519999997
 20
302925.1238000002
 10
99805.64929999969
 20
302923.6268000007
 10
99803.11259999965
 20
302922.1018000003
 10
99800.59410000034
 20
302920.5541999993
 10
99797.25619999971
 20
302918.4489999992
 10
99793.12700000033
 20
302915.7503999993
 10
99789.18640000001
 20
302913.0772999991
 10
99784.73120000026
 20
302909.9521999992
 10
99779.98300000001
 20
302906.5161000006
 10
99775.02689999994
 20
302902.8213
 10
99730.82089999969
 20
302868.5127000008
 10
99721.11440000031
 20
302860.9454999994
1001
AcMap_E615D161-C9D7-11d3-839F-0060B0FB6B57
1071
        1
1071
        6
  0
LINE
  5
656
330
1F
100
AcDbEntity
  8
Straßenverlauf_FBRD
100
AcDbLine
 10
100049.8679999998
 20
303306.6971000005
 30
0.0
 11
100042.2676999997
 21
303304.1954999994
 31
0.0
1001
AcMap_E615D161-C9D7-11d3-839F-0060B0FB6B57
1071
        1
1071
        6
  0
LINE
  5
657
330
1F
100
AcDbEntity
  8
Straßenverlauf_FBRD
100
AcDbLine
 10
100049.8679999998
 20
303306.6971000005
 30
0.0
 11
100050.1187000004
 21
303305.8848000001
 31
0.0
1001
AcMap_E615D161-C9D7-11d3-839F-0060B0FB6B57
1071
        1
1071
        6
  0
LINE
  5
658
330
1F
100
AcDbEntity
  8
Straßenverlauf_FBRD
100
AcDbLine
 10
100049.7943000002
 20
303306.9360000007
 30
0.0
 11
100049.8679999998
 21
303306.6971000005
 31
0.0
1001
AcMap_E615D161-C9D7-11d3-839F-0060B0FB6B57
1071
        1
1071
        6
  0
LINE
  5
659
330
1F
100
AcDbEntity
  8
Straßenverlauf_FBRD
100
AcDbLine
 10
100049.7943000002
 20
303306.9360000007
 30
0.0
 11
100051.4003999997
 21
303307.4647000004
 31
0.0
1001
AcMap_E615D161-C9D7-11d3-839F-0060B0FB6B57
1071
        1
1071
        6
  0
LINE
  5
65A
330
1F
100
AcDbEntity
  8
Straßenverlauf_FBRD
100
AcDbLine
 10
100049.7204999998
 20
303307.174900001
 30
0.0
 11
100049.7943000002
 21
303306.9360000007
 31
0.0
1001
AcMap_E615D161-C9D7-11d3-839F-0060B0FB6B57
1071
        1
1071
        6
  0
LWPOLYLINE
  5
65B
330
1F
100
AcDbEntity
  8
Straßenverlauf_FBRD
100
AcDbPolyline
 90
        3
 70
     0
 43
0.0
 10
100049.7204999998
 20
303307.174900001
 10
100051.3298000004
 20
303307.7046000008
 10
100051.4003999997
 20
303307.4647000004
1001
AcMap_E615D161-C9D7-11d3-839F-0060B0FB6B57
1071
        1
1071
        6
  0
LINE
  5
65C
330
1F
100
AcDbEntity
  8
Straßenverlauf_FBRD
100
AcDbLine
 10
100049.7048000004
 20
303307.2257000003
 30
0.0
 11
100049.7204999998
 21
303307.174900001
 31
0.0
1001
AcMap_E615D161-C9D7-11d3-839F-0060B0FB6B57
1071
        1
1071
        6
  0
LWPOLYLINE
  5
65D
330
1F
100
AcDbEntity
  8
Straßenverlauf_FBRD
100
AcDbPolyline
 90
       27
 70
     0
 43
0.0
 10
100049.7440999998
 20
303307.2378000003
 10
100049.2399000004
 20
303308.7476000004
 10
100048.3896000003
 20
303311.2364000008
 10
100047.7505999999
 20
303313.0637999997
 10
100046.8141999999
 20
303315.6709000003
 10
100045.6481999997
 20
303318.8146000002
 10
100044.9165000003
 20
303320.7315999996
 10
100044.1290999996
 20
303322.7619000003
 10
100043.2057999996
 20
303325.1043999996
 10
100042.4834000003
 20
303326.9081999995
 10
100040.4464933451
 20
303332.2631448758
 10
100038.6571000004
 20
303337.7058000006
 10
100034.2888000002
 20
303352.0958999992
 10
100033.9103328299
 20
303353.7606976736
 10
100033.7719521311
 20
303355.4623555351
 10
100033.8764589598
 20
303357.1664291892
 10
100034.2217379238
 20
303358.8384253413
 10
100034.8008000003
 20
303360.4444999993
 10
100035.5110958374
 20
303362.404281543
 10
100035.9428418607
 20
303364.443609679
 10
100036.0877
 20
303366.5230999999
 10
100036.0219
 20
303367.9263000004
 10
100035.9398690535
 20
303371.438987681
 10
100036.3511216684
 20
303374.928482645
 10
100037.2475343092
 20
303378.3258563652
 10
100038.6113999998
 20
303381.5639999993
 10
100042.4636000003
 20
303389.1668999996
1001
AcMap_E615D161-C9D7-11d3-839F-0060B0FB6B57
1071
        1
1071
        6
  0
LWPOLYLINE
  5
65E
330
1F
100
AcDbEntity
  8
Straßenverlauf_FBRD
100
AcDbPolyline
 90
        3
 70
     0
 43
0.0
 10
100051.4003999997
 20
303307.4647000004
 10
100051.4857999999
 20
303307.2294999995
 10
100049.8679999998
 20
303306.6971000005
1001
AcMap_E615D161-C9D7-11d3-839F-0060B0FB6B57
1071
        1
1071
        6
  0
LWPOLYLINE
  5
65F
330
1F
100
AcDbEntity
  8
Straßenverlauf_FBRD
100
AcDbPolyline
 90
        8
 70
     0
 43
0.0
 10
100051.4003999997
 20
303307.4647000004
 10
100051.9363000002
 20
303307.6411000006
 10
100051.6654000003
 20
303314.7489
 10
100049.7196000004
 20
303319.8491999991
 10
100050.7472999999
 20
303320.2412000001
 10
100052.7575000003
 20
303314.9716999997
 10
100053.0668999999
 20
303306.8553
 10
100050.1187000004
 20
303305.8848000001
1001
AcMap_E615D161-C9D7-11d3-839F-0060B0FB6B57
1071
        1
1071
        6
  0
LWPOLYLINE
  5
660
330
1F
100
AcDbEntity
  8
Straßenverlauf_FBRD
100
AcDbPolyline
 90
       41
 70
     0
 43
0.0
 10
100025.5398000003
 20
303350.9860999994
 10
100031.7303999997
 20
303340.2752000001
 10
100031.798983677
 20
303340.1770089837
 10
100031.8833023186
 20
303340.0919468701
 10
100031.9808874872
 20
303340.0225038621
 10
100032.0888823662
 20
303339.9707129112
 10
100032.2041253937
 20
303339.9380902033
 10
100032.3232428177
 20
303339.9255907716
 10
100032.4427474625
 20
303339.9335805383
 10
100032.5591408164
 20
303339.9618256023
 10
100032.6690154515
 20
303340.0094990861
 10
100032.7691547756
 20
303340.0752053433
 10
100032.8566271993
 20
303340.1570208161
 10
100032.9288719577
 20
303340.2525503475
 10
100032.9837740776
 20
303340.3589973
 10
100033.0197262935
 20
303340.4732454277
 10
100033.0356761003
 20
303340.5919501038
 10
100033.0311565657
 20
303340.7116362362
 10
100033.0062999995
 20
303340.8288000003
 10
100029.4155000001
 20
303352.6572999992
 10
100029.3720146496
 20
303352.7665653851
 10
100029.310850303
 20
303352.8670085183
 10
100029.2337334573
 20
303352.9557941724
 10
100029.1428409032
 20
303353.0304161792
 10
100029.0407382811
 20
303353.08876817
 10
100028.9303076596
 20
303353.1292030328
 10
100028.8146661836
 20
303353.1505794055
 10
100028.6970780856
 20
303353.1522938937
 10
100028.5808625454
 20
303353.134298102
 10
100028.4693
 20
303353.0971000009
 10
100025.8694000002
 20
303351.9794999995
 10
100025.765237364
 20
303351.92388047
 10
100025.6719054129
 20
303351.8515442154
 10
100025.5920598645
 20
303351.7645495303
 10
100025.5279726871
 20
303351.6653718083
 10
100025.4814674518
 20
303351.5568331059
 10
100025.4538674435
 20
303351.4420218417
 10
100025.4459580079
 20
303351.3242049174
 10
100025.4579642042
 20
303351.2067347591
 10
100025.4895444017
 20
303351.092953926
 10
100025.5398000003
 20
303350.9860999994
1001
AcMap_E615D161-C9D7-11d3-839F-0060B0FB6B57
1071
        1
1071
        6
  0
LWPOLYLINE
  5
661
330
1F
100
AcDbEntity
  8
Straßenverlauf_FBRD
100
AcDbPolyline
 90
       23
 70
     0
 43
0.0
 10
99990.7220999999
 20
303351.8695999999
 10
99990.54520610249
 20
303352.3072946008
 10
99990.30183854527
 20
303352.7118193179
 10
99989.99802395699
 20
303353.0731567096
 10
99989.64128584557
 20
303353.3823588028
 10
99989.24045828964
 20
303353.6317686765
 10
99988.80546717627
 20
303353.8152100728
 10
99988.34708440115
 20
303353.9281403439
 10
99987.87666111907
 20
303353.9677629425
 10
99987.40584664972
 20
303353.9330966751
 10
99986.94629999995
 20
303353.8249999993
 10
99981.32409999985
 20
303351.7096999995
 10
99980.90523886347
 20
303351.4867663815
 10
99980.52676678092
 20
303351.2005794979
 10
99980.19815169003
 20
303350.8582986605
 10
99979.92761429557
 20
303350.4684864392
 10
99979.72192241835
 20
303350.0408944594
 10
99979.58622168997
 20
303349.5862194524
 10
99979.52390682863
 20
303349.1158356647
 10
99979.5365367161
 20
303348.6415103169
 10
99979.62379540043
 20
303348.1751092324
 10
99979.78349999991
 20
303347.7282999996
 10
99980.42250000034
 20
303346.3069000002
1001
AcMap_E615D161-C9D7-11d3-839F-0060B0FB6B57
1071
        1
1071
        6
  0
LWPOLYLINE
  5
662
330
1F
100
AcDbEntity
  8
Straßenverlauf_FBRD
100
AcDbPolyline
 90
       20
 70
     0
 43
0.0
 10
99967.1129999999
 20
303353.8234000002
 10
99982.89850000013
 20
303361.4964000006
 10
99989.74972956927
 20
303364.5150677759
 10
99996.80759999995
 20
303367.0127000008
 10
100000.3660289794
 20
303368.4313948871
 10
100003.6659290521
 20
303370.3771007983
 10
100006.6298171731
 20
303372.8041317393
 10
100009.1880999999
 20
303375.6555000004
 10
100009.8799999999
 20
303376.4924999997
 10
100010.6669835758
 20
303377.5383234644
 10
100011.272904416
 20
303378.698474232
 10
100011.6815437772
 20
303379.9418984318
 10
100011.8819635692
 20
303381.2353132048
 10
100011.8687991354
 20
303382.5440975896
 10
100011.6424028496
 20
303383.8332192245
 10
100011.2088346837
 20
303385.0681720632
 10
100010.5796999996
 20
303386.2159000002
 10
100008.6222281963
 20
303388.7408925881
 10
100006.3043788899
 20
303390.9397236462
 10
100003.6798
 20
303392.7614999991
1001
AcMap_E615D161-C9D7-11d3-839F-0060B0FB6B57
1071
        1
1071
        6
  0
LWPOLYLINE
  5
663
330
1F
100
AcDbEntity
  8
Straßenverlauf_FBRD
100
AcDbPolyline
 90
       41
 70
     0
 43
0.0
 10
99995.28949999996
 20
303361.2543000002
 10
99995.20068603912
 20
303361.2157897402
 10
99995.11983084596
 20
303361.1625600725
 10
99995.04935036213
 20
303361.0962014922
 10
99994.99135053442
 20
303361.0186967842
 10
99994.94756438938
 20
303360.9323617782
 10
99994.91930025078
 20
303360.8397761516
 10
99994.90740264704
 20
303360.74370635
 10
99994.91222707689
 20
303360.647022925
 10
99994.93362938702
 20
303360.5526147639
 10
99994.97097007948
 20
303360.4633027688
 10
99995.02313341968
 20
303360.3817555695
 10
99995.08856077451
 20
303360.3104097847
 10
99995.16529718393
 20
303360.2513972162
 10
99995.25104977497
 20
303360.2064811511
 10
99995.34325627244
 20
303360.177003675
 10
99995.43916155941
 20
303360.1638455709
 10
99995.53589999955
 20
303360.1674000006
 10
100005.9172999998
 20
303361.4529999998
 10
100006.0152805635
 20
303361.4735369927
 10
100006.1084825523
 20
303361.5100794094
 10
100006.1943112504
 20
303361.5616099199
 10
100006.2703772122
 20
303361.6266939301
 10
100006.334562784
 20
303361.7035195203
 10
100006.3850810583
 20
303361.7899478889
 10
100006.4205256213
 20
303361.8835728956
 10
100006.439909707
 20
303361.981788048
 10
100006.4426936681
 20
303362.0818590653
 10
100006.4287999999
 20
303362.1809999999
 10
100005.9862000001
 20
303364.1337000001
 10
100005.9560046825
 20
303364.2291419915
 10
100005.9103604736
 20
303364.3182348482
 10
100005.8505380947
 20
303364.3984982515
 10
100005.7782029833
 20
303364.467697692
 10
100005.6953689272
 20
303364.5239066777
 10
100005.6043420022
 20
303364.5655603672
 10
100005.507656371
 20
303364.591499134
 10
100005.4080037328
 20
303364.6010008507
 10
100005.3081583876
 20
303364.593800992
 10
100005.2109000003
 20
303364.5701000001
 10
99995.28949999996
 20
303361.2543000002
1001
AcMap_E615D161-C9D7-11d3-839F-0060B0FB6B57
1071
        1
1071
        6
  0
LWPOLYLINE
  5
664
330
1F
100
AcDbEntity
  8
Straßenverlauf_FBRD
100
AcDbPolyline
 90
       37
 70
     0
 43
0.0
 10
100027.5877
 20
303366.5230999999
 10
100027.4889503946
 20
303367.6518131547
 10
100027.1957020351
 20
303368.7462309315
 10
100026.7168651246
 20
303369.7730999999
 10
100026.0669888803
 20
303370.7012194629
 10
100025.265819463
 20
303371.5023888801
 10
100024.3377
 20
303372.1522651245
 10
100023.3108309316
 20
303372.631102035
 10
100022.2164131548
 20
303372.9243503945
 10
100021.0877
 20
303373.0230999999
 10
100019.9589868452
 20
303372.9243503945
 10
100018.8645690684
 20
303372.631102035
 10
100017.8377
 20
303372.1522651245
 10
100016.9095805371
 20
303371.5023888801
 10
100016.1084111197
 20
303370.7012194629
 10
100015.4585348754
 20
303369.7730999999
 10
100014.9796979649
 20
303368.7462309315
 10
100014.6864496054
 20
303367.6518131547
 10
100014.5877
 20
303366.5230999999
 10
100014.6864496054
 20
303365.3943868451
 10
100014.9796979649
 20
303364.2999690683
 10
100015.4585348754
 20
303363.2730999999
 10
100016.1084111197
 20
303362.3449805369
 10
100016.9095805371
 20
303361.5438111196
 10
100017.8377
 20
303360.8939348753
 10
100018.8645690684
 20
303360.4150979648
 10
100019.9589868452
 20
303360.1218496053
 10
100021.0877
 20
303360.0230999999
 10
100022.2164131548
 20
303360.1218496053
 10
100023.3108309316
 20
303360.4150979648
 10
100024.3377
 20
303360.8939348753
 10
100025.265819463
 20
303361.5438111196
 10
100026.0669888803
 20
303362.3449805369
 10
100026.7168651246
 20
303363.2730999999
 10
100027.1957020351
 20
303364.2999690683
 10
100027.4889503946
 20
303365.3943868451
 10
100027.5877
 20
303366.5230999999
1001
AcMap_E615D161-C9D7-11d3-839F-0060B0FB6B57
1071
        1
1071
        6
  0
LWPOLYLINE
  5
665
330
1F
100
AcDbEntity
  8
Straßenverlauf_FBRD
100
AcDbPolyline
 90
       41
 70
     0
 43
0.0
 10
100031.5986000001
 20
303378.7858000007
 10
100037.1900000004
 20
303389.8213999998
 10
100037.2347912137
 20
303389.9324797146
 10
100037.2599907637
 20
303390.0495691612
 10
100037.2648609309
 20
303390.1692405332
 10
100037.2492591405
 20
303390.2879904383
 10
100037.2136421366
 20
303390.40234246
 10
100037.1590526109
 20
303390.5089489303
 10
100037.0870886778
 20
303390.6046889332
 10
100036.9998570893
 20
303390.6867596697
 10
100036.8999115596
 20
303390.7527585099
 10
100036.790178005
 20
303390.8007533307
 10
100036.6738688873
 20
303390.8293390783
 10
100036.5543891687
 20
303390.8376789021
 10
100036.4352366309
 20
303390.8255286525
 10
100036.3198994775
 20
303390.7932440296
 10
100036.2117542163
 20
303390.7417701693
 10
100036.1139668116
 20
303390.6726139743
 10
100036.0294000003
 20
303390.5877999999
 10
100028.0818999996
 20
303381.1196999997
 10
100028.0141249394
 20
303381.0235793068
 10
100027.9633985323
 20
303380.9174686191
 10
100027.9311526415
 20
303380.8043631421
 10
100027.9182974776
 20
303380.687455524
 10
100027.9251959056
 20
303380.5700457369
 10
100027.9516532024
 20
303380.4554479278
 10
100027.996922553
 20
303380.3468968693
 10
100028.0597261315
 20
303380.2474566515
 10
100028.1382911702
 20
303380.1599341909
 10
100028.2303999997
 20
303380.0867999997
 10
100030.5865000002
 20
303378.5194000006
 10
100030.6899711109
 20
303378.4625227273
 10
100030.8015302516
 20
303378.4238464673
 10
100030.9180030585
 20
303378.4044717358
 10
100031.0360753515
 20
303378.404949832
 10
100031.1523874381
 20
303378.4252671517
 10
100031.2636297115
 20
303378.464845575
 10
100031.3666368239
 20
303378.5225589161
 10
100031.4584777557
 20
303378.5967649686
 10
100031.5365392154
 20
303378.6853522334
 10
100031.5986000001
 20
303378.7858000007
1001
AcMap_E615D161-C9D7-11d3-839F-0060B0FB6B57
1071
        1
1071
        6
  0
LINE
  5
666
330
1F
100
AcDbEntity
  8
Straßenverlauf_FBRD
100
AcDbLine
 10
100041.5264999997
 20
303387.2725000009
 30
0.0
 11
100042.4636000003
 21
303389.1668999996
 31
0.0
1001
AcMap_E615D161-C9D7-11d3-839F-0060B0FB6B57
1071
        1
1071
        6
  0
LINE
  5
667
330
1F
100
AcDbEntity
  8
Straßenverlauf_FBRD
100
AcDbLine
 10
100042.4636000003
 20
303389.1668999996
 30
0.0
 11
100042.9533000001
 21
303390.1334000006
 31
0.0
1001
AcMap_E615D161-C9D7-11d3-839F-0060B0FB6B57
1071
        1
1071
        6
  0
LWPOLYLINE
  5
668
330
1F
100
AcDbEntity
  8
Straßenverlauf_FBRD
100
AcDbPolyline
 90
       17
 70
     0
 43
0.0
 10
100042.4636000003
 20
303389.1668999996
 10
100050.0361000001
 20
303404.4756000005
 10
100050.4452931012
 20
303405.1489585921
 10
100050.9645203531
 20
303405.7416253178
 10
100051.5782106519
 20
303406.2358266978
 10
100052.267960042
 20
303406.6167421291
 10
100053.0130836319
 20
303406.8729483404
 10
100053.7912359134
 20
303406.9967619648
 10
100054.5790808813
 20
303406.984469956
 10
100055.3529918561
 20
303406.836440939
 10
100056.0897600252
 20
303406.5571141554
 10
100056.7672904509
 20
303406.1548663349
 10
100057.3652646763
 20
303405.6417604857
 10
100057.8657500551
 20
303405.0331841367
 10
100058.2537375333
 20
303404.3473878814
 10
100058.5175917561
 20
303403.604938061
 10
100058.6494000004
 20
303402.8280999996
1001
AcMap_E615D161-C9D7-11d3-839F-0060B0FB6B57
1071
        1
1071
        6
  0
LWPOLYLINE
  5
669
330
1F
100
AcDbEntity
  8
Straßenverlauf_FBRD
100
AcDbPolyline
 90
       33
 70
     0
 43
0.0
 10
100007.3267999999
 20
303395.1732999999
 10
100009.9827669965
 20
303393.0437683546
 10
100012.3248030148
 20
303390.5731544625
 10
100014.3094809515
 20
303387.8072695765
 10
100015.9000000004
 20
303384.7973999996
 10
100016.3058465942
 20
303384.0586812566
 10
100016.8300122962
 20
303383.3986303831
 10
100017.4576017941
 20
303382.8360041652
 10
100018.1707807623
 20
303382.3867908549
 10
100018.949282664
 20
303382.0637558291
 10
100019.7709846683
 20
303381.8760788328
 10
100020.6125363194
 20
303381.8290931176
 10
100021.4500230903
 20
303381.9241338853
 10
100022.2596459664
 20
303382.1585003448
 10
100023.0183977466
 20
303382.5255324618
 10
100023.704716843
 20
303383.0148002176
 10
100024.2991000004
 20
303383.6124000009
 10
100031.0356999999
 20
303391.6379000005
 10
100034.6403999999
 20
303396.5025999993
 10
100043.1171000004
 20
303409.5219000001
 10
100046.2962670749
 20
303414.9500936494
 10
100048.9483000003
 20
303420.6544000004
 10
100051.7356944248
 20
303428.36474166
 10
100053.8825000003
 20
303436.2774
 10
100054.6753000002
 20
303439.8505000007
 10
100054.9506000001
 20
303441.5460000001
 10
100055.4188999999
 20
303444.8267000001
 10
100056.3152
 20
303450.1143999994
 10
100057.4146999996
 20
303456.7335999999
 10
100058.3307999996
 20
303462.2480999995
 10
100058.7006999999
 20
303464.1486000009
 10
100059.9145999998
 20
303469.8118999992
 10
100060.5635000002
 20
303472.8395000007
1001
AcMap_E615D161-C9D7-11d3-839F-0060B0FB6B57
1071
        1
1071
        6
  0
LWPOLYLINE
  5
66A
330
1F
100
AcDbEntity
  8
Straßenverlauf_FBRD
100
AcDbPolyline
 90
       18
 70
     0
 43
0.0
 10
100074.2511999998
 20
303420.7577999998
 10
100062.9423000002
 20
303413.2432000004
 10
100062.5594485741
 20
303412.9412333143
 10
100062.2305726842
 20
303412.5812336711
 10
100061.9643606608
 20
303412.1727116368
 10
100061.7678453635
 20
303411.7264596542
 10
100061.6462183853
 20
303411.2542669264
 10
100061.6026929
 20
303410.7686079657
 10
100061.6384187753
 20
303410.2823130389
 10
100061.7524521956
 20
303409.8082292139
 10
100061.9417805959
 20
303409.3588809628
 10
100062.2014022484
 20
303408.9461392862
 10
100062.5244583996
 20
303408.5809081031
 10
100062.9024144667
 20
303408.2728361872
 10
100063.3252855064
 20
303408.0300622641
 10
100063.7818999998
 20
303407.8589999993
 10
100065.7328000003
 20
303407.3041999992
 10
100066.6756999995
 20
303407.0319999997
1001
AcMap_E615D161-C9D7-11d3-839F-0060B0FB6B57
1071
        1
1071
        6
  0
LWPOLYLINE
  5
66B
330
1F
100
AcDbEntity
  8
Straßenverlauf_FBRD
100
AcDbPolyline
 90
       19
 70
     0
 43
0.0
 10
100068.1235999996
 20
303422.4066000004
 10
100067.3833999997
 20
303422.0253999997
 10
100060.7348999996
 20
303418.6016000007
 10
100060.2612042571
 20
303418.4068349967
 10
100059.7612821242
 20
303418.2954845402
 10
100059.2497047136
 20
303418.2707941367
 10
100058.7413828515
 20
303418.3334834315
 10
100058.2511324757
 20
303418.4817252345
 10
100057.7932427984
 20
303418.7111987768
 10
100057.3810598224
 20
303419.0152156471
 10
100057.0265973478
 20
303419.3849147373
 10
100056.7401868089
 20
303419.8095205149
 10
100056.5301761463
 20
303420.2766570953
 10
100056.4026864913
 20
303420.7727089584
 10
100056.3614337549
 20
303421.2832177976
 10
100056.4076203208
 20
303421.7933039318
 10
100056.5399000002
 20
303422.2881000005
 10
100058.5724225722
 20
303428.5048289005
 10
100060.2194999996
 20
303434.8345999998
1001
AcMap_E615D161-C9D7-11d3-839F-0060B0FB6B57
1071
        1
1071
        6
  0
LWPOLYLINE
  5
66C
330
1F
100
AcDbEntity
  8
Straßenverlauf_FBRD
100
AcDbPolyline
 90
       11
 70
     0
 43
0.0
 10
100060.2292999998
 20
303434.8706000001
 10
100061.0614999998
 20
303438.6253999993
 10
100061.3766
 20
303440.5657000002
 10
100061.8416999997
 20
303443.8241000008
 10
100062.7254999997
 20
303449.0387999993
 10
100063.3849999998
 20
303453.0086000003
 10
100063.8267999999
 20
303455.6684000008
 10
100064.7818999998
 20
303460.9648000002
 10
100065.1418000003
 20
303462.8867000007
 10
100066.5687999995
 20
303468.7539000008
 10
100067.1388999997
 20
303471.4483000003
1001
AcMap_E615D161-C9D7-11d3-839F-0060B0FB6B57
1071
        1
1071
        6
  0
ENDSEC
  0
SECTION
  2
OBJECTS
  0
DICTIONARY
  5
C
330
0
100
AcDbDictionary
281
     1
  3
ACAD_CIP_PREVIOUS_PRODUCT_INFO
350
1A5
  3
ACAD_COLOR
350
73
  3
ACAD_DETAILVIEWSTYLE
350
1AB
  3
ACAD_GROUP
350
D
  3
ACAD_LAYOUT
350
1A
  3
ACAD_MATERIAL
350
72
  3
ACAD_MLEADERSTYLE
350
D7
  3
ACAD_MLINESTYLE
350
17
  3
ACAD_PLOTSETTINGS
350
19
  3
ACAD_PLOTSTYLENAME
350
E
  3
ACAD_SCALELIST
350
B6
  3
ACAD_SECTIONVIEWSTYLE
350
1A8
  3
ACAD_TABLESTYLE
350
86
  3
ACAD_VISUALSTYLE
350
99
  3
ACDB_RECOMPOSE_DATA
350
6CC
  3
AcDbVariableDictionary
350
66
  3
AcDsDecomposeData
350
6D2
  3
AcMap_E615D15E-C9D7-11d3-839F-0060B0FB6B57
350
344
  3
ADE_QUERY_LIBRARY
350
21B
  3
ASE_INDEX_DICTIONARY
350
329
  3
Autodesk_MAP
350
204
  3
IrdDscDictionary
350
348
1001
ADE
1000
ADE02C004
1000
[Query]
1000
CaseSensitiveMatch=0
1000
SaveCurrQueryInSession=1
1000
MkSelSetWithQryObj=0
1000
ShowBlockAsInsPt=0
1000
CreateAssociativeHatchObjects=0
1000
ReferenceBoundaryForAreaLocation=1
1000
ShowImageAsBoundary=1
1000
DefaultJoinOperator=2
1000
ColorForAdd=red
1000
ColorForRemove=red
1000
BlockLocnForQuery=1
1000
TextLocnForQuery=1
1000
IncludeAllObjectsInGroups=0
1000
AlwaysUseLibraryDefinitions=0
1000
PreviewDefinitionsFrom=2
1000
[Save Back]
1000
RedefineBlockDefinitions=1
1000
RedefineLayerDefinitions=1
1000
RedefineTextStyleDefinitions=1
1000
RemoveUnusedGroups=1
1000
EraseSavedBackObjects=1
1000
RemoveLockAfterSave=1
1000
CreateHistoryFileOfChanges=0
1000
CreateBackupFileOfSourceDwg=1
1000
DontAddObjectsToSaveSet=0
1000
MarkObjectsForEditingWithoutPrompting=0
1000
FdoDontAddObjsToSvSet=0
1000
FdoEditWithoutPrompt=1
1000
FdoRemUnusedGrps=1
1000
FdoEraseSvdBkObjs=1
1000
FdoRemoveLockOnSave=1
1000
FdoTesselationMaxPointsDistance=0
1000
FdoTesselationMaxCurvesDistance=0
1000
[Coordinate Transformation]
1000
RestoreLastActiveDwgsOnStartup=1
1000
ActivateDwgsOnAttach=1
1000
AdjustSizesAndScalesForChangesInUnits=1
1000
AdjustRotationsForMapDistortions=1
1000
AdjustSizesAndScalesForMapDistortions=1
1000
AdjustElevations=1
1000
AdjustZeroRotationObjects=1
1000
ReconnectDbOnWSOpen=1
1000
NoOfSQLConditionsInHistory=10
  0
SUN
  5
217
330
94
100
AcDbSun
 90
        1
290
     1
 63
     7
421
 16777215
 40
1.0
291
     1
 91
  2458230
 92
 36000000
292
     0
 70
     0
 71
   256
280
     1
1001
ACAD
1000
AcDbSavedByObjectVersion
1070
     0
1000
AcDbSavedByObjectVersion
1070
     0
  0
DICTIONARY
  5
18E
330
2
100
AcDbDictionary
280
     1
281
     1
  3
ACAD_LAYERSTATES
360
18F
  0
DICTIONARY
  5
E6
330
10
100
AcDbDictionary
280
     1
281
     1
  0
DICTIONARY
  5
15D
330
1F
100
AcDbDictionary
280
     1
281
     1
  3
ACAD_SORTENTS
360
214
  0
XRECORD
  5
1A5
102
{ACAD_REACTORS
330
C
102
}
330
C
100
AcDbXrecord
280
     1
300
MAP
300
2019
300
87091MAP_2019_0F
  0
DICTIONARY
  5
73
102
{ACAD_REACTORS
330
C
102
}
330
C
100
AcDbDictionary
281
     1
  0
DICTIONARY
  5
1AB
102
{ACAD_REACTORS
330
C
102
}
330
C
100
AcDbDictionary
281
     1
  3
Imperial24
350
1AC
  3
Metric50
350
239
  0
DICTIONARY
  5
D
102
{ACAD_REACTORS
330
C
102
}
330
C
100
AcDbDictionary
281
     1
  0
DICTIONARY
  5
1A
102
{ACAD_REACTORS
330
C
102
}
330
C
100
AcDbDictionary
281
     1
  3
Layout1
350
59
  3
Layout2
350
5E
  3
Model
350
22
  0
DICTIONARY
  5
72
102
{ACAD_REACTORS
330
C
102
}
330
C
100
AcDbDictionary
281
     1
  3
ByBlock
350
97
  3
ByLayer
350
96
  3
Global
350
98
  0
DICTIONARY
  5
D7
102
{ACAD_REACTORS
330
C
102
}
330
C
100
AcDbDictionary
281
     1
  3
Beschriftung
350
E5
  3
Standard
350
D8
  0
DICTIONARY
  5
17
102
{ACAD_REACTORS
330
C
102
}
330
C
100
AcDbDictionary
281
     1
  3
Standard
350
18
  0
DICTIONARY
  5
19
102
{ACAD_REACTORS
330
C
102
}
330
C
100
AcDbDictionary
281
     1
  0
ACDBDICTIONARYWDFLT
  5
E
102
{ACAD_REACTORS
330
C
102
}
330
C
100
AcDbDictionary
281
     1
  3
Normal
350
F
100
AcDbDictionaryWithDefault
340
F
  0
DICTIONARY
  5
B6
102
{ACAD_REACTORS
330
C
102
}
330
C
100
AcDbDictionary
281
     1
  3
A0
350
B7
  3
A1
350
124
  3
A2
350
125
  3
A3
350
126
  3
A4
350
127
  3
A5
350
128
  3
A6
350
129
  3
A7
350
12A
  3
A8
350
12B
  3
A9
350
12C
  3
B0
350
12D
  3
B1
350
12E
  3
B2
350
12F
  3
B3
350
130
  3
B4
350
131
  3
B5
350
132
  3
B6
350
133
  3
B7
350
134
  3
B8
350
135
  3
B9
350
136
  3
C0
350
137
  3
C1
350
138
  3
C2
350
139
  3
C3
350
13A
  3
C4
350
13B
  3
C5
350
13C
  3
C6
350
13D
  3
C7
350
13E
  3
C8
350
13F
  3
C9
350
140
  3
D0
350
141
  3
D1
350
142
  3
D2
350
143
  0
DICTIONARY
  5
1A8
102
{ACAD_REACTORS
330
C
102
}
330
C
100
AcDbDictionary
281
     1
  3
Imperial24
350
1AA
  3
Metric50
350
238
  0
DICTIONARY
  5
86
102
{ACAD_REACTORS
330
C
102
}
330
C
100
AcDbDictionary
281
     1
  3
Legend
350
20D
  3
Standard
350
87
  0
DICTIONARY
  5
99
102
{ACAD_REACTORS
330
C
102
}
330
C
100
AcDbDictionary
281
     1
  3
2dWireframe
350
9F
  3
Basic
350
9E
  3
Brighten
350
A5
  3
ColorChange
350
A9
  3
Conceptual
350
A2
  3
Dim
350
A4
  3
EdgeColorOff
350
175
  3
Facepattern
350
A8
  3
Flat
350
9A
  3
FlatWithEdges
350
9B
  3
Gouraud
350
9C
  3
GouraudWithEdges
350
9D
  3
Hidden
350
A1
  3
JitterOff
350
173
  3
Linepattern
350
A7
  3
OverhangOff
350
174
  3
Realistic
350
A3
  3
Shaded
350
182
  3
Shaded with edges
350
181
  3
Shades of Gray
350
17E
  3
Sketchy
350
17F
  3
Thicken
350
A6
  3
Wireframe
350
A0
  3
X-Ray
350
180
  0
XRECORD
  5
6CC
102
{ACAD_REACTORS
330
C
102
}
330
C
100
AcDbXrecord
280
     1
 90
        1
330
87
330
20D
  0
DICTIONARY
  5
66
102
{ACAD_REACTORS
330
C
102
}
330
C
100
AcDbDictionary
281
     1
  3
CANNOSCALE
350
F0
  3
CMLEADERSTYLE
350
EF
  3
CTABLESTYLE
350
89
  3
CVIEWDETAILSTYLE
350
1B7
  3
CVIEWSECTIONSTYLE
350
1B8
  3
DIMASSOC
350
67
  3
HIDETEXT
350
6B
  3
LAYEREVAL
350
14D
  3
LAYERNOTIFY
350
14E
  0
DICTIONARY
  5
6D2
102
{ACAD_REACTORS
330
C
102
}
330
C
100
AcDbDictionary
281
     1
  3
AcDsRecords
350
6D4
  3
AcDsSchemas
350
6D3
1001
ACAD
1070
     2
  0
XRECORD
  5
344
102
{ACAD_REACTORS
330
C
102
}
330
C
100
AcDbXrecord
280
     1
 90
        6
  0
DICTIONARY
  5
21B
102
{ACAD_REACTORS
330
C
102
}
330
C
100
AcDbDictionary
281
     1
  3
_CurrQry
350
6C1
  0
DICTIONARY
  5
329
102
{ACAD_REACTORS
330
C
102
}
330
C
100
AcDbDictionary
281
     1
  3
ASEBlockHierarchyIndexRecord
350
32A
1001
DCO15
1040
2037943906.0
  0
DICTIONARY
  5
204
102
{ACAD_REACTORS
330
C
102
}
330
C
100
AcDbDictionary
281
     1
  3
AcMapDMStylizedEntities
350
215
  3
AcMapResourceManager
350
209
  3
MAP_DISPLAY_CUSTOMOBJ_REG_TABLE
350
208
  3
MAP_DISPLAY_MANAGEMENT_DICTIONARY
350
205
  3
MAP_DISPLAY_STYLELIBRARY_DICTIONARY
350
206
  3
MAP_RESOURCE_VERSION_MANAGEMENT_DICTIONARY
350
216
1001
MapGWS
1000
C:\ProgramData\Autodesk\Autodesk AutoCAD Map 3D 2019\R23.0\MapCache\B121_Umf_Weyer_StraßenverlaufGWS.xml
  0
IRD_DSC_DICT
  5
348
102
{ACAD_REACTORS
330
C
102
}
330
C
100
AcDbDictionary
281
     1
  3
*A1
350
349
  3
*A2
350
34A
  3
*A3
350
34B
100
CIrdDscDict
1040
0.0
  0
DICTIONARY
  5
18F
102
{ACAD_REACTORS
330
18E
102
}
330
18E
100
AcDbDictionary
281
     1
  0
SORTENTSTABLE
  5
214
102
{ACAD_REACTORS
330
15D
102
}
330
15D
100
AcDbSortentsTable
330
1F
  0
ACDBDETAILVIEWSTYLE
  5
1AC
102
{ACAD_XDICTIONARY
360
6D7
102
}
102
{ACAD_REACTORS
330
1AB
102
}
330
1AB
100
AcDbModelDocViewStyle
 70
     0
  3
Imperial24
290
     0
100
AcDbDetailViewStyle
 70
     0
 71
     0
 90
        3
 71
     1
340
11
 62
   256
 40
0.24
340
0
 62
   256
 40
0.24
300

 40
0.36
280
     3
 71
     2
340
16
 90
       25
 62
   256
 71
     3
340
11
 62
   256
 40
0.24
 90
        1
 40
0.75
 90
        1
300
%<\AcVar ViewType \f "%tc1">% %<\AcVar ViewDetailId>%\PSCALE %<\AcVar ViewScale \f "%sn">%
 71
     4
340
16
 90
       25
 62
   256
340
16
 90
       25
 62
   256
280
     0
  0
ACDBDETAILVIEWSTYLE
  5
239
102
{ACAD_XDICTIONARY
360
6DB
102
}
102
{ACAD_REACTORS
330
1AB
102
}
330
1AB
100
AcDbModelDocViewStyle
 70
     0
  3
Metric50
290
     0
100
AcDbDetailViewStyle
 70
     0
 71
     0
 90
        3
 71
     1
340
11
 62
   256
 40
5.0
340
0
 62
   256
 40
5.0
300

 40
0.0
280
     1
 71
     2
340
16
 90
       25
 62
   256
 71
     3
340
11
 62
   256
 40
5.0
 90
        0
 40
15.0
 90
        1
300
%<\AcVar ViewDetailId>% (%<\AcVar ViewScale \f "%sn">%)
 71
     4
340
16
 90
       25
 62
   256
340
16
 90
       25
 62
   256
280
     0
  0
LAYOUT
  5
59
102
{ACAD_REACTORS
330
1A
102
}
330
1A
100
AcDbPlotSettings
  1

  2
None
  4

  6

 40
0.0
 41
0.0
 42
0.0
 43
0.0
 44
0.0
 45
0.0
 46
0.0
 47
0.0
 48
0.0
 49
0.0
140
0.0
141
0.0
142
1.0
143
1.0
 70
   688
 72
     0
 73
     0
 74
     5
  7

 75
    16
147
1.0
 76
     0
 77
     2
 78
   300
148
0.0
149
0.0
100
AcDbLayout
  1
Layout1
 70
     1
 71
     1
 10
0.0
 20
0.0
 11
12.0
 21
9.0
 12
0.0
 22
0.0
 32
0.0
 14
0.0
 24
0.0
 34
0.0
 15
0.0
 25
0.0
 35
0.0
146
0.0
 13
0.0
 23
0.0
 33
0.0
 16
1.0
 26
0.0
 36
0.0
 17
0.0
 27
1.0
 37
0.0
 76
     0
330
58
  0
LAYOUT
  5
5E
102
{ACAD_REACTORS
330
1A
102
}
330
1A
100
AcDbPlotSettings
  1

  2
None
  4

  6

 40
0.0
 41
0.0
 42
0.0
 43
0.0
 44
0.0
 45
0.0
 46
0.0
 47
0.0
 48
0.0
 49
0.0
140
0.0
141
0.0
142
1.0
143
1.0
 70
   688
 72
     0
 73
     0
 74
     5
  7

 75
    16
147
1.0
 76
     0
 77
     2
 78
   300
148
0.0
149
0.0
100
AcDbLayout
  1
Layout2
 70
     1
 71
     2
 10
0.0
 20
0.0
 11
12.0
 21
9.0
 12
0.0
 22
0.0
 32
0.0
 14
0.0
 24
0.0
 34
0.0
 15
0.0
 25
0.0
 35
0.0
146
0.0
 13
0.0
 23
0.0
 33
0.0
 16
1.0
 26
0.0
 36
0.0
 17
0.0
 27
1.0
 37
0.0
 76
     0
330
5D
  0
LAYOUT
  5
22
102
{ACAD_XDICTIONARY
360
194
102
}
102
{ACAD_REACTORS
330
1A
102
}
330
1A
100
AcDbPlotSettings
  1

  2
none_device
  4
ANSI_A_(8.50_x_11.00_Inches)
  6

 40
6.349999904632568
 41
19.04999923706055
 42
6.350006103515625
 43
19.04998779296875
 44
215.8999938964844
 45
279.3999938964844
 46
0.0
 47
0.0
 48
0.0
 49
0.0
140
0.0
141
0.0
142
1.0
143
2.584895464708373
 70
 11952
 72
     0
 73
     1
 74
     0
  7

 75
     0
147
0.3868628397755418
 76
     0
 77
     2
 78
   300
148
0.0
149
0.0
100
AcDbLayout
  1
Model
 70
     1
 71
     0
 10
0.0
 20
0.0
 11
12.0
 21
9.0
 12
0.0
 22
0.0
 32
0.0
 14
0.0
 24
0.0
 34
0.0
 15
0.0
 25
0.0
 35
0.0
146
0.0
 13
0.0
 23
0.0
 33
0.0
 16
1.0
 26
0.0
 36
0.0
 17
0.0
 27
1.0
 37
0.0
 76
     0
330
1F
331
94
  0
MATERIAL
  5
97
102
{ACAD_XDICTIONARY
360
188
102
}
102
{ACAD_REACTORS
330
72
102
}
330
72
100
AcDbMaterial
  1
ByBlock
 94
       63
  0
MATERIAL
  5
96
102
{ACAD_XDICTIONARY
360
186
102
}
102
{ACAD_REACTORS
330
72
102
}
330
72
100
AcDbMaterial
  1
ByLayer
 94
       63
  0
MATERIAL
  5
98
102
{ACAD_XDICTIONARY
360
110
102
}
102
{ACAD_REACTORS
330
72
102
}
330
72
100
AcDbMaterial
  1
Global
 43
0.0208000000566244
 43
0.0
 43
0.0
 43
0.0
 43
0.0
 43
0.0208000000566244
 43
0.0
 43
0.0
 43
0.0
 43
0.0
 43
1.0
 43
0.0
 43
0.0
 43
0.0
 43
0.0
 43
1.0
 49
0.0208000000566244
 49
0.0
 49
0.0
 49
0.0
 49
0.0
 49
0.0208000000566244
 49
0.0
 49
0.0
 49
0.0
 49
0.0
 49
1.0
 49
0.0
 49
0.0
 49
0.0
 49
0.0
 49
1.0
142
0.0208000000566244
142
0.0
142
0.0
142
0.0
142
0.0
142
0.0208000000566244
142
0.0
142
0.0
142
0.0
142
0.0
142
1.0
142
0.0
142
0.0
142
0.0
142
0.0
142
1.0
144
0.0208000000566244
144
0.0
144
0.0
144
0.0
144
0.0
144
0.0208000000566244
144
0.0
144
0.0
144
0.0
144
0.0
144
1.0
144
0.0
144
0.0
144
0.0
144
0.0
144
1.0
 94
       63
1001
ACAD
1070
    -1
1070
     3
1070
     0
1000

1071
        0
1070
     0
  0
MLEADERSTYLE
  5
E5
102
{ACAD_REACTORS
330
D7
102
}
330
D7
100
AcDbMLeaderStyle
179
     2
170
     2
171
     1
172
     0
 90
        2
 40
0.0
 41
0.0
173
     1
 91
-1056964608
340
14
 92
       -2
290
     1
 42
0.09
291
     1
 43
0.36
  3
Standard
 44
0.18
300

342
11
174
     1
178
     1
175
     1
176
     0
 93
-1056964608
 45
0.18
292
     0
297
     0
 46
0.18
 94
-1056964608
 47
1.0
 49
1.0
140
1.0
293
     1
141
0.0
294
     1
177
     0
142
1.0
295
     0
296
     1
143
0.125
271
     0
272
     9
273
     9
298
     0
  0
MLEADERSTYLE
  5
D8
102
{ACAD_REACTORS
330
D7
102
}
330
D7
100
AcDbMLeaderStyle
179
     2
170
     2
171
     1
172
     0
 90
        2
 40
0.0
 41
0.0
173
     1
 91
-1056964608
340
14
 92
       -2
290
     1
 42
0.09
291
     1
 43
0.36
  3
Standard
 44
0.18
300

342
11
174
     1
178
     1
175
     1
176
     0
 93
-1056964608
 45
0.18
292
     0
297
     0
 46
0.18
 94
-1056964608
 47
1.0
 49
1.0
140
1.0
293
     1
141
0.0
294
     1
177
     0
142
1.0
295
     0
296
     0
143
0.125
271
     0
272
     9
273
     9
298
     0
  0
MLINESTYLE
  5
18
102
{ACAD_REACTORS
330
17
102
}
330
17
100
AcDbMlineStyle
  2
STANDARD
 70
     0
  3

 62
   256
 51
90.0
 52
90.0
 71
     2
 49
0.5
 62
   256
  6
BYLAYER
 49
-0.5
 62
   256
  6
BYLAYER
  0
ACDBPLACEHOLDER
  5
F
102
{ACAD_REACTORS
330
E
102
}
330
E
  0
SCALE
  5
B7
102
{ACAD_REACTORS
330
B6
102
}
330
B6
100
AcDbScale
 70
     0
300
1:1
140
1.0
141
1.0
290
     1
  0
SCALE
  5
124
102
{ACAD_REACTORS
330
B6
102
}
330
B6
100
AcDbScale
 70
     0
300
1:2
140
1.0
141
2.0
290
     0
  0
SCALE
  5
125
102
{ACAD_REACTORS
330
B6
102
}
330
B6
100
AcDbScale
 70
     0
300
1:4
140
1.0
141
4.0
290
     0
  0
SCALE
  5
126
102
{ACAD_REACTORS
330
B6
102
}
330
B6
100
AcDbScale
 70
     0
300
1:5
140
1.0
141
5.0
290
     0
  0
SCALE
  5
127
102
{ACAD_REACTORS
330
B6
102
}
330
B6
100
AcDbScale
 70
     0
300
1:8
140
1.0
141
8.0
290
     0
  0
SCALE
  5
128
102
{ACAD_REACTORS
330
B6
102
}
330
B6
100
AcDbScale
 70
     0
300
1:10
140
1.0
141
10.0
290
     0
  0
SCALE
  5
129
102
{ACAD_REACTORS
330
B6
102
}
330
B6
100
AcDbScale
 70
     0
300
1:16
140
1.0
141
16.0
290
     0
  0
SCALE
  5
12A
102
{ACAD_REACTORS
330
B6
102
}
330
B6
100
AcDbScale
 70
     0
300
1:20
140
1.0
141
20.0
290
     0
  0
SCALE
  5
12B
102
{ACAD_REACTORS
330
B6
102
}
330
B6
100
AcDbScale
 70
     0
300
1:30
140
1.0
141
30.0
290
     0
  0
SCALE
  5
12C
102
{ACAD_REACTORS
330
B6
102
}
330
B6
100
AcDbScale
 70
     0
300
1:40
140
1.0
141
40.0
290
     0
  0
SCALE
  5
12D
102
{ACAD_REACTORS
330
B6
102
}
330
B6
100
AcDbScale
 70
     0
300
1:50
140
1.0
141
50.0
290
     0
  0
SCALE
  5
12E
102
{ACAD_REACTORS
330
B6
102
}
330
B6
100
AcDbScale
 70
     0
300
1:100
140
1.0
141
100.0
290
     0
  0
SCALE
  5
12F
102
{ACAD_REACTORS
330
B6
102
}
330
B6
100
AcDbScale
 70
     0
300
2:1
140
2.0
141
1.0
290
     0
  0
SCALE
  5
130
102
{ACAD_REACTORS
330
B6
102
}
330
B6
100
AcDbScale
 70
     0
300
4:1
140
4.0
141
1.0
290
     0
  0
SCALE
  5
131
102
{ACAD_REACTORS
330
B6
102
}
330
B6
100
AcDbScale
 70
     0
300
8:1
140
8.0
141
1.0
290
     0
  0
SCALE
  5
132
102
{ACAD_REACTORS
330
B6
102
}
330
B6
100
AcDbScale
 70
     0
300
10:1
140
10.0
141
1.0
290
     0
  0
SCALE
  5
133
102
{ACAD_REACTORS
330
B6
102
}
330
B6
100
AcDbScale
 70
     0
300
100:1
140
100.0
141
1.0
290
     0
  0
SCALE
  5
134
102
{ACAD_REACTORS
330
B6
102
}
330
B6
100
AcDbScale
 70
     0
300
1/128" = 1'-0"
140
0.0078125
141
12.0
290
     0
  0
SCALE
  5
135
102
{ACAD_REACTORS
330
B6
102
}
330
B6
100
AcDbScale
 70
     0
300
1/64" = 1'-0"
140
0.015625
141
12.0
290
     0
  0
SCALE
  5
136
102
{ACAD_REACTORS
330
B6
102
}
330
B6
100
AcDbScale
 70
     0
300
1/32" = 1'-0"
140
0.03125
141
12.0
290
     0
  0
SCALE
  5
137
102
{ACAD_REACTORS
330
B6
102
}
330
B6
100
AcDbScale
 70
     0
300
1/16" = 1'-0"
140
0.0625
141
12.0
290
     0
  0
SCALE
  5
138
102
{ACAD_REACTORS
330
B6
102
}
330
B6
100
AcDbScale
 70
     0
300
3/32" = 1'-0"
140
0.09375
141
12.0
290
     0
  0
SCALE
  5
139
102
{ACAD_REACTORS
330
B6
102
}
330
B6
100
AcDbScale
 70
     0
300
1/8" = 1'-0"
140
0.125
141
12.0
290
     0
  0
SCALE
  5
13A
102
{ACAD_REACTORS
330
B6
102
}
330
B6
100
AcDbScale
 70
     0
300
3/16" = 1'-0"
140
0.1875
141
12.0
290
     0
  0
SCALE
  5
13B
102
{ACAD_REACTORS
330
B6
102
}
330
B6
100
AcDbScale
 70
     0
300
1/4" = 1'-0"
140
0.25
141
12.0
290
     0
  0
SCALE
  5
13C
102
{ACAD_REACTORS
330
B6
102
}
330
B6
100
AcDbScale
 70
     0
300
3/8" = 1'-0"
140
0.375
141
12.0
290
     0
  0
SCALE
  5
13D
102
{ACAD_REACTORS
330
B6
102
}
330
B6
100
AcDbScale
 70
     0
300
1/2" = 1'-0"
140
0.5
141
12.0
290
     0
  0
SCALE
  5
13E
102
{ACAD_REACTORS
330
B6
102
}
330
B6
100
AcDbScale
 70
     0
300
3/4" = 1'-0"
140
0.75
141
12.0
290
     0
  0
SCALE
  5
13F
102
{ACAD_REACTORS
330
B6
102
}
330
B6
100
AcDbScale
 70
     0
300
1" = 1'-0"
140
1.0
141
12.0
290
     0
  0
SCALE
  5
140
102
{ACAD_REACTORS
330
B6
102
}
330
B6
100
AcDbScale
 70
     0
300
1-1/2" = 1'-0"
140
1.5
141
12.0
290
     0
  0
SCALE
  5
141
102
{ACAD_REACTORS
330
B6
102
}
330
B6
100
AcDbScale
 70
     0
300
3" = 1'-0"
140
3.0
141
12.0
290
     0
  0
SCALE
  5
142
102
{ACAD_REACTORS
330
B6
102
}
330
B6
100
AcDbScale
 70
     0
300
6" = 1'-0"
140
6.0
141
12.0
290
     0
  0
SCALE
  5
143
102
{ACAD_REACTORS
330
B6
102
}
330
B6
100
AcDbScale
 70
     0
300
1'-0" = 1'-0"
140
12.0
141
12.0
290
     0
  0
ACDBSECTIONVIEWSTYLE
  5
1AA
102
{ACAD_XDICTIONARY
360
6D5
102
}
102
{ACAD_REACTORS
330
1A8
102
}
330
1A8
100
AcDbModelDocViewStyle
 70
     0
  3
Imperial24
290
     0
100
AcDbSectionViewStyle
 70
     0
 71
     0
 90
       78
 71
     1
340
11
 62
   256
 40
0.24
340
0
340
0
 62
   256
 40
0.24
300
I, O, Q, S, X, Z
 40
0.48
 90
        3
 40
0.18
 90
        1
 71
     2
340
16
 90
       25
 62
   256
340
16
 90
       50
 62
   256
 40
0.24
 40
0.0
 40
0.24
 71
     3
340
11
 62
   256
 40
0.24
 90
        1
 40
0.75
 90
        1
300
%<\AcVar ViewType \f "%tc1">% %<\AcVar ViewSectionStartId>%-%<\AcVar ViewSectionEndId>%\PSCALE %<\AcVar ViewScale \f "%sn">%
 71
     4
 62
   256
 62
   257
300
ANSI31
 40
1.0
 90
        0
290
     0
290
     0
 90
        6
 40
0.0
 40
1.570796326794896
 40
0.2617993877991494
 40
1.308996938995747
 40
-0.2617993877991494
 40
1.832595714594046
  0
ACDBSECTIONVIEWSTYLE
  5
238
102
{ACAD_XDICTIONARY
360
6D9
102
}
102
{ACAD_REACTORS
330
1A8
102
}
330
1A8
100
AcDbModelDocViewStyle
 70
     0
  3
Metric50
290
     0
100
AcDbSectionViewStyle
 70
     0
 71
     0
 90
      102
 71
     1
340
11
 62
   256
 40
5.0
340
0
340
0
 62
   256
 40
5.0
300
I, O, Q, S, X, Z
 40
10.0
 90
        0
 40
2.5
 90
        0
 71
     2
340
16
 90
       25
 62
   256
340
16
 90
       50
 62
   256
 40
5.0
 40
2.5
 40
5.0
 71
     3
340
11
 62
   256
 40
5.0
 90
        0
 40
15.0
 90
        1
300
%<\AcVar ViewSectionStartId>%-%<\AcVar ViewSectionEndId>% (%<\AcVar ViewScale \f "%sn">%)
 71
     4
 62
   256
 62
   257
300
ANSI31
 40
1.0
 90
        0
290
     0
290
     0
 90
        6
 40
0.0
 40
1.570796326794896
 40
0.2617993877991494
 40
1.308996938995747
 40
-0.2617993877991494
 40
1.832595714594046
  0
TABLESTYLE
  5
20D
102
{ACAD_XDICTIONARY
360
6CA
102
}
102
{ACAD_REACTORS
330
86
102
}
330
86
100
AcDbTableStyle
280
     0
  3

 70
     0
 71
     3
 40
0.06
 41
0.06
280
     0
281
     0
  7
Legend
140
0.18
170
     4
 62
     0
 63
     7
283
     0
 90
      512
 91
        0
  1

274
    -2
284
     0
 64
     0
275
    -2
285
     0
 65
     0
276
    -2
286
     0
 66
     0
277
    -2
287
     0
 67
     0
278
    -2
288
     0
 68
     0
279
    -2
289
     0
 69
     0
  7
Legend
140
0.25
170
     5
 62
     0
 63
     7
283
     0
 90
      512
 91
        0
  1

274
    -2
284
     0
 64
     0
275
    -2
285
     0
 65
     0
276
    -2
286
     0
 66
     0
277
    -2
287
     0
 67
     0
278
    -2
288
     0
 68
     0
279
    -2
289
     0
 69
     0
  7
Legend
140
0.18
170
     4
 62
     0
 63
     7
283
     0
 90
      512
 91
        0
  1

274
    -2
284
     0
 64
     0
275
    -2
285
     0
 65
     0
276
    -2
286
     0
 66
     0
277
    -2
287
     0
 67
     0
278
    -2
288
     0
 68
     0
279
    -2
289
     0
 69
     0
  0
TABLESTYLE
  5
87
102
{ACAD_XDICTIONARY
360
104
102
}
102
{ACAD_REACTORS
330
86
102
}
330
86
100
AcDbTableStyle
280
     0
  3
Standard
 70
     0
 71
     0
 40
0.06
 41
0.06
280
     0
281
     0
  7
Standard
140
0.18
170
     2
 62
     0
 63
     7
283
     0
 90
      512
 91
        0
  1

274
    -2
284
     1
 64
     0
275
    -2
285
     1
 65
     0
276
    -2
286
     1
 66
     0
277
    -2
287
     1
 67
     0
278
    -2
288
     1
 68
     0
279
    -2
289
     1
 69
     0
  7
Standard
140
0.25
170
     5
 62
     0
 63
     7
283
     0
 90
      512
 91
        0
  1

274
    -2
284
     1
 64
     0
275
    -2
285
     1
 65
     0
276
    -2
286
     1
 66
     0
277
    -2
287
     1
 67
     0
278
    -2
288
     1
 68
     0
279
    -2
289
     1
 69
     0
  7
Standard
140
0.18
170
     5
 62
     0
 63
     7
283
     0
 90
      512
 91
        0
  1

274
    -2
284
     1
 64
     0
275
    -2
285
     1
 65
     0
276
    -2
286
     1
 66
     0
277
    -2
287
     1
 67
     0
278
    -2
288
     1
 68
     0
279
    -2
289
     1
 69
     0
  0
VISUALSTYLE
  5
9F
102
{ACAD_REACTORS
330
99
102
}
330
99
100
AcDbVisualStyle
  2
2dWireframe
 70
     4
177
     3
291
     0
 70
    58
 90
        0
176
     1
 90
        2
176
     1
 90
        1
176
     1
 90
        0
176
     1
 40
0.6
176
     1
 40
30.0
176
     1
 62
     7
420
 16777215
176
     1
 90
        1
176
     1
 90
        4
176
     1
 62
     7
176
     1
 62
   257
176
     1
 90
        1
176
     1
 90
        1
176
     1
 40
1.0
176
     1
 90
        0
176
     1
 62
   257
176
     1
 40
1.0
176
     1
 90
        1
176
     1
 90
        6
176
     1
 90
        2
176
     1
 62
     7
176
     1
 90
        5
176
     1
 90
        0
176
     1
 90
        0
176
     1
290
     0
176
     1
 90
        1
176
     1
 40
0.0
176
     1
 90
        0
176
     1
290
     1
176
     1
290
     1
176
     1
290
     0
176
     1
290
     0
176
     1
290
     0
176
     1
290
     0
176
     1
290
     0
176
     1
290
     0
176
     1
290
     0
176
     1
 90
       50
176
     1
 40
0.0
176
     1
 40
1.0
176
     1
 90
        0
176
     1
 62
    18
420
        0
176
     1
 90
       50
176
     1
 90
        3
176
     1
 62
     5
420
      255
176
     1
290
     0
176
     1
 90
       50
176
     1
 90
       50
176
     1
 90
       50
176
     1
290
     0
176
     1
 90
       50
176
     1
 62
   256
176
     0
 40
1.0
176
     0
 90
        2
176
     1
  1
strokes_ogs.tif
176
     1
290
     0
176
     1
 40
1.0
176
     1
 40
1.0
176
     1
1001
ACAD
1000
AcDbSavedByObjectVersion
1070
     0
  0
VISUALSTYLE
  5
9E
102
{ACAD_REACTORS
330
99
102
}
330
99
100
AcDbVisualStyle
  2
Basic
 70
     7
177
     3
291
     1
 70
    58
 90
        1
176
     1
 90
        0
176
     1
 90
        1
176
     1
 90
        0
176
     1
 40
0.6
176
     1
 40
30.0
176
     1
 62
     7
420
 16777215
176
     1
 90
        0
176
     1
 90
        4
176
     1
 62
     7
176
     1
 62
   257
176
     1
 90
        1
176
     1
 90
        1
176
     1
 40
1.0
176
     1
 90
        8
176
     1
 62
     7
176
     1
 40
1.0
176
     1
 90
        1
176
     1
 90
        6
176
     1
 90
        2
176
     1
 62
     7
176
     1
 90
        5
176
     1
 90
        0
176
     1
 90
        0
176
     1
290
     0
176
     1
 90
        1
176
     1
 40
0.0
176
     1
 90
        0
176
     1
290
     0
176
     1
290
     1
176
     1
290
     1
176
     1
290
     0
176
     1
290
     0
176
     1
290
     0
176
     1
290
     0
176
     1
290
     0
176
     1
290
     0
176
     1
 90
       50
176
     1
 40
0.0
176
     1
 40
1.0
176
     1
 90
        0
176
     1
 62
    18
420
        0
176
     1
 90
       50
176
     1
 90
        3
176
     1
 62
     5
420
      255
176
     1
290
     0
176
     1
 90
       50
176
     1
 90
       50
176
     1
 90
       50
176
     1
290
     0
176
     1
 90
       50
176
     1
 62
   256
176
     0
 40
1.0
176
     0
 90
        2
176
     1
  1
strokes_ogs.tif
176
     1
290
     0
176
     1
 40
1.0
176
     1
 40
1.0
176
     1
1001
ACAD
1000
AcDbSavedByObjectVersion
1070
     0
  0
VISUALSTYLE
  5
A5
102
{ACAD_REACTORS
330
99
102
}
330
99
100
AcDbVisualStyle
  2
Brighten
 70
    12
177
     3
291
     1
 70
    58
 90
        2
176
     1
 90
        2
176
     1
 90
        1
176
     1
 90
        0
176
     1
 40
0.6
176
     1
 40
30.0
176
     1
 62
     7
420
 16777215
176
     1
 90
        1
176
     1
 90
        4
176
     1
 62
     7
176
     1
 62
   257
176
     1
 90
        1
176
     1
 90
        1
176
     1
 40
1.0
176
     1
 90
        8
176
     1
 62
     7
176
     1
 40
1.0
176
     1
 90
        1
176
     1
 90
        6
176
     1
 90
        2
176
     1
 62
     7
176
     1
 90
        5
176
     1
 90
        0
176
     1
 90
        0
176
     1
290
     0
176
     1
 90
        1
176
     1
 40
50.0
176
     1
 90
        0
176
     1
290
     0
176
     1
290
     1
176
     1
290
     1
176
     1
290
     0
176
     1
290
     0
176
     1
290
     0
176
     1
290
     0
176
     1
290
     0
176
     1
290
     0
176
     1
 90
       50
176
     1
 40
0.0
176
     1
 40
1.0
176
     1
 90
        0
176
     1
 62
    18
420
        0
176
     1
 90
       50
176
     1
 90
        3
176
     1
 62
     5
420
      255
176
     1
290
     0
176
     1
 90
       50
176
     1
 90
       50
176
     1
 90
       50
176
     1
290
     0
176
     1
 90
       50
176
     1
 62
   256
176
     0
 40
1.0
176
     0
 90
        2
176
     1
  1
strokes_ogs.tif
176
     1
290
     0
176
     1
 40
1.0
176
     1
 40
1.0
176
     1
1001
ACAD
1000
AcDbSavedByObjectVersion
1070
     0
  0
VISUALSTYLE
  5
A9
102
{ACAD_REACTORS
330
99
102
}
330
99
100
AcDbVisualStyle
  2
ColorChange
 70
    16
177
     3
291
     1
 70
    58
 90
        2
176
     1
 90
        2
176
     1
 90
        3
176
     1
 90
        0
176
     1
 40
0.6
176
     1
 40
30.0
176
     1
 62
     8
420
  8421504
176
     1
 90
        1
176
     1
 90
        4
176
     1
 62
     7
176
     1
 62
   257
176
     1
 90
        1
176
     1
 90
        1
176
     1
 40
1.0
176
     1
 90
        8
176
     1
 62
     8
420
  8421504
176
     1
 40
1.0
176
     1
 90
        1
176
     1
 90
        6
176
     1
 90
        2
176
     1
 62
     7
176
     1
 90
        5
176
     1
 90
        0
176
     1
 90
        0
176
     1
290
     0
176
     1
 90
        1
176
     1
 40
0.0
176
     1
 90
        0
176
     1
290
     0
176
     1
290
     1
176
     1
290
     1
176
     1
290
     0
176
     1
290
     0
176
     1
290
     0
176
     1
290
     0
176
     1
290
     0
176
     1
290
     0
176
     1
 90
       50
176
     1
 40
0.0
176
     1
 40
1.0
176
     1
 90
        0
176
     1
 62
    18
420
        0
176
     1
 90
       50
176
     1
 90
        3
176
     1
 62
     5
420
      255
176
     1
290
     0
176
     1
 90
       50
176
     1
 90
       50
176
     1
 90
       50
176
     1
290
     0
176
     1
 90
       50
176
     1
 62
   256
176
     0
 40
1.0
176
     0
 90
        2
176
     1
  1
strokes_ogs.tif
176
     1
290
     0
176
     1
 40
1.0
176
     1
 40
1.0
176
     1
1001
ACAD
1000
AcDbSavedByObjectVersion
1070
     0
  0
VISUALSTYLE
  5
A2
102
{ACAD_REACTORS
330
99
102
}
330
99
100
AcDbVisualStyle
  2
Conceptual
 70
     9
177
     3
291
     0
 70
    58
 90
        3
176
     1
 90
        2
176
     1
 90
        1
176
     1
 90
        0
176
     1
 40
0.6
176
     1
 40
30.0
176
     1
 62
     7
420
 16777215
176
     1
 90
        2
176
     1
 90
        2
176
     1
 62
     7
176
     1
 62
   257
176
     1
 90
        1
176
     1
 90
        1
176
     1
 40
40.0
176
     1
 90
        8
176
     1
 62
     7
176
     1
 40
1.0
176
     1
 90
        1
176
     1
 90
        6
176
     1
 90
        2
176
     1
 62
     7
176
     1
 90
        3
176
     1
 90
        0
176
     1
 90
        0
176
     1
290
     0
176
     1
 90
        1
176
     1
 40
0.0
176
     1
 90
        0
176
     1
290
     0
176
     1
290
     1
176
     1
290
     1
176
     1
290
     0
176
     1
290
     0
176
     1
290
     0
176
     1
290
     0
176
     1
290
     0
176
     1
290
     0
176
     1
 90
       50
176
     1
 40
0.0
176
     1
 40
1.0
176
     1
 90
        0
176
     1
 62
    18
420
        0
176
     1
 90
       50
176
     1
 90
        3
176
     1
 62
     5
420
      255
176
     1
290
     0
176
     1
 90
       50
176
     1
 90
       50
176
     1
 90
       50
176
     1
290
     0
176
     1
 90
       50
176
     1
 62
   256
176
     0
 40
1.0
176
     0
 90
        2
176
     1
  1
strokes_ogs.tif
176
     1
290
     0
176
     1
 40
1.0
176
     1
 40
1.0
176
     1
1001
ACAD
1000
AcDbSavedByObjectVersion
1070
     0
  0
VISUALSTYLE
  5
A4
102
{ACAD_REACTORS
330
99
102
}
330
99
100
AcDbVisualStyle
  2
Dim
 70
    11
177
     3
291
     1
 70
    58
 90
        2
176
     1
 90
        2
176
     1
 90
        1
176
     1
 90
        0
176
     1
 40
0.6
176
     1
 40
30.0
176
     1
 62
     7
420
 16777215
176
     1
 90
        1
176
     1
 90
        4
176
     1
 62
     7
176
     1
 62
   257
176
     1
 90
        1
176
     1
 90
        1
176
     1
 40
1.0
176
     1
 90
        8
176
     1
 62
     7
176
     1
 40
1.0
176
     1
 90
        1
176
     1
 90
        6
176
     1
 90
        2
176
     1
 62
     7
176
     1
 90
        5
176
     1
 90
        0
176
     1
 90
        0
176
     1
290
     0
176
     1
 90
        1
176
     1
 40
-50.0
176
     1
 90
        0
176
     1
290
     0
176
     1
290
     1
176
     1
290
     1
176
     1
290
     0
176
     1
290
     0
176
     1
290
     0
176
     1
290
     0
176
     1
290
     0
176
     1
290
     0
176
     1
 90
       50
176
     1
 40
0.0
176
     1
 40
1.0
176
     1
 90
        0
176
     1
 62
    18
420
        0
176
     1
 90
       50
176
     1
 90
        3
176
     1
 62
     5
420
      255
176
     1
290
     0
176
     1
 90
       50
176
     1
 90
       50
176
     1
 90
       50
176
     1
290
     0
176
     1
 90
       50
176
     1
 62
   256
176
     0
 40
1.0
176
     0
 90
        2
176
     1
  1
strokes_ogs.tif
176
     1
290
     0
176
     1
 40
1.0
176
     1
 40
1.0
176
     1
1001
ACAD
1000
AcDbSavedByObjectVersion
1070
     0
  0
VISUALSTYLE
  5
175
102
{ACAD_REACTORS
330
99
102
}
330
99
100
AcDbVisualStyle
  2
EdgeColorOff
 70
    22
177
     3
291
     1
 70
    58
 90
        2
176
     0
 90
        2
176
     0
 90
        0
176
     0
 90
        0
176
     0
 40
0.6
176
     0
 40
30.0
176
     0
 62
     7
420
 16777215
176
     0
 90
        1
176
     0
 90
        4
176
     0
 62
     7
176
     0
 62
   257
176
     0
 90
        1
176
     0
 90
        1
176
     0
 40
1.0
176
     0
 90
        8
176
     2
 62
     7
176
     0
 40
1.0
176
     0
 90
        1
176
     0
 90
        6
176
     0
 90
        2
176
     0
 62
     7
176
     0
 90
        5
176
     0
 90
        0
176
     0
 90
        0
176
     0
290
     0
176
     0
 90
        1
176
     0
 40
0.0
176
     0
 90
        0
176
     0
290
     0
176
     1
290
     1
176
     1
290
     1
176
     1
290
     0
176
     1
290
     0
176
     1
290
     0
176
     1
290
     0
176
     1
290
     0
176
     1
290
     0
176
     1
 90
       50
176
     1
 40
0.0
176
     1
 40
1.0
176
     1
 90
        0
176
     1
 62
    18
420
        0
176
     1
 90
       50
176
     1
 90
        3
176
     1
 62
     5
420
      255
176
     1
290
     0
176
     1
 90
       50
176
     1
 90
       50
176
     1
 90
       50
176
     1
290
     0
176
     1
 90
       50
176
     1
 62
   256
176
     0
 40
1.0
176
     0
 90
        2
176
     1
  1
strokes_ogs.tif
176
     1
290
     0
176
     1
 40
1.0
176
     1
 40
1.0
176
     1
1001
ACAD
1000
AcDbSavedByObjectVersion
1070
     0
  0
VISUALSTYLE
  5
A8
102
{ACAD_REACTORS
330
99
102
}
330
99
100
AcDbVisualStyle
  2
Facepattern
 70
    15
177
     3
291
     1
 70
    58
 90
        2
176
     1
 90
        2
176
     1
 90
        1
176
     1
 90
        0
176
     1
 40
0.6
176
     1
 40
30.0
176
     1
 62
     7
420
 16777215
176
     1
 90
        1
176
     1
 90
        4
176
     1
 62
     7
176
     1
 62
   257
176
     1
 90
        1
176
     1
 90
        1
176
     1
 40
1.0
176
     1
 90
        8
176
     1
 62
     7
176
     1
 40
1.0
176
     1
 90
        1
176
     1
 90
        6
176
     1
 90
        2
176
     1
 62
     7
176
     1
 90
        5
176
     1
 90
        0
176
     1
 90
        0
176
     1
290
     0
176
     1
 90
        1
176
     1
 40
0.0
176
     1
 90
        0
176
     1
290
     0
176
     1
290
     1
176
     1
290
     1
176
     1
290
     0
176
     1
290
     0
176
     1
290
     0
176
     1
290
     0
176
     1
290
     0
176
     1
290
     0
176
     1
 90
       50
176
     1
 40
0.0
176
     1
 40
1.0
176
     1
 90
        0
176
     1
 62
    18
420
        0
176
     1
 90
       50
176
     1
 90
        3
176
     1
 62
     5
420
      255
176
     1
290
     0
176
     1
 90
       50
176
     1
 90
       50
176
     1
 90
       50
176
     1
290
     0
176
     1
 90
       50
176
     1
 62
   256
176
     0
 40
1.0
176
     0
 90
        2
176
     1
  1
strokes_ogs.tif
176
     1
290
     0
176
     1
 40
1.0
176
     1
 40
1.0
176
     1
1001
ACAD
1000
AcDbSavedByObjectVersion
1070
     0
  0
VISUALSTYLE
  5
9A
102
{ACAD_REACTORS
330
99
102
}
330
99
100
AcDbVisualStyle
  2
Flat
 70
     0
177
     3
291
     1
 70
    58
 90
        2
176
     1
 90
        1
176
     1
 90
        1
176
     1
 90
        2
176
     1
 40
0.6
176
     1
 40
30.0
176
     1
 62
     7
420
 16777215
176
     1
 90
        0
176
     1
 90
        0
176
     1
 62
     7
176
     1
 62
   257
176
     1
 90
        1
176
     1
 90
        1
176
     1
 40
1.0
176
     1
 90
        8
176
     1
 62
     7
176
     1
 40
1.0
176
     1
 90
        1
176
     1
 90
        6
176
     1
 90
        2
176
     1
 62
     7
176
     1
 90
        5
176
     1
 90
        0
176
     1
 90
        0
176
     1
290
     0
176
     1
 90
       13
176
     1
 40
0.0
176
     1
 90
        0
176
     1
290
     0
176
     1
290
     1
176
     1
290
     1
176
     1
290
     0
176
     1
290
     0
176
     1
290
     0
176
     1
290
     0
176
     1
290
     0
176
     1
290
     0
176
     1
 90
       50
176
     1
 40
0.0
176
     1
 40
1.0
176
     1
 90
        0
176
     1
 62
    18
420
        0
176
     1
 90
       50
176
     1
 90
        3
176
     1
 62
     5
420
      255
176
     1
290
     0
176
     1
 90
       50
176
     1
 90
       50
176
     1
 90
       50
176
     1
290
     0
176
     1
 90
       50
176
     1
 62
   256
176
     0
 40
1.0
176
     0
 90
        2
176
     1
  1
strokes_ogs.tif
176
     1
290
     0
176
     1
 40
1.0
176
     1
 40
1.0
176
     1
1001
ACAD
1000
AcDbSavedByObjectVersion
1070
     0
  0
VISUALSTYLE
  5
9B
102
{ACAD_REACTORS
330
99
102
}
330
99
100
AcDbVisualStyle
  2
FlatWithEdges
 70
     1
177
     3
291
     1
 70
    58
 90
        2
176
     1
 90
        1
176
     1
 90
        1
176
     1
 90
        2
176
     1
 40
0.6
176
     1
 40
30.0
176
     1
 62
     7
420
 16777215
176
     1
 90
        1
176
     1
 90
        0
176
     1
 62
     7
176
     1
 62
   257
176
     1
 90
        1
176
     1
 90
        1
176
     1
 40
1.0
176
     1
 90
        0
176
     1
 62
   257
176
     1
 40
1.0
176
     1
 90
        1
176
     1
 90
        6
176
     1
 90
        2
176
     1
 62
     7
176
     1
 90
        5
176
     1
 90
        0
176
     1
 90
        0
176
     1
290
     0
176
     1
 90
       13
176
     1
 40
0.0
176
     1
 90
        0
176
     1
290
     0
176
     1
290
     1
176
     1
290
     1
176
     1
290
     0
176
     1
290
     0
176
     1
290
     0
176
     1
290
     0
176
     1
290
     0
176
     1
290
     0
176
     1
 90
       50
176
     1
 40
0.0
176
     1
 40
1.0
176
     1
 90
        0
176
     1
 62
    18
420
        0
176
     1
 90
       50
176
     1
 90
        3
176
     1
 62
     5
420
      255
176
     1
290
     0
176
     1
 90
       50
176
     1
 90
       50
176
     1
 90
       50
176
     1
290
     0
176
     1
 90
       50
176
     1
 62
   256
176
     0
 40
1.0
176
     0
 90
        2
176
     1
  1
strokes_ogs.tif
176
     1
290
     0
176
     1
 40
1.0
176
     1
 40
1.0
176
     1
1001
ACAD
1000
AcDbSavedByObjectVersion
1070
     0
  0
VISUALSTYLE
  5
9C
102
{ACAD_REACTORS
330
99
102
}
330
99
100
AcDbVisualStyle
  2
Gouraud
 70
     2
177
     3
291
     1
 70
    58
 90
        2
176
     1
 90
        2
176
     1
 90
        1
176
     1
 90
        2
176
     1
 40
0.6
176
     1
 40
30.0
176
     1
 62
     7
420
 16777215
176
     1
 90
        0
176
     1
 90
        0
176
     1
 62
     7
176
     1
 62
   257
176
     1
 90
        1
176
     1
 90
        1
176
     1
 40
1.0
176
     1
 90
        0
176
     1
 62
     7
176
     1
 40
1.0
176
     1
 90
        1
176
     1
 90
        6
176
     1
 90
        2
176
     1
 62
     7
176
     1
 90
        5
176
     1
 90
        0
176
     1
 90
        0
176
     1
290
     0
176
     1
 90
       13
176
     1
 40
0.0
176
     1
 90
        0
176
     1
290
     0
176
     1
290
     1
176
     1
290
     1
176
     1
290
     0
176
     1
290
     0
176
     1
290
     0
176
     1
290
     0
176
     1
290
     0
176
     1
290
     0
176
     1
 90
       50
176
     1
 40
0.0
176
     1
 40
1.0
176
     1
 90
        0
176
     1
 62
    18
420
        0
176
     1
 90
       50
176
     1
 90
        3
176
     1
 62
     5
420
      255
176
     1
290
     0
176
     1
 90
       50
176
     1
 90
       50
176
     1
 90
       50
176
     1
290
     0
176
     1
 90
       50
176
     1
 62
   256
176
     0
 40
1.0
176
     0
 90
        2
176
     1
  1
strokes_ogs.tif
176
     1
290
     0
176
     1
 40
1.0
176
     1
 40
1.0
176
     1
1001
ACAD
1000
AcDbSavedByObjectVersion
1070
     0
  0
VISUALSTYLE
  5
9D
102
{ACAD_REACTORS
330
99
102
}
330
99
100
AcDbVisualStyle
  2
GouraudWithEdges
 70
     3
177
     3
291
     1
 70
    58
 90
        2
176
     1
 90
        2
176
     1
 90
        1
176
     1
 90
        2
176
     1
 40
0.6
176
     1
 40
30.0
176
     1
 62
     7
420
 16777215
176
     1
 90
        1
176
     1
 90
        0
176
     1
 62
     7
176
     1
 62
   257
176
     1
 90
        1
176
     1
 90
        1
176
     1
 40
1.0
176
     1
 90
        0
176
     1
 62
   257
176
     1
 40
1.0
176
     1
 90
        1
176
     1
 90
        6
176
     1
 90
        2
176
     1
 62
     7
176
     1
 90
        5
176
     1
 90
        0
176
     1
 90
        0
176
     1
290
     0
176
     1
 90
       13
176
     1
 40
0.0
176
     1
 90
        0
176
     1
290
     0
176
     1
290
     1
176
     1
290
     1
176
     1
290
     0
176
     1
290
     0
176
     1
290
     0
176
     1
290
     0
176
     1
290
     0
176
     1
290
     0
176
     1
 90
       50
176
     1
 40
0.0
176
     1
 40
1.0
176
     1
 90
        0
176
     1
 62
    18
420
        0
176
     1
 90
       50
176
     1
 90
        3
176
     1
 62
     5
420
      255
176
     1
290
     0
176
     1
 90
       50
176
     1
 90
       50
176
     1
 90
       50
176
     1
290
     0
176
     1
 90
       50
176
     1
 62
   256
176
     0
 40
1.0
176
     0
 90
        2
176
     1
  1
strokes_ogs.tif
176
     1
290
     0
176
     1
 40
1.0
176
     1
 40
1.0
176
     1
1001
ACAD
1000
AcDbSavedByObjectVersion
1070
     0
  0
VISUALSTYLE
  5
A1
102
{ACAD_REACTORS
330
99
102
}
330
99
100
AcDbVisualStyle
  2
Hidden
 70
     6
177
     3
291
     0
 70
    58
 90
        1
176
     1
 90
        2
176
     1
 90
        2
176
     1
 90
        0
176
     1
 40
0.6
176
     1
 40
30.0
176
     1
 62
     7
420
 16777215
176
     1
 90
        2
176
     1
 90
        2
176
     1
 62
     7
176
     1
 62
   257
176
     1
 90
        2
176
     1
 90
        1
176
     1
 40
40.0
176
     1
 90
        0
176
     1
 62
   257
176
     1
 40
1.0
176
     1
 90
        1
176
     1
 90
        6
176
     1
 90
        2
176
     1
 62
     7
176
     1
 90
        3
176
     1
 90
        0
176
     1
 90
        0
176
     1
290
     0
176
     1
 90
        1
176
     1
 40
0.0
176
     1
 90
        0
176
     1
290
     0
176
     1
290
     1
176
     1
290
     1
176
     1
290
     0
176
     1
290
     0
176
     1
290
     0
176
     1
290
     0
176
     1
290
     0
176
     1
290
     0
176
     1
 90
       50
176
     1
 40
0.0
176
     1
 40
1.0
176
     1
 90
        0
176
     1
 62
    18
420
        0
176
     1
 90
       50
176
     1
 90
        3
176
     1
 62
     5
420
      255
176
     1
290
     0
176
     1
 90
       50
176
     1
 90
       50
176
     1
 90
       50
176
     1
290
     0
176
     1
 90
       50
176
     1
 62
   256
176
     0
 40
1.0
176
     0
 90
        2
176
     1
  1
strokes_ogs.tif
176
     1
290
     0
176
     1
 40
1.0
176
     1
 40
1.0
176
     1
1001
ACAD
1000
AcDbSavedByObjectVersion
1070
     0
  0
VISUALSTYLE
  5
173
102
{ACAD_REACTORS
330
99
102
}
330
99
100
AcDbVisualStyle
  2
JitterOff
 70
    20
177
     3
291
     1
 70
    58
 90
        2
176
     0
 90
        2
176
     0
 90
        0
176
     0
 90
        0
176
     0
 40
0.6
176
     0
 40
30.0
176
     0
 62
     7
420
 16777215
176
     0
 90
        1
176
     0
 90
        4
176
     0
 62
     7
176
     0
 62
   257
176
     0
 90
        1
176
     0
 90
        1
176
     0
 40
1.0
176
     0
 90
       10
176
     2
 62
     7
176
     0
 40
1.0
176
     0
 90
        1
176
     0
 90
        6
176
     0
 90
        2
176
     0
 62
     7
176
     0
 90
        5
176
     0
 90
        0
176
     0
 90
        0
176
     0
290
     0
176
     0
 90
        1
176
     0
 40
0.0
176
     0
 90
        0
176
     0
290
     0
176
     1
290
     1
176
     1
290
     1
176
     1
290
     0
176
     1
290
     0
176
     1
290
     0
176
     1
290
     0
176
     1
290
     0
176
     1
290
     0
176
     1
 90
       50
176
     1
 40
0.0
176
     1
 40
1.0
176
     1
 90
        0
176
     1
 62
    18
420
        0
176
     1
 90
       50
176
     1
 90
        3
176
     1
 62
     5
420
      255
176
     1
290
     0
176
     1
 90
       50
176
     1
 90
       50
176
     1
 90
       50
176
     1
290
     0
176
     1
 90
       50
176
     1
 62
   256
176
     0
 40
1.0
176
     0
 90
        2
176
     1
  1
strokes_ogs.tif
176
     1
290
     0
176
     1
 40
1.0
176
     1
 40
1.0
176
     1
1001
ACAD
1000
AcDbSavedByObjectVersion
1070
     0
  0
VISUALSTYLE
  5
A7
102
{ACAD_REACTORS
330
99
102
}
330
99
100
AcDbVisualStyle
  2
Linepattern
 70
    14
177
     3
291
     1
 70
    58
 90
        2
176
     1
 90
        2
176
     1
 90
        1
176
     1
 90
        0
176
     1
 40
0.6
176
     1
 40
30.0
176
     1
 62
     7
420
 16777215
176
     1
 90
        1
176
     1
 90
        4
176
     1
 62
     7
176
     1
 62
   257
176
     1
 90
        7
176
     1
 90
        7
176
     1
 40
1.0
176
     1
 90
        8
176
     1
 62
     7
176
     1
 40
1.0
176
     1
 90
        1
176
     1
 90
        6
176
     1
 90
        2
176
     1
 62
     7
176
     1
 90
        5
176
     1
 90
        0
176
     1
 90
        0
176
     1
290
     0
176
     1
 90
        1
176
     1
 40
0.0
176
     1
 90
        0
176
     1
290
     0
176
     1
290
     1
176
     1
290
     1
176
     1
290
     0
176
     1
290
     0
176
     1
290
     0
176
     1
290
     0
176
     1
290
     0
176
     1
290
     0
176
     1
 90
       50
176
     1
 40
0.0
176
     1
 40
1.0
176
     1
 90
        0
176
     1
 62
    18
420
        0
176
     1
 90
       50
176
     1
 90
        3
176
     1
 62
     5
420
      255
176
     1
290
     0
176
     1
 90
       50
176
     1
 90
       50
176
     1
 90
       50
176
     1
290
     0
176
     1
 90
       50
176
     1
 62
   256
176
     0
 40
1.0
176
     0
 90
        2
176
     1
  1
strokes_ogs.tif
176
     1
290
     0
176
     1
 40
1.0
176
     1
 40
1.0
176
     1
1001
ACAD
1000
AcDbSavedByObjectVersion
1070
     0
  0
VISUALSTYLE
  5
174
102
{ACAD_REACTORS
330
99
102
}
330
99
100
AcDbVisualStyle
  2
OverhangOff
 70
    21
177
     3
291
     1
 70
    58
 90
        2
176
     0
 90
        2
176
     0
 90
        0
176
     0
 90
        0
176
     0
 40
0.6
176
     0
 40
30.0
176
     0
 62
     7
420
 16777215
176
     0
 90
        1
176
     0
 90
        4
176
     0
 62
     7
176
     0
 62
   257
176
     0
 90
        1
176
     0
 90
        1
176
     0
 40
1.0
176
     0
 90
        9
176
     2
 62
     7
176
     0
 40
1.0
176
     0
 90
        1
176
     0
 90
        6
176
     0
 90
        2
176
     0
 62
     7
176
     0
 90
        5
176
     0
 90
        0
176
     0
 90
        0
176
     0
290
     0
176
     0
 90
        1
176
     0
 40
0.0
176
     0
 90
        0
176
     0
290
     0
176
     1
290
     1
176
     1
290
     1
176
     1
290
     0
176
     1
290
     0
176
     1
290
     0
176
     1
290
     0
176
     1
290
     0
176
     1
290
     0
176
     1
 90
       50
176
     1
 40
0.0
176
     1
 40
1.0
176
     1
 90
        0
176
     1
 62
    18
420
        0
176
     1
 90
       50
176
     1
 90
        3
176
     1
 62
     5
420
      255
176
     1
290
     0
176
     1
 90
       50
176
     1
 90
       50
176
     1
 90
       50
176
     1
290
     0
176
     1
 90
       50
176
     1
 62
   256
176
     0
 40
1.0
176
     0
 90
        2
176
     1
  1
strokes_ogs.tif
176
     1
290
     0
176
     1
 40
1.0
176
     1
 40
1.0
176
     1
1001
ACAD
1000
AcDbSavedByObjectVersion
1070
     0
  0
VISUALSTYLE
  5
A3
102
{ACAD_REACTORS
330
99
102
}
330
99
100
AcDbVisualStyle
  2
Realistic
 70
     8
177
     3
291
     0
 70
    58
 90
        2
176
     1
 90
        3
176
     1
 90
        0
176
     1
 90
        2
176
     1
 40
0.6
176
     1
 40
30.0
176
     1
 62
     7
420
 16777215
176
     1
 90
        0
176
     1
 90
        0
176
     1
 62
     7
176
     1
 62
   257
176
     1
 90
        1
176
     1
 90
        1
176
     1
 40
1.0
176
     1
 90
        8
176
     1
 62
   257
176
     1
 40
1.0
176
     1
 90
        1
176
     1
 90
        6
176
     1
 90
        2
176
     1
 62
     7
176
     1
 90
        3
176
     1
 90
        0
176
     1
 90
        0
176
     1
290
     0
176
     1
 90
       13
176
     1
 40
0.0
176
     1
 90
        0
176
     1
290
     0
176
     1
290
     1
176
     1
290
     1
176
     1
290
     0
176
     1
290
     0
176
     1
290
     0
176
     1
290
     0
176
     1
290
     0
176
     1
290
     0
176
     1
 90
       50
176
     1
 40
0.0
176
     1
 40
1.0
176
     1
 90
        0
176
     1
 62
    18
420
        0
176
     1
 90
       50
176
     1
 90
        3
176
     1
 62
     5
420
      255
176
     1
290
     0
176
     1
 90
       50
176
     1
 90
       50
176
     1
 90
       50
176
     1
290
     0
176
     1
 90
       50
176
     1
 62
   256
176
     0
 40
1.0
176
     0
 90
        2
176
     1
  1
strokes_ogs.tif
176
     1
290
     0
176
     1
 40
1.0
176
     1
 40
1.0
176
     1
1001
ACAD
1000
AcDbSavedByObjectVersion
1070
     0
  0
VISUALSTYLE
  5
182
102
{ACAD_REACTORS
330
99
102
}
330
99
100
AcDbVisualStyle
  2
Shaded
 70
    27
177
     3
291
     0
 70
    58
 90
        2
176
     1
 90
        2
176
     1
 90
        1
176
     1
 90
        2
176
     1
 40
0.6
176
     1
 40
30.0
176
     1
 62
     7
420
 16777215
176
     1
 90
        0
176
     1
 90
        4
176
     1
 62
     7
176
     1
 62
   257
176
     1
 90
        1
176
     1
 90
        1
176
     1
 40
1.0
176
     1
 90
        8
176
     1
 62
   257
176
     1
 40
1.0
176
     1
 90
        1
176
     1
 90
        6
176
     1
 90
        2
176
     1
 62
     8
420
  7895160
176
     1
 90
        3
176
     1
 90
        0
176
     1
 90
        0
176
     1
290
     0
176
     1
 90
        5
176
     1
 40
0.0
176
     1
 90
        0
176
     1
290
     0
176
     1
290
     1
176
     1
290
     1
176
     1
290
     0
176
     1
290
     0
176
     1
290
     0
176
     1
290
     0
176
     1
290
     0
176
     1
290
     0
176
     1
 90
       50
176
     1
 40
0.0
176
     1
 40
1.0
176
     1
 90
        0
176
     1
 62
    18
420
        0
176
     1
 90
       50
176
     1
 90
        3
176
     1
 62
     5
420
      255
176
     1
290
     0
176
     1
 90
       50
176
     1
 90
       50
176
     1
 90
       50
176
     1
290
     0
176
     1
 90
       50
176
     1
 62
   256
176
     0
 40
1.0
176
     0
 90
        2
176
     1
  1
strokes_ogs.tif
176
     1
290
     0
176
     1
 40
1.0
176
     1
 40
1.0
176
     1
1001
ACAD
1000
AcDbSavedByObjectVersion
1070
     0
  0
VISUALSTYLE
  5
181
102
{ACAD_REACTORS
330
99
102
}
330
99
100
AcDbVisualStyle
  2
Shaded with edges
 70
    26
177
     3
291
     0
 70
    58
 90
        2
176
     1
 90
        2
176
     1
 90
        1
176
     1
 90
        2
176
     1
 40
0.6
176
     1
 40
30.0
176
     1
 62
     7
420
 16777215
176
     1
 90
        1
176
     1
 90
        2
176
     1
 62
     7
176
     1
 62
   257
176
     1
 90
        2
176
     1
 90
        1
176
     1
 40
1.0
176
     1
 90
        8
176
     1
 62
   257
176
     1
 40
1.0
176
     1
 90
        1
176
     1
 90
        6
176
     1
 90
        2
176
     1
 62
     7
176
     1
 90
        3
176
     1
 90
        0
176
     1
 90
        0
176
     1
290
     0
176
     1
 90
        5
176
     1
 40
0.0
176
     1
 90
        0
176
     1
290
     0
176
     1
290
     1
176
     1
290
     1
176
     1
290
     0
176
     1
290
     0
176
     1
290
     0
176
     1
290
     0
176
     1
290
     0
176
     1
290
     0
176
     1
 90
       50
176
     1
 40
0.0
176
     1
 40
1.0
176
     1
 90
        0
176
     1
 62
    18
420
        0
176
     1
 90
       50
176
     1
 90
        3
176
     1
 62
     5
420
      255
176
     1
290
     0
176
     1
 90
       50
176
     1
 90
       50
176
     1
 90
       50
176
     1
290
     0
176
     1
 90
       50
176
     1
 62
   256
176
     0
 40
1.0
176
     0
 90
        2
176
     1
  1
strokes_ogs.tif
176
     1
290
     0
176
     1
 40
1.0
176
     1
 40
1.0
176
     1
1001
ACAD
1000
AcDbSavedByObjectVersion
1070
     0
  0
VISUALSTYLE
  5
17E
102
{ACAD_REACTORS
330
99
102
}
330
99
100
AcDbVisualStyle
  2
Shades of Gray
 70
    23
177
     3
291
     0
 70
    58
 90
        2
176
     1
 90
        2
176
     1
 90
        3
176
     1
 90
        0
176
     1
 40
0.6
176
     1
 40
30.0
176
     1
 62
     7
420
 16777215
176
     1
 90
        2
176
     1
 90
        2
176
     1
 62
     7
176
     1
 62
     7
176
     1
 90
        1
176
     1
 90
        1
176
     1
 40
40.0
176
     1
 90
        8
176
     1
 62
     7
176
     1
 40
1.0
176
     1
 90
        1
176
     1
 90
        6
176
     1
 90
        2
176
     1
 62
     7
176
     1
 90
        3
176
     1
 90
        0
176
     1
 90
        0
176
     1
290
     0
176
     1
 90
        1
176
     1
 40
0.0
176
     1
 90
        0
176
     1
290
     0
176
     1
290
     1
176
     1
290
     1
176
     1
290
     0
176
     1
290
     0
176
     1
290
     0
176
     1
290
     0
176
     1
290
     0
176
     1
290
     0
176
     1
 90
       50
176
     1
 40
0.0
176
     1
 40
1.0
176
     1
 90
        0
176
     1
 62
    18
420
        0
176
     1
 90
       50
176
     1
 90
        3
176
     1
 62
     5
420
      255
176
     1
290
     0
176
     1
 90
       50
176
     1
 90
       50
176
     1
 90
       50
176
     1
290
     0
176
     1
 90
       50
176
     1
 62
   256
176
     0
 40
1.0
176
     0
 90
        2
176
     1
  1
strokes_ogs.tif
176
     1
290
     0
176
     1
 40
1.0
176
     1
 40
1.0
176
     1
1001
ACAD
1000
AcDbSavedByObjectVersion
1070
     0
  0
VISUALSTYLE
  5
17F
102
{ACAD_REACTORS
330
99
102
}
330
99
100
AcDbVisualStyle
  2
Sketchy
 70
    24
177
     3
291
     0
 70
    58
 90
        1
176
     1
 90
        2
176
     1
 90
        2
176
     1
 90
        0
176
     1
 40
0.6
176
     1
 40
30.0
176
     1
 62
     7
420
 16777215
176
     1
 90
        2
176
     1
 90
        2
176
     1
 62
     7
176
     1
 62
     7
176
     1
 90
        1
176
     1
 90
        1
176
     1
 40
40.0
176
     1
 90
       11
176
     1
 62
     7
176
     1
 40
1.0
176
     1
 90
        1
176
     1
 90
        6
176
     1
 90
        2
176
     1
 62
     7
176
     1
 90
        6
176
     1
 90
        0
176
     1
 90
        0
176
     1
290
     0
176
     1
 90
        1
176
     1
 40
0.0
176
     1
 90
        0
176
     1
290
     0
176
     1
290
     1
176
     1
290
     1
176
     1
290
     0
176
     1
290
     0
176
     1
290
     0
176
     1
290
     0
176
     1
290
     0
176
     1
290
     0
176
     1
 90
       50
176
     1
 40
0.0
176
     1
 40
1.0
176
     1
 90
        0
176
     1
 62
    18
420
        0
176
     1
 90
       50
176
     1
 90
        3
176
     1
 62
     5
420
      255
176
     1
290
     0
176
     1
 90
       50
176
     1
 90
       50
176
     1
 90
       50
176
     1
290
     0
176
     1
 90
       50
176
     1
 62
   256
176
     0
 40
1.0
176
     0
 90
        2
176
     1
  1
strokes_ogs.tif
176
     1
290
     0
176
     1
 40
1.0
176
     1
 40
1.0
176
     1
1001
ACAD
1000
AcDbSavedByObjectVersion
1070
     0
  0
VISUALSTYLE
  5
A6
102
{ACAD_REACTORS
330
99
102
}
330
99
100
AcDbVisualStyle
  2
Thicken
 70
    13
177
     3
291
     1
 70
    58
 90
        2
176
     1
 90
        2
176
     1
 90
        1
176
     1
 90
        0
176
     1
 40
0.6
176
     1
 40
30.0
176
     1
 62
     7
420
 16777215
176
     1
 90
        1
176
     1
 90
        4
176
     1
 62
     7
176
     1
 62
   257
176
     1
 90
        1
176
     1
 90
        1
176
     1
 40
1.0
176
     1
 90
       12
176
     1
 62
     7
176
     1
 40
1.0
176
     1
 90
        1
176
     1
 90
        6
176
     1
 90
        2
176
     1
 62
     7
176
     1
 90
        5
176
     1
 90
        0
176
     1
 90
        0
176
     1
290
     0
176
     1
 90
        1
176
     1
 40
0.0
176
     1
 90
        0
176
     1
290
     0
176
     1
290
     1
176
     1
290
     1
176
     1
290
     0
176
     1
290
     0
176
     1
290
     0
176
     1
290
     0
176
     1
290
     0
176
     1
290
     0
176
     1
 90
       50
176
     1
 40
0.0
176
     1
 40
1.0
176
     1
 90
        0
176
     1
 62
    18
420
        0
176
     1
 90
       50
176
     1
 90
        3
176
     1
 62
     5
420
      255
176
     1
290
     0
176
     1
 90
       50
176
     1
 90
       50
176
     1
 90
       50
176
     1
290
     0
176
     1
 90
       50
176
     1
 62
   256
176
     0
 40
1.0
176
     0
 90
        2
176
     1
  1
strokes_ogs.tif
176
     1
290
     0
176
     1
 40
1.0
176
     1
 40
1.0
176
     1
1001
ACAD
1000
AcDbSavedByObjectVersion
1070
     0
  0
VISUALSTYLE
  5
A0
102
{ACAD_REACTORS
330
99
102
}
330
99
100
AcDbVisualStyle
  2
Wireframe
 70
     5
177
     3
291
     0
 70
    58
 90
        0
176
     1
 90
        2
176
     1
 90
        0
176
     1
 90
        0
176
     1
 40
0.6
176
     1
 40
30.0
176
     1
 62
     7
420
 16777215
176
     1
 90
        1
176
     1
 90
        4
176
     1
 62
     7
176
     1
 62
   257
176
     1
 90
        1
176
     1
 90
        1
176
     1
 40
1.0
176
     1
 90
        0
176
     1
 62
   257
176
     1
 40
1.0
176
     1
 90
        1
176
     1
 90
        6
176
     1
 90
        2
176
     1
 62
     7
176
     1
 90
        3
176
     1
 90
        0
176
     1
 90
        0
176
     1
290
     0
176
     1
 90
        1
176
     1
 40
0.0
176
     1
 90
        0
176
     1
290
     0
176
     1
290
     1
176
     1
290
     1
176
     1
290
     0
176
     1
290
     0
176
     1
290
     0
176
     1
290
     0
176
     1
290
     0
176
     1
290
     0
176
     1
 90
       50
176
     1
 40
0.0
176
     1
 40
1.0
176
     1
 90
        0
176
     1
 62
    18
420
        0
176
     1
 90
       50
176
     1
 90
        3
176
     1
 62
     5
420
      255
176
     1
290
     0
176
     1
 90
       50
176
     1
 90
       50
176
     1
 90
       50
176
     1
290
     0
176
     1
 90
       50
176
     1
 62
   256
176
     0
 40
1.0
176
     0
 90
        2
176
     1
  1
strokes_ogs.tif
176
     1
290
     0
176
     1
 40
1.0
176
     1
 40
1.0
176
     1
1001
ACAD
1000
AcDbSavedByObjectVersion
1070
     0
  0
VISUALSTYLE
  5
180
102
{ACAD_REACTORS
330
99
102
}
330
99
100
AcDbVisualStyle
  2
X-Ray
 70
    25
177
     3
291
     0
 70
    58
 90
        2
176
     1
 90
        2
176
     1
 90
        1
176
     1
 90
        1
176
     1
 40
0.5
176
     1
 40
30.0
176
     1
 62
     7
420
 16777215
176
     1
 90
        1
176
     1
 90
        0
176
     1
 62
     7
176
     1
 62
   257
176
     1
 90
        1
176
     1
 90
        1
176
     1
 40
1.0
176
     1
 90
        8
176
     1
 62
     7
176
     1
 40
1.0
176
     1
 90
        1
176
     1
 90
        6
176
     1
 90
        2
176
     1
 62
     7
176
     1
 90
        3
176
     1
 90
        0
176
     1
 90
        0
176
     1
290
     0
176
     1
 90
       13
176
     1
 40
0.0
176
     1
 90
        0
176
     1
290
     0
176
     1
290
     1
176
     1
290
     1
176
     1
290
     0
176
     1
290
     0
176
     1
290
     0
176
     1
290
     0
176
     1
290
     0
176
     1
290
     0
176
     1
 90
       50
176
     1
 40
0.0
176
     1
 40
1.0
176
     1
 90
        0
176
     1
 62
    18
420
        0
176
     1
 90
       50
176
     1
 90
        3
176
     1
 62
     5
420
      255
176
     1
290
     0
176
     1
 90
       50
176
     1
 90
       50
176
     1
 90
       50
176
     1
290
     0
176
     1
 90
       50
176
     1
 62
   256
176
     0
 40
1.0
176
     0
 90
        2
176
     1
  1
strokes_ogs.tif
176
     1
290
     0
176
     1
 40
1.0
176
     1
 40
1.0
176
     1
1001
ACAD
1000
AcDbSavedByObjectVersion
1070
     0
  0
DICTIONARYVAR
  5
F0
102
{ACAD_REACTORS
330
66
102
}
330
66
100
DictionaryVariables
280
     0
  1
1:1
  0
DICTIONARYVAR
  5
EF
102
{ACAD_REACTORS
330
66
102
}
330
66
100
DictionaryVariables
280
     0
  1
STANDARD
  0
DICTIONARYVAR
  5
89
102
{ACAD_REACTORS
330
66
102
}
330
66
100
DictionaryVariables
280
     0
  1
STANDARD
  0
DICTIONARYVAR
  5
1B7
102
{ACAD_REACTORS
330
66
102
}
330
66
100
DictionaryVariables
280
     0
  1
Imperial24
  0
DICTIONARYVAR
  5
1B8
102
{ACAD_REACTORS
330
66
102
}
330
66
100
DictionaryVariables
280
     0
  1
Imperial24
  0
DICTIONARYVAR
  5
67
102
{ACAD_REACTORS
330
66
102
}
330
66
100
DictionaryVariables
280
     0
  1
2
  0
DICTIONARYVAR
  5
6B
102
{ACAD_REACTORS
330
66
102
}
330
66
100
DictionaryVariables
280
     0
  1
1
  0
DICTIONARYVAR
  5
14D
102
{ACAD_REACTORS
330
66
102
}
330
66
100
DictionaryVariables
280
     0
  1
0
  0
DICTIONARYVAR
  5
14E
102
{ACAD_REACTORS
330
66
102
}
330
66
100
DictionaryVariables
280
     0
  1
0
  0
DICTIONARY
  5
6D4
102
{ACAD_REACTORS
330
6D2
102
}
330
6D2
100
AcDbDictionary
281
     1
  0
DICTIONARY
  5
6D3
102
{ACAD_REACTORS
330
6D2
102
}
330
6D2
100
AcDbDictionary
281
     1
  3
2269355803984
350
6CD
  3
2269355804000
350
6CE
  3
2269355804016
350
6CF
  3
2269355804032
350
6D0
  3
2269355804048
350
6D1
  0
XRECORD
  5
6C1
102
{ACAD_REACTORS
330
21B
102
}
330
21B
100
AcDbXrecord
280
     1
1000
ADE02C001
1070
     1
1070
     0
1002
{
1002
}
1002
{
1002
}
1002
{
1002
}
1000

  0
XRECORD
  5
32A
102
{ACAD_REACTORS
330
329
102
}
330
329
100
AcDbXrecord
280
     1
  0
DMSTYLIZEDENTITIESTABLE
  5
215
102
{ACAD_REACTORS
330
204
102
}
330
204
100
AcMapDMStylizedEntitiesTable
 70
     1
  0
MAPRESOURCEMANAGEROBJECT
  5
209
102
{ACAD_REACTORS
330
204
102
}
330
204
100
AcMapResourceManager
 70
     1
 90
        0
  0
DATATABLE
  5
208
102
{ACAD_REACTORS
330
204
102
}
330
204
100
AcDbDataTable
 70
     2
 90
        4
 91
       15
  1

 92
        3
  2
OriginalClassName
  3
AcMapDMDefaultStyle
  3
AcMapDMEntityStyle
  3
AcMapDMRasterStyle
  3
AcMapDMSEAnnotationStyle
  3
AcMapDMSEHatchStyle
  3
AcMapDMSETextStyle
  3
AcMapDMThematicStyle
  3
AcMapDMBaseElement
  3
AcMapDMAttachedDwgsQueryElement
  3
AcMapDMFeatureElement
  3
AcMapDMLayerElement
  3
AcMapDMCurrentDwgQueryElement
  3
AcMapDMRasterElement
  3
AcMapDMTopoElement
  3
AcMapDMTopoQueryElement
 92
        3
  2
ProxyDisplayName
  3
Default
  3
Entity
  3
Raster
  3
Annotation
  3
Hatch
  3
Text
  3
Thematic
  3
Map Base
  3
Ade Query
  3
Feature Class
  3
Layer
  3
Ade Project Query
  3
Raster
  3
Topology
  3
Topology Query
 92
        1
  2
CustomObjectType
 93
        2
 93
        2
 93
        2
 93
        2
 93
        2
 93
        2
 93
        2
 93
        1
 93
        1
 93
        1
 93
        1
 93
        1
 93
        1
 93
        1
 93
        1
 92
        1
  2
StyleCoExistanceType
 93
        1
 93
        1
 93
        1
 93
        1
 93
        1
 93
        1
 93
        2
 93
        0
 93
        0
 93
        0
 93
        0
 93
        0
 93
        0
 93
        0
 93
        0
  0
DMMAPMANAGER
  5
205
102
{ACAD_REACTORS
330
204
102
}
330
204
100
AcDbDictionary
281
     1
  3
DisplayMap1
350
20B
100
AcDbDictionaryWithDefault
340
20B
100
AcMapDMMapManager
 70
     1
340
20B
  0
DMSTYLELIBRARY
  5
206
102
{ACAD_REACTORS
330
204
102
}
330
204
100
AcMapDMStyleLibrary
 70
     1
 70
     1
360
207
  0
DICTIONARY
  5
216
102
{ACAD_REACTORS
330
204
102
}
330
204
100
AcDbDictionary
281
     1
  0
IRD_DSC_RECORD
  5
349
102
{ACAD_REACTORS
330
348
102
}
330
348
100
CIrdBaseRecord
1070
   516
1071
        0
1004
0115000043006C0061007300730000004900720064000000000049007200640000005400680065002000620061007300650020007300750070006500720063006C006100730073000000490072006400200043006C0061007300730020005600200031002E0030003200000000000000
100
CIrdDscRecord
1071
     5377
1000
Class-_-Ird
1071
        0
  0
IRD_DSC_RECORD
  5
34A
102
{ACAD_REACTORS
330
348
102
}
330
348
100
CIrdBaseRecord
1070
   516
1071
        0
1004
0116000043006C0061007300730043006800610072000000490072006400000043006C006100730073000000490072006400000054006800650020006300680061007200610063007400650072002000760061006C00750065000000490072006400200043006C0061007300730020005600200031002E0030003200000000
1004
000000
100
CIrdDscRecord
1071
     5633
1000
ClassChar-_-Ird
1071
        0
  0
IRD_DSC_RECORD
  5
34B
102
{ACAD_REACTORS
330
348
102
}
330
348
100
CIrdBaseRecord
1070
   516
1071
        0
1004
013000005300740072006100DF0065006E00620061007500700072006F006A0065006B00740065005F004C0069006E00690065006E000000610064006500000043006C006100730073000000490072006400000000000000010000800000540059005000000043006C00610073007300430068006100720000004900720064
1004
0000000000000000000000
100
CIrdDscRecord
1071
    12289
1000
Straßenbauprojekte_Linien-_-ade
1071
        0
  0
DICTIONARY
  5
6D7
330
1AC
100
AcDbDictionary
280
     1
281
     1
  3
ACAD_XREC_ROUNDTRIP
360
6D8
  0
DICTIONARY
  5
6DB
330
239
100
AcDbDictionary
280
     1
281
     1
  3
ACAD_XREC_ROUNDTRIP
360
6DC
  0
DICTIONARY
  5
194
330
22
100
AcDbDictionary
280
     1
281
     1
  0
DICTIONARY
  5
188
330
97
100
AcDbDictionary
280
     1
281
     1
  3
FBXASSET
360
189
  0
DICTIONARY
  5
186
330
96
100
AcDbDictionary
280
     1
281
     1
  3
FBXASSET
360
187
  0
DICTIONARY
  5
110
330
98
100
AcDbDictionary
280
     1
281
     1
  3
BUMPTILE
360
112
  3
DIFFUSETILE
360
111
  3
FBXASSET
360
18A
  3
OPACITYTILE
360
113
  3
REFLECTIONTILE
360
114
  0
DICTIONARY
  5
6D5
330
1AA
100
AcDbDictionary
280
     1
281
     1
  3
ACAD_XREC_ROUNDTRIP
360
6D6
  0
DICTIONARY
  5
6D9
330
238
100
AcDbDictionary
280
     1
281
     1
  3
ACAD_XREC_ROUNDTRIP
360
6DA
  0
DICTIONARY
  5
6CA
330
20D
100
AcDbDictionary
280
     1
281
     1
  3
ACAD_ROUNDTRIP_2008_TABLESTYLE_CELLSTYLEMAP
360
6CB
  0
DICTIONARY
  5
104
330
87
100
AcDbDictionary
280
     1
281
     1
  3
ACAD_ROUNDTRIP_2008_TABLESTYLE_CELLSTYLEMAP
360
6C9
  0
XRECORD
  5
6CD
102
{ACAD_REACTORS
330
6D3
102
}
330
6D3
100
AcDbXrecord
280
     1
  1
AcDb_Thumbnail_Schema
102
{ATTRRECORD
341
6CE
  2
AcDbDs::TreatedAsObjectData
280
     1
291
     1
102
ATTRRECORD}
102
{ATTRRECORD
341
6CF
  2
AcDbDs::Legacy
280
     1
291
     1
102
ATTRRECORD}
  2
AcDbDs::ID
280
    10
 91
        8
102
{ATTRRECORD
341
6D0
  2
AcDs:Indexable
280
     1
291
     1
102
ATTRRECORD}
102
{ATTRRECORD
341
6D1
  2
AcDbDs::HandleAttribute
280
     7
282
     1
102
ATTRRECORD}
  2
Thumbnail_Data
280
    15
 91
        0
  0
XRECORD
  5
6CE
102
{ACAD_REACTORS
330
6D3
102
}
330
6D3
100
AcDbXrecord
280
     1
  1
AcDbDs::TreatedAsObjectDataSchema
  2
AcDbDs::TreatedAsObjectData
280
     1
 91
        0
  0
XRECORD
  5
6CF
102
{ACAD_REACTORS
330
6D3
102
}
330
6D3
100
AcDbXrecord
280
     1
  1
AcDbDs::LegacySchema
  2
AcDbDs::Legacy
280
     1
 91
        0
  0
XRECORD
  5
6D0
102
{ACAD_REACTORS
330
6D3
102
}
330
6D3
100
AcDbXrecord
280
     1
  1
AcDbDs::IndexedPropertySchema
  2
AcDs:Indexable
280
     1
 91
        0
  0
XRECORD
  5
6D1
102
{ACAD_REACTORS
330
6D3
102
}
330
6D3
100
AcDbXrecord
280
     1
  1
AcDbDs::HandleAttributeSchema
  2
AcDbDs::HandleAttribute
280
     7
 91
        1
284
     1
  0
DMMAP
  5
20B
102
{ACAD_REACTORS
330
205
330
20E
102
}
330
205
100
AcMapDMMap
 70
     1
  1
Vorgabe
 70
     1
330
0
100
AcMapDMMap
 70
     1
 90
        1
360
20E
 90
        1
 40
1.797693134862314E+99
 70
     1
100
AcMapDMMap
 70
     6
 70
     0
 40
1.797693134862314E+99
290
     1
290
     1
 40
1.0
 40
3.0
  1
Legend
 90
        1
 40
1.797693134862314E+99
  1

 70
     0
 40
1.0
 70
     1
 90
        0
 90
        1
360
20F
 40
123.7415845662808
290
     0
290
     1
 40
1.0
 90
       40
290
     0
290
     1
 40
98902.85197767349
 40
302624.5857475715
 40
100411.9025121163
 40
303493.3547892139
  1

290
     1
 40
123.5167496935449
 40
51.4866775483815
  0
DMSTYLECATEGORY
  5
207
102
{ACAD_REACTORS
330
206
102
}
330
206
100
AcMapDMStyleCategory
 70
     1
  1
Anzeigestile
 70
     0
  0
XRECORD
  5
6D8
102
{ACAD_REACTORS
330
6D7
102
}
330
6D7
100
AcDbXrecord
280
     1
102
DISPLAYNAME
  1
Imperial24
102
FLAGS
 90
        0
  0
XRECORD
  5
6DC
102
{ACAD_REACTORS
330
6DB
102
}
330
6DB
100
AcDbXrecord
280
     1
102
DISPLAYNAME
  1
Metric50
102
FLAGS
 90
        0
  0
XRECORD
  5
189
102
{ACAD_REACTORS
330
188
102
}
330
188
100
AcDbXrecord
280
     1
 70
     1
 90
429727718
  1
508B35C9-AEE7-456F-BE74-D52651303AC6
310
504B03040A0000080000B670623B3DEE336E79000000790000001B0000006175746F6465736B2D64657369676E2D7061636B6167652E786D6C3C3F786D6C2076657273696F6E3D22312E302220656E636F64696E673D227574662D3822203F3E3C666F726D6174733E3C666F726D61743E687474703A2F2F736368656D612E
310
6175746F6465736B2E636F6D2F64657369676E2D7061636B6167652F323030393C2F666F726D61743E3C2F666F726D6174733E504B0304140006080800B670623BD486FD9CA0000000F4000000130000005B436F6E74656E745F54797065735D2E786D6C7D8EC10E82300C865F65E91D8A1E8C310C0EEA1BF002731658846E
310
D98AC1B77784ABF1D8FE5FBFBF75BBCE937A534CCEB38643598122B6FEE978D0B0485F9C41B54DDD7D022595594E1A469170414C76A4D9A4D207E29CF43ECE46F218070CC6BECC4078ACAA135ACF422C856C0E68EA1BF5669944DDD7BCDE7B1F8E415D77AECB980613C2E4AC91FC167A2B244592486606FC29C8FD7F045B9A
310
EF7053A7E60B504B0304140006080800B670623B28ED286BEB0000007C01000008000000636F72652E786D6C8D90416EC3201045AF82665B6183218D6D61A254764FD00B204C5C94182C03558F5F9C3852BBEB6A467FFE9B197D71FA9E6FE8CBACC17AD7012D0820E3B41FAD9B3A48F1826B40272956EFE32F1B20A766D3C1
310
268314D3EAD3B24BDABB685CCCAAF3A3D94515828980F42D371D04FD696655A814B3235C8B45E9AB9A4C419F5D8653B2237A1CB163DE672FD6AC209BF3C08E0D1B30EB19C3FC9D72FCC6EB231EFA33EDE96BDD341517E5064B11EDFCBCAF57A3A2194156843498524CAA0FCA5B7268F9E185D42D21A2DCEC7FA0B48CFF8492
310
759155FBBB0F2C80A4F991FB408A72CB22977B50B96EB9C91F504B0304140006080800B670623B55019EA25F0000007C00000007000000636E782E786D6C4DCB3B0E80201045D1AD90E915ED2CF8AC45050C11660C8261F98AB1B07AC9C97D42D718D865D3E909258CFD00CCE24AC6E326A164D74DC0B4128928FF32603847
310
2BA13128B1252AC747C6BAB984FC68F0B87FE8960A5C09FE86CFB69FBA01504B0304140006080800B670623B7BC41AC871010000D40300000C0000006662782F636F72652E786D6CC553ED6E8320147D15C2DF4501B56B6D90A64BBB27D80B50A5CE54C120983EFEAE1F4DD7A56BBA5FF3879273EEE59E7310BE393735EA95
310
ED2AA333CC428A91D2B9292A5D66D8BB63B0C26823B835C67D2BC348CB46657880B1E0A535BE9DA1DC68A7B403549B42CDA0EC3AE530CA6B5864B8CB3F552343E91D5474A7B095F949962A6421D0502778E72C0840D390E18DC5F170E664C205F7BE2A66B62A605A75AC94C522DDEEE3651AEF837817C741F2CE92E02D592D
310
83FD6ECB76EC7595A651C2C9D02CB8AB9A8BBADC2AE954814544691A3016D0E883256BBA58278B17BA5A53CAC9507ED3E4DBE2C9265F691747B3DCA9ADC382819091F8E1162272A8933DE82182932144F88C09DF060D8140C84E1EEA8B8F1340BDCA9DB1093085F157AA97B557309586747CD0EF0B4EA64E983A6E0EAEEFCE
310
889E9EF17847386AA94B30211D2C0FDE0D3AF9A4610EAD5536E8DD1969631B593F67E381C33F5157F17725E5A636F6BF1491F980C8FC7B90E13E8A2F504B0304140006080800B670623B70102A487D0000009D0000000B0000006662782F636E782E786D6C4DCCD10A83201886E15B91FFDC95A5C30335ACCDFB886521330D
310
A76397BF1A1DECE883878F57749FD5A3B74D2F17830472A901D9F088930B8B849267CC01754AA418F3DF0D5018572BE160506249B16C274D761E8BCFBB7A179E27F65CB39A0F14D396184C9921B81F34C3ACA1B4B99ABB6E6F062A25AA5F69DF23ACBE504B0304140006080800B670623B3610CA3329010000120200003100
310
00006662782F42384135303843342D343331462D343546312D424341352D3532343432364645413344462F636F72652E786D6C8D515B6EC32010BC0AE22B55850D0E446E848992B43E412FE000495162B07854397EA176A4F62F3F2C9A9D991D58BEBB8F37F0AD7D30CE76905418026DA553C65E3A98E219B510EC04F7CEC5
310
3F3408EC30EA0E16180A7EF12E4D0B249D8DDAC68C5AA7F4020E21E80881BCE54B0783FCD2E3500D296646B856D320AFC34557A4CAEDCC133C449F0380794839A138B47B86DB2345744D7A44594FD0E1B867883594369BFE63BF7EEF793D0B054FC9A8456E548E63CE46FB674D8A58F068C6477CE9F510B582A2C1F80D1182
310
70F349E816B32D65AFB8DD62CCEB42FF274A937A52948C8DEB66893BCB021484D7734370E5D2E9F608A3EF93F3119479ABA0E50B14B8C298119A43CCC4FCFCECB8A18B6388CEE7EF5D5D4F994BD86CBBA182D76543B9FCAE2FD7B24DF103504B0304140006080800B670623B1B8617914E0100003303000030000000666278
310
2F42384135303843342D343331462D343546312D424341352D3532343432364645413344462F636E782E786D6CD593C16EC32010447F0571AD6CE3D489D20813A9877E410FBD62D82434182CC055F3F75D1292E692438FBD206B7698593D61BEFD1E2DF982108D773D6D6B460938E5B571FB9ECE6957AD29D90A1EBC4F7736
310
4A9C1CA1A759A682EF839FA72269D8C9D92654AD71C72206887E0E0A22CAF926B15E498B01E0AA19451807D01A34B919F16B070157417138917400F2F6FA41FCF0092A45DEE414C19BDC21783E4BD39D891265658C3D8DEA00A3ACE59CBC8678ACB54CB26EEB6BD7839D7E9348BE70AD9C8321B9BCA7F9A4A26C542347DEE0
310
50F09802D22BA6749A800A394DD62899107273365E3C82CFC6A55557BC06C10774B7ABE7AEC3B0F34CF06446280E154026D0542C187BA9DAB6628BF7B6DBB0E5A65B3EB1F58631DE64BBE083F7B65CC218087E22CABB042E51D1F2268F1FE12B3EA24D40D63E9CFE00120194D60B9D5BC67FE6D39CDF37E20AF817881F504B
310
0304140006080800B670623BBFEF2E3B690500003C100000340000006662782F42384135303843342D343331462D343546312D424341352D3532343432364645413344462F6F626A656374732E786D6CAD575D739B3814FD2B0CFB0C98D84E931D4227B6938EA793B6534F3BFB90198F0099B001899144EAECAFDF231018B0
310
D37A3FFC609090EEE7B94757C1FB7D915B2F54C88CB31BDB7727B64559CC938CA53776A576CE956DBD0F03C1B9EA2DB32D460A7A63EB693B0C52C1ABD24C257447AA5C8D66EF177F5832A68CDA569C13296F6C193FD182B8A4523CA1F2D94D88226EBADBBBBEDB2C1C8A4D05299F46424B222853B014F30C52ACC6287F389C
310
D85E1878FA7B18E87FB36AFAF62AAFF667A83F635211161F291B8999FAB3D5DDC5FCDA99CF6653677679E13B8BFBC5CAF1DF4D27CBCBE5F2FAF6EE1A8AA51290642C117467871F101B91C581D77CEA2C36869F3229E68CD1B8F61F1ED6361B89092D294B90C78C4A68EB793D190E7D1D9BDEE7A91E1B95FDE9F3BCEAEFE809
310
6A6D6F9F7D4B79F4275C90E7A04248AA51D5C4C738DAE06F72885AC4796EBE65D22A88A22223B995679120E2D50EB1542F098381188D4EA111AE3DB043FF20AF6F2B4AE3D7D83D65E5AECA730D4D3BAC91BD05FEA992B565D95F549CD6069B90AB2A63EACA38A45E4B6A87D781574F86817E4C2FCCC72690D62E2729520E37
310
9BAF234797BAF6D62B3BFC781FED37BA1E4F2B2F052FA9501A3E80569BB8F6A9A364D4FA67654E6F803383981F82F21591FF84F23D9882BC896C3FDBCF8C162508933B2E0AE4C69DD43F6BD2BE38DDDBF10BF86CB4FA784D37F3AF16075E67EC9030DECA1FC0A55373F5DFF3378C591FA9BDF485C10B0A8C8BA909E5262639
310
A8E72163488806A595734C81CB77D1DE0ED7604A303B76913CEC0272F412782FF88EFF4636D8AA56DF7B322474C4B767303F625997056C7B032C473C592B36CEBD15F3F9FF5233B7ABCDC74D257624A60F8658567497B14CE1EC3C80B76FD02011038F9EE9EB0F2E12387A9C844D3F09855125116D1D731DF8B43D2CF4E0A0
310
79A020C6BE946BCE0B7EA1E1219331CD73C228AF5A2DDD31A4B1DA918CE91350854D40A71723140BFA92E94E62B0626016CEFA5864A50E5977E8753CEDBEE1CBB7F52780D20E17AF0BA0F5F9B02A3AD07DCC732EB6D1EBB661421BE0C39E21BABF0FE16D22EA6929407C8DE596724C88B749B6DB5512BC7B228ADFD7CB7EA6
310
3A22397E690BA8D5D8D4E40CEC8CDA23C2C0B7D5898640101CEC9C6D331CE328CB93CAFBBAC70A642DF70DF95155945B52F08AA973C23469FD69ADEF84F7BB18F983A8F8C90E37F5D35980B2139A1C523540813E824EF83448CF7C72B598CE97D7CEEDDDDD3B6736BFBC771677EF66CE6A7E7139F7A793E9EDF2B2B3A8B624
310
0CDA13AA5F8388264EC4A0129909F3B7F5A16CEDF08128E97D680ACA4B9BE7B7B58BB638F0B00700EF36AE8B32A705658A68F83EE897FC2B41573190D1CCAF0B92D233A47CFEB019D9809933F67DD1A5467F8CF69AD9A5AE859342D45355448C64F968A371DC2D596ADC6E43D93D1B466F877A64E2893E54F23C4B40388995
310
525E5005DA3983ED45412510D3EFCA13737B3863F74BD30F2A12E5B4B5E489A025CE25500DB855B11ACE5BBFA185D35DD48D8DC3CE7DC69F2944DB42AA6F6CF09BCA622ADD08C7A36E7C6AE18000BAB08E040135C2D21C9D75B3A91B77BB746C403F38018DFE6EC939DD92F16B40BC05294B9CDA035AAD6D330AE27FE4786B
310
8E45145EA34A75BE1C263A676A35A8ACC6297337400BF16C54EF515F3F77CB77EB3583889C754FFA29081AA98E2222ADEF05DA3E63D2EDEA8B8756C05A7FB6CABC4A91CBF325398202CC952E70A008A830324BA200D5E5EF8F5F04C75DB4B0EE3340E071C98B823333B83577596BF3849B69F2085AA0FAFA212F26BEFF5877
310
FDE622B28D88A42E49E43326DA82D31E8CB006401E1DA726059ECEC168F97A6599036306A135688F9AD2E61A6EA178F4CD51974A9F2CCB9F36FE5EBD14601068D9C3BF01504B0304140006080000B670623B000000000000000000000000350000006662782F42384135303843342D343331462D343546312D424341352D35
310
32343432364645413344462F76657274696365732E62696E504B0304140006080800B670623BF270F1330600000004000000360000006662782F42384135303843342D343331462D343546312D424341352D3532343432364645413344462F747269616E676C65732E62696E636660600000504B0304140006080000B67062
310
3B000000000000000000000000370000006662782F42384135303843342D343331462D343546312D424341352D3532343432364645413344462F617474726962757465732E62696E504B0304140006080800B670623B08DA0BD19000000041010000360000006662782F42384135303843342D343331462D343546312D4243
310
41352D3532343432364645413344462F6469726563746F72792E786D6C858F410AC3201045AF22B36F53E9A60B35CBEEBAE80D244E44489C6234F4F835464A48035D0DF398FF9F8AF63D0E6CC63039F212F8F9020C7D47C6792B21C5FE7403D62A1188E2E60C98D7234A5830286103A55745067B9D86B8A3CF9C7F90C11DE6
310
07FB144396D7B6A82D282E9A152AD114D5EF2CB866EEE831B8EEA07A7BB5A8D7D61A2BAAEB7FD5F70921FF497D00504B0304140006080800B670623B3B4606F3FE000000A00100003B0000006662782F42384135303843342D343331462D343546312D424341352D3532343432364645413344462F7265736F75726365732F
310
636F72652E786D6C8D504B6E833010BD0A9A6D65B08134808CA354A427E8052C332156828DFCA97AFC9A40A576D7CDCCE87D344F8F9FBEE647F689CE6B6B7A6039850C8DB2A336530F315C4903D94970676DF82583CCC8197B5861107C72362E3BA4AC096842428D1D7107A5F71820538F74F4E0D50D6799CB1892C2DFF345
310
AABB9C306779A2934E701F5C0A906D4FD609C2A1B7D129F4BCD858C163D4E3AED163FAA9AF1A1D88F67CA98E6D35906AA82A52BFB39ABCD5CD915C86331BD86BD3B665CD8BD52C78D0F34F46E550061C419494B6843142CB0F5677F4D0D58717DA7494F26295FF31C565FCA7296A13AA728FBBD93C0896823C09C18BB5AFB4
310
9E65A6BD762BBE01504B010214000A0000080000B670623B3DEE336E79000000790000001B00000000000000000000000000000000006175746F6465736B2D64657369676E2D7061636B6167652E786D6C504B01021400140006080800B670623BD486FD9CA0000000F40000001300000000000000000000000000B2000000
310
5B436F6E74656E745F54797065735D2E786D6C504B01021400140006080800B670623B28ED286BEB0000007C010000080000000000000000000000000083010000636F72652E786D6C504B01021400140006080800B670623B55019EA25F0000007C000000070000000000000000000000000094020000636E782E786D6C50
310
4B01021400140006080800B670623B7BC41AC871010000D40300000C00000000000000000000000000180300006662782F636F72652E786D6C504B01021400140006080800B670623B70102A487D0000009D0000000B00000000000000000000000000B30400006662782F636E782E786D6C504B01021400140006080800B6
310
70623B3610CA3329010000120200003100000000000000000000000000590500006662782F42384135303843342D343331462D343546312D424341352D3532343432364645413344462F636F72652E786D6C504B01021400140006080800B670623B1B8617914E010000330300003000000000000000000000000000D10600
310
006662782F42384135303843342D343331462D343546312D424341352D3532343432364645413344462F636E782E786D6C504B01021400140006080800B670623BBFEF2E3B690500003C10000034000000000000000000000000006D0800006662782F42384135303843342D343331462D343546312D424341352D35323434
310
32364645413344462F6F626A656374732E786D6C504B01021400140006080000B670623B0000000000000000000000003500000000000000000000000000280E00006662782F42384135303843342D343331462D343546312D424341352D3532343432364645413344462F76657274696365732E62696E504B010214001400
310
06080800B670623BF270F133060000000400000036000000000000000000000000007B0E00006662782F42384135303843342D343331462D343546312D424341352D3532343432364645413344462F747269616E676C65732E62696E504B01021400140006080000B670623B00000000000000000000000037000000000000
310
00000000000000D50E00006662782F42384135303843342D343331462D343546312D424341352D3532343432364645413344462F617474726962757465732E62696E504B01021400140006080800B670623B08DA0BD1900000004101000036000000000000000000000000002A0F00006662782F42384135303843342D3433
310
31462D343546312D424341352D3532343432364645413344462F6469726563746F72792E786D6C504B01021400140006080800B670623B3B4606F3FE000000A00100003B000000000000000000000000000E1000006662782F42384135303843342D343331462D343546312D424341352D3532343432364645413344462F72
310
65736F75726365732F636F72652E786D6C504B0506000000000E000E0080040000651100000000
  0
XRECORD
  5
187
102
{ACAD_REACTORS
330
186
102
}
330
186
100
AcDbXrecord
280
     1
 70
     1
 90
429727718
  1
887D55A9-D0DD-414E-B741-A7DCD4DA2B4C
310
504B03040A0000080000B670623B3DEE336E79000000790000001B0000006175746F6465736B2D64657369676E2D7061636B6167652E786D6C3C3F786D6C2076657273696F6E3D22312E302220656E636F64696E673D227574662D3822203F3E3C666F726D6174733E3C666F726D61743E687474703A2F2F736368656D612E
310
6175746F6465736B2E636F6D2F64657369676E2D7061636B6167652F323030393C2F666F726D61743E3C2F666F726D6174733E504B0304140006080800B670623BD486FD9CA0000000F4000000130000005B436F6E74656E745F54797065735D2E786D6C7D8EC10E82300C865F65E91D8A1E8C310C0EEA1BF002731658846E
310
D98AC1B77784ABF1D8FE5FBFBF75BBCE937A534CCEB38643598122B6FEE978D0B0485F9C41B54DDD7D022595594E1A469170414C76A4D9A4D207E29CF43ECE46F218070CC6BECC4078ACAA135ACF422C856C0E68EA1BF5669944DDD7BCDE7B1F8E415D77AECB980613C2E4AC91FC167A2B244592486606FC29C8FD7F045B9A
310
EF7053A7E60B504B0304140006080800B670623BBC1638F5EC0000007C01000008000000636F72652E786D6C8D90416EC3201045AF82665B61836BE2D8C24471DB9CA01740401C94182C03558F5F9C3852BBEB6A467FFE9B197D7EF89E6EE8CB2CC17AD7032D0820E394D7D68D3DA478C67B4007C117EFE32F1B202727D3C3
310
2A83E0E3E2D3BC49CABB685CCCAAF3DA6CA20CC14440EA969B1E82BA98491632C5EC08D76296EA2A4753D06797E194AC468F2356E77DF66CCD02825543D50CACC62D39ED70FDC68EB8FD68F6F8787A6784342D1DDA1D2F5758F068A7E77DB518198D065111D2624A31A93E69DD11D6D5EC85EC3B4278B9DAFF4069D6FF8492
310
75F1B5DADE7D600104CD8FDC0782976B16B9DC83CA75CD4DFC00504B0304140006080800B670623B55019EA25F0000007C00000007000000636E782E786D6C4DCB3B0E80201045D1AD90E915ED2CF8AC45050C11660C8261F98AB1B07AC9C97D42D718D865D3E909258CFD00CCE24AC6E326A164D74DC0B4128928FF326038
310
472BA13128B1252AC747C6BAB984FC68F0B87FE8960A5C09FE86CFB69FBA01504B0304140006080800B670623B3586FFB671010000D40300000C0000006662782F636F72652E786D6CC553ED6E8320147D15C2DF4541A76D6D90A6DDD627D80B50A4CE54C120983EFEAE1F4DD7A55BBA5FF3879273EEE59E7310B6393735EA
310
95ED2AA3731C851423A5A5292A5DE6D8BB63B0C268C39935C67D29C3488B46E578803167A535BE9D2169B453DA01AA4DA16650749D7218C91A1639EEE4876A4428BC838AEE14B6429E44A9C228041AEA38EB9C0501681A32BC313F1ECE8C4C3867DE57C5CC56054CAB8E95B298A7F12E5EEED224C8E87E11242FE936C8DE96
310
AB60BB7F4D295D66D12E5B30323473E6AAE6A24E5A259C2A308F29CD82280A68FC1E256B9AAE93F489AED694323294DF34F9B678B0C957DA3DC7B3DCA9ADC33C022123F1CD2D44E450277AD04338234388F01913BE0D1A0281909D38D4171F27807A259DB1093085F157AA17B557309586747CD0CF0B46A64E983A6E0EAEEF
310
CE881F9EF1FB8E70D44297604238581EBC1B74B249C31C5AAB6CD0BB33D2C636A27ECCC62F0EFF445DC5DF95244D6DEC7F2922F30191F9F720C37DE49F504B0304140006080800B670623B4220A0FF7D0000009D0000000B0000006662782F636E782E786D6C4DCCD10A83201886E15B91FFDCE542CB0335D0EC3E6259C84A
310
C3E9D8E5AF46073BFAE0E1E315DD675BD1DBA5978F41C2FD4600B9F088930F8B849267CC01754AA418F3DF0D50183727E164506249B1EC174D6E1ECB9A0F5D7D785E68DB8151CD286E5A5363CA6B8A39E90D36D40E96B086F55A43A544F52B1D7B86D517504B0304140006080800B670623B2FA3FEDE290100001202000031
310
0000006662782F45374635344235342D363743322D343832342D383044432D4334454645303536354442422F636F72652E786D6C8D515B6EC32010BC0AE22B55850D2E386E848994D7097A0117488A1283C5A3CAF10BB523B57FF961D1ECCCECC0F2ED7DBC816FED8371B687A4C210682B9D32F6D2C314CFA883602BB8772E
310
FEA141608751F7B0C050F08B77695A20E96CD43666D43AA5177008414708E42D5F7A18E4971E876A483133C2B59A06791D2EBA22556E679EE021FA1C00CC43CA09C5717D6274C7286AD7FB06D1AEA1A8C3873DDAD3E3E98859CB0EBB1DAF67A1E02919B5C88DCA71CCD968FFAC49110B1ECDF8882FBD1EA256503418BF2342
310
106E3E08DD60B6A1EC15771B8C795DE8FF4469524F8A92B1F1AD59E2CEB20005E1F5DC105CB9F4797B84D1F7C9F908CABC55D0F2050A5C61CC1AD2F27A26E6E767C7962E8E213A9FBF7775FDCC5CC266DB960A5E970DE5F2BBBE5CCB36C50F504B0304140006080800B670623B1B8617914E01000033030000300000006662
310
782F45374635344235342D363743322D343832342D383044432D4334454645303536354442422F636E782E786D6CD593C16EC32010447F0571AD6CE3D489D20813A9877E410FBD62D82434182CC055F3F75D1292E692438FBD206B7698593D61BEFD1E2DF982108D773D6D6B460938E5B571FB9ECE6957AD29D90A1EBC4F77
310
364A9C1CA1A759A682EF839FA72269D8C9D92654AD71C72206887E0E0A22CAF926B15E498B01E0AA19451807D01A34B919F16B070157417138917400F2F6FA41FCF0092A45DEE414C19BDC21783E4BD39D891265658C3D8DEA00A3ACE59CBC8678ACB54CB26EEB6BD7839D7E9348BE70AD9C8321B9BCA7F9A4A26C542347DE
310
E050F09802D22BA6749A800A394DD62899107273365E3C82CFC6A55557BC06C10774B7ABE7AEC3B0F34CF06446280E154026D0542C187BA9DAB6628BF7B6DBB0E5A65B3EB1F58631DE64BBE083F7B65CC218087E22CABB042E51D1F2268F1FE12B3EA24D40D63E9CFE00120194D60B9D5BC67FE6D39CDF37E20AF817881F50
310
4B0304140006080800B670623B29652116630500003C100000340000006662782F45374635344235342D363743322D343832342D383044432D4334454645303536354442422F6F626A656374732E786D6CAD575D739B3814FD2B0CFB0C989834C90EA1639B24E3E9A6EDD4D3CE3E64C623834CD8006224913AFDF57B040203
310
B65BEF871F0C12D2FD3CF7E8CA7FBFCB33E3957291B2E2D674ED8969D02262715A24B76625B7D6B569BC0F7CCE98EC2D338D82E4F4D654D366E0279C55A59E8AE99654991CCDDECFFF3444440B6A1A514684B83545F44C7362934AB2988A173B2692D8C97667BB76B3702836E1A47C1E092D09A78584A5982F20C5688C7287
310
C389E904BEA3BE07BEFAD7ABA6A75739B53F43FD69212429A20365233153D70BEF2E2E6FAC4BCF9B5ADEBB0BD79ADFCF43CBBD9A4E16EF168B9BD9DD0D140BC921495BC2E9D60C1E101B9E46BED37CEA2CD6861F3329624541A3DA7F7858DBAC25C6B4A4458C3CA654405BCFEBC970E8AAD8F43E4FD558ABEC4F9FE7557F47
310
4F506B7BFBEC5BCA367FC105710E2AB8A00A554D7CB4A30DFE26FBA86D18CBF4B75418399194A72433B274C3097F33032C554B027F2046A1932B842B0FCCC0DDCBEBDB8AD2F835768F59B9ADB24C41D30C6A64AF817F2A456D59FA83F2E3DA60137255A585BCD60EC9B7929AC18DEFD49381AF1ED30BFDB109A4B1CD488294
310
C3CDE6EBC8D185AABD6568061FEE37BB95AAC7E3CA4BCE4ACAA5820FA0D526AE7DAA2869B5EE5999531BE0CC20E6FBA07C41E43FA27CF7A6206F3CDD793B4F6B919C1462CB788EDCD893FA674CDA17AB7B3B7C019F8D561FAEE966FED562DFE98C1D12C6A9FC015C2A35D7FF3D7FC398F591DA4B5FE0BFA2C0189FEA50AE22
310
92817A1ED3020951A03432862970F976B33383259812CC8E5D240BBA801CBCF8CE2BBEE3BF910DB6AAD5F79E05123AE2DB33981FB1ACCB02B69D00CB014FD68AB573A7627EF9BFD4CC2C5C7D58557C4B22FAA88925A4DBB44825CECE3D78FB060D1231F0E885BE7D673C86A3874958F593906B5502D1563157814FDAC3420D
310
F69A070A22EC4B98E23CFF171A1E5311D12C23056555ABA53B8614563B92D17D02AAB009E8F46284624E5F53D5490C560CCCC2591FF1B45421EB0EBD8EA7ED13BE7C5D7E0428CD60FEF60779EB13E6664FF711CB185F6FDED60D139A001FF60CD1FD6D086F1D51474901E26B2CB794A343BC8ED3EDB612E0DD2351FCB65CF4
310
33D511C9E14B5B40ADC6A6263DB0336A8F700DDF56271A024E70B0B3629DE21847591E55DED73D56206AB927E46FAABC5C939C55853C274C93D69FD6FA4E78BF8B11DF898C9ECD60553FAD39283BA6F18984AA23E8884F83F45C5F5F859797B31B2B9C84A1E5B9DE9D35BFF25C6B76152E422F9C5DCC3D847F5801ED09D5AF
310
41441327A25FF15487F9EB725FB666F048A4701E9A827292E6F97569A32DF61DEC01C0BB8DCBBCCC684E0B49147C1FD54BF685A0AB18C868E6973949E819523E3DAC463660E68C7D9F55A9D1EFA3BD7A76A16AE1A810F95CE59B82A4D968A376DC2E8B44BBDD86B27B368CDE0ED548C7137DA860591A83706223A12CA712B4
310
7306DBF39C0A20A6DF95C7FAF670C6EED7A61F946493D1D6926782963813403548A78AE470DEF80D2D9CEAA26E4D1C76F60BFE74219A06527D6B82DF641A51616F703CAAC6A7160E08A00BEB4810A0274592A1B36E3675E36E978A0DE80727A0D6DF2D39A75BD27E0D8837276589537B40ABB56D5A41F48F1C6FCD3188C4EB
310
A6929D2FFB89CE995A4D00AE813BDD032DC48B56BD437DFDDC2DD7AED70C2272D63DE9A72068A45A92F0A4BE17A8A06B9366E16707AD80B1FC649459952097E74BB23805982B55E0401150A165964402AA8BDF9F3E7386BB686EDCA780C0D382E5392BF460A6EFB2C6EA1937D3F809B440D5F5435C4C5CF7A9EEFAF54564BD
310
2182DA24162F98680B4E7930C21A0079709CEAEB99A372305ABE0C0D7D6078105A83F6A0296DAEE1068A47DD1C55A9F4C9B2FC69E3EFD44B81028E963DF81B504B0304140006080000B670623B000000000000000000000000350000006662782F45374635344235342D363743322D343832342D383044432D433445464530
310
3536354442422F76657274696365732E62696E504B0304140006080800B670623BF270F1330600000004000000360000006662782F45374635344235342D363743322D343832342D383044432D4334454645303536354442422F747269616E676C65732E62696E636660600000504B0304140006080000B670623B00000000
310
0000000000000000370000006662782F45374635344235342D363743322D343832342D383044432D4334454645303536354442422F617474726962757465732E62696E504B0304140006080800B670623B08DA0BD19000000041010000360000006662782F45374635344235342D363743322D343832342D383044432D4334
310
454645303536354442422F6469726563746F72792E786D6C858F410AC3201045AF22B36F53E9A60B35CBEEBAE80D244E44489C6234F4F835464A48035D0DF398FF9F8AF63D0E6CC63039F212F8F9020C7D47C6792B21C5FE7403D62A1188E2E60C98D7234A5830286103A55745067B9D86B8A3CF9C7F90C11DE607FB144396
310
D7B6A82D282E9A152AD114D5EF2CB866EEE831B8EEA07A7BB5A8D7D61A2BAAEB7FD5F70921FF497D00504B0304140006080800B670623B6378F24DFF000000A00100003B0000006662782F45374635344235342D363743322D343832342D383044432D4334454645303536354442422F7265736F75726365732F636F72652E
310
786D6C8D504B6E833010BD0A9A6D65B0094E42641C85B639412F6099496225D8C89FAAC7AF09546A77DDCC8CDE47F3F4C4F16B7C149FE88371B603565228D06A37187BED20C50BD9437194C23B177FC9A0B06AC40E6618A4B87A97A615D2CE46B431A3D60DB8822A048C50E8473E3A08FA86A32A558A5911EEE5A4F45D5DB1
310
6465A6B34E8A107D0E502C4FE609D26370C96B0CA25A58295232C3AA3143FE692E063D485EF7F5AEE71BD2D2F39634AFFC44DAF7DD9E9CCE6F9CD25DCBFA762BAAD92C4534E34F46ED51451C40D694B6843142EB0FD61C283F34FC85EE0F948A6A96FF31A569F8A729191B37F51A77B105902C0779125254735F793DCBCC7B
310
EE567E03504B010214000A0000080000B670623B3DEE336E79000000790000001B00000000000000000000000000000000006175746F6465736B2D64657369676E2D7061636B6167652E786D6C504B01021400140006080800B670623BD486FD9CA0000000F40000001300000000000000000000000000B20000005B436F6E
310
74656E745F54797065735D2E786D6C504B01021400140006080800B670623BBC1638F5EC0000007C010000080000000000000000000000000083010000636F72652E786D6C504B01021400140006080800B670623B55019EA25F0000007C000000070000000000000000000000000095020000636E782E786D6C504B010214
310
00140006080800B670623B3586FFB671010000D40300000C00000000000000000000000000190300006662782F636F72652E786D6C504B01021400140006080800B670623B4220A0FF7D0000009D0000000B00000000000000000000000000B40400006662782F636E782E786D6C504B01021400140006080800B670623B2F
310
A3FEDE290100001202000031000000000000000000000000005A0500006662782F45374635344235342D363743322D343832342D383044432D4334454645303536354442422F636F72652E786D6C504B01021400140006080800B670623B1B8617914E010000330300003000000000000000000000000000D2060000666278
310
2F45374635344235342D363743322D343832342D383044432D4334454645303536354442422F636E782E786D6C504B01021400140006080800B670623B29652116630500003C10000034000000000000000000000000006E0800006662782F45374635344235342D363743322D343832342D383044432D4334454645303536
310
354442422F6F626A656374732E786D6C504B01021400140006080000B670623B0000000000000000000000003500000000000000000000000000230E00006662782F45374635344235342D363743322D343832342D383044432D4334454645303536354442422F76657274696365732E62696E504B01021400140006080800
310
B670623BF270F13306000000040000003600000000000000000000000000760E00006662782F45374635344235342D363743322D343832342D383044432D4334454645303536354442422F747269616E676C65732E62696E504B01021400140006080000B670623B0000000000000000000000003700000000000000000000
310
000000D00E00006662782F45374635344235342D363743322D343832342D383044432D4334454645303536354442422F617474726962757465732E62696E504B01021400140006080800B670623B08DA0BD190000000410100003600000000000000000000000000250F00006662782F45374635344235342D363743322D34
310
3832342D383044432D4334454645303536354442422F6469726563746F72792E786D6C504B01021400140006080800B670623B6378F24DFF000000A00100003B00000000000000000000000000091000006662782F45374635344235342D363743322D343832342D383044432D4334454645303536354442422F7265736F75
310
726365732F636F72652E786D6C504B0506000000000E000E0080040000611100000000
  0
XRECORD
  5
112
102
{ACAD_REACTORS
330
110
102
}
330
110
100
AcDbXrecord
280
     1
270
     1
271
     1
  0
XRECORD
  5
111
102
{ACAD_REACTORS
330
110
102
}
330
110
100
AcDbXrecord
280
     1
270
     1
271
     1
  0
XRECORD
  5
18A
102
{ACAD_REACTORS
330
110
102
}
330
110
100
AcDbXrecord
280
     1
 70
     0
 90
1778669749
  1
9BF507EE-FAF7-4A99-A33D-4EE51894BC40
310
504B03040A0000080000B670623B3DEE336E79000000790000001B0000006175746F6465736B2D64657369676E2D7061636B6167652E786D6C3C3F786D6C2076657273696F6E3D22312E302220656E636F64696E673D227574662D3822203F3E3C666F726D6174733E3C666F726D61743E687474703A2F2F736368656D612E
310
6175746F6465736B2E636F6D2F64657369676E2D7061636B6167652F323030393C2F666F726D61743E3C2F666F726D6174733E504B0304140006080800B670623BD486FD9CA0000000F4000000130000005B436F6E74656E745F54797065735D2E786D6C7D8EC10E82300C865F65E91D8A1E8C310C0EEA1BF002731658846E
310
D98AC1B77784ABF1D8FE5FBFBF75BBCE937A534CCEB38643598122B6FEE978D0B0485F9C41B54DDD7D022595594E1A469170414C76A4D9A4D207E29CF43ECE46F218070CC6BECC4078ACAA135ACF422C856C0E68EA1BF5669944DDD7BCDE7B1F8E415D77AECB980613C2E4AC91FC167A2B244592486606FC29C8FD7F045B9A
310
EF7053A7E60B504B0304140006080800B670623BCA089DFFEC0000007C01000008000000636F72652E786D6C8D90416E83301045AF62CDB632D8402020E32882F604BD80653BC44AB011B6AB1EBF262152BBEB6A467FFE9B197D76FA9EEFE84BAFDE38DB03CD08206DA553C64E3DC470C1474027CE56E7C22F1B202B66DDC3
310
260367D3EAE2B24BD2D9A06D48AA754AEFA2F05E0740F29E9A1EBCBCEA59642286E4F0B76C11F226269DD15797E0188D42CF2346A57DE662F40ABCAEC77628C6120F654571D50C04B7F5B9C1E3997CD4F550BE3745C3F20DE62C98F9755FAE5A04AD801784B498524C8A4F5A75E4D055873772EC0861F966FF03C545FD138A
310
C686B2D8DF7D621E384D8F3C069CE55B16A93C824A75CB8DFF00504B0304140006080800B670623B55019EA25F0000007C00000007000000636E782E786D6C4DCB3B0E80201045D1AD90E915ED2CF8AC45050C11660C8261F98AB1B07AC9C97D42D718D865D3E909258CFD00CCE24AC6E326A164D74DC0B4128928FF326038
310
472BA13128B1252AC747C6BAB984FC68F0B87FE8960A5C09FE86CFB69FBA01504B0304140006080800B670623B68FC0B7272010000D40300000C0000006662782F636F72652E786D6CC5535B6E833010BC8AE5DF0A6C1E8124328E22D29EA01770C0A128602363A31CBFCB234A53A555FA553EC09AD9F5CE8C31DB5DDA060D
310
D2F4B556190E7C8A9154852E6B5565D8D993B7C668C799D1DA7E29C3488956667884316795D1AE5BA0422B2B950554E9522EA0E87B69312A1A5864B82F3E642B7CE12C54F467BF13C55954D20F7CA0A18EB3DE1A1080E621E31BF3D3F1C2C88C73E65C5D2E6C5DC2B4FA544B8379921C36797888BC3C8A032F4E73EA6D927D
310
EA1DF6F42D49F2E8350D5346C666CE6CDD5ED515460A2B4BCC434A375E1078347C0FE22D5D6DE3D50B5D6F2965642CBF6B725DF96493AB958DC245EEDCD6631E809089F8E61622B2A81703E8219C913144F84C09DF070D8140C8561C9BAB8F3340832CAC363130A576376A108D933095FA747AD0CF0B46E64E983A6D0EAE1F
310
CE089F9EF1FB8E70D44255604258581E9D1D75B259C3125A278D37D80B52DAB4A279CEC62F0EFF44DDC43F9454E8469BFF5244960322CBEF41C6FBC83F01504B0304140006080800B670623B0F71DDB67E0000009D0000000B0000006662782F636E782E786D6C4DCCD10A83201886E15B91FFDCA54DB73F502386BB8F5816
310
32D3703976F9ABD1C18E3E78F87855FB990379BBFCF2296AE02706C4C5471A7C9C349475A408A4352AA7B4FEDD80C47E761A7606A3A69CCA72D0E0C6BE8475D3E0E3F3409428EA6B27A84079A782899AA2EC1A7AE3ECCC2FD858CB2D544655BFD2B67BD87C01504B0304140006080800B670623BE134B4FB28010000120200
310
00310000006662782F38353834323741342D343835462D343034322D383541392D4331303331363839454531452F636F72652E786D6C8D515B6EC32010BC0AE22B55850D0EA424C24451959EA0172086A42831583CAA1CBF503B52FB971F16CDCECC0EACD8DFC71BF836215AEF7A481A0C817183D7D65D7A98D3197108F652
310
04EFD31F1A044E8DA6871586525C82CFD3020DDE25E352419DD76601558C264130DCCAA58771F832A36A544E8511AFCDA486ABBA988634A55D7852C4144A00300FA927949C71DABD1D28A29C7D208A6987383B6CD13BC16BB2E1DBE3911C453B0BA5C8D9EA456E758963CFD684674DAA588A64C747FC2118958C86B2C3788B
310
0841B8FB247487D98EB257CC77188BB6D2FF89F2A49F1465EBD2BA5BE2CEB2082511EDDC9042FB7CBA3DC298FBE4430275DE2A9AE1054ADC60CC08E3A29D89E5F9C5714317C7987C28DFBBBA9E0A97B0D97643A568EB864AF95D5FA9759BF207504B0304140006080800B670623B1B8617914E010000330300003000000066
310
62782F38353834323741342D343835462D343034322D383541392D4331303331363839454531452F636E782E786D6CD593C16EC32010447F0571AD6CE3D489D20813A9877E410FBD62D82434182CC055F3F75D1292E692438FBD206B7698593D61BEFD1E2DF982108D773D6D6B460938E5B571FB9ECE6957AD29D90A1EBC4F
310
77364A9C1CA1A759A682EF839FA72269D8C9D92654AD71C72206887E0E0A22CAF926B15E498B01E0AA19451807D01A34B919F16B070157417138917400F2F6FA41FCF0092A45DEE414C19BDC21783E4BD39D891265658C3D8DEA00A3ACE59CBC8678ACB54CB26EEB6BD7839D7E9348BE70AD9C8321B9BCA7F9A4A26C542347
310
DEE050F09802D22BA6749A800A394DD62899107273365E3C82CFC6A55557BC06C10774B7ABE7AEC3B0F34CF06446280E154026D0542C187BA9DAB6628BF7B6DBB0E5A65B3EB1F58631DE64BBE083F7B65CC218087E22CABB042E51D1F2268F1FE12B3EA24D40D63E9CFE00120194D60B9D5BC67FE6D39CDF37E20AF817881F
310
504B0304140006080800B670623B5933D422630500003B100000340000006662782F38353834323741342D343835462D343034322D383541392D4331303331363839454531452F6F626A656374732E786D6CAD575B6FA33814FE2B887D0642934E9B156594264D158D3A534DD4D13E548A0C38942D60649B4EBABF7E3F8321
310
40924EF6928780CDF1B97EE762EFF32E4B8D37CA45C2F21BD3B547A641F39045491EDF98A5DC5AD7A6F1D9F73863B243661A39C9E88DA9B64DDF8B392B0BBD15D12D295339D85DDEFE618890E6D434C2940871638AF08566C426A5641115AF764424B1E3EDCE76ED9AB0CF36E6A47819302D08A7B984A6D8CFC1C5A89572FB
310
CB91E9F89EA3BEFB9EFAD754E3D3544E654F5F7E920B49F2F040D880CDD89D2CEE2E2EA7D6E56432B6269F2E5CEB7679BBB0DCABF168FE693E9FCEEEA6102C240727AD09A75BD3BF876F78127A4EFDA9D5582B7E4CA590E5390D2BFB6161A5B3E618D182E611E2985001691DAB47FDA5AB7CD3F93C566B2DB2BB7D9E55DD13
310
1D468DEECDB3AB290BFE8409E21C54704115AA6AFF68436BFC8DF65E0B184BF5B74418199194272435D224E084BF9B3E481589EFF5D828747285706581E9BB7B7E5D5D911ABFC6EE312DB7659A2A689A7E85EC0DF04FA5A8344BFEA2FCB834E8845895492EAFB541F2BDA0A63FF59C6AD3F7D4637CA13FD68E34B629891172
310
98597F1D183A57B9B75A98FE9765B05BAB7C3C2EBCE0ACA05C2AF8005A4DE09AA7F29216EB9E15397500C6F47CBE77CA7778FE2BD277AF0AE2C693DD6437D1522427B9D8329E2136F6A8FA19A3E6C56ADF0E5F50CF06D48734EDCEBF22F69C56D97EC138153F804B85E6FABFC7AFEFB32E523BE1F3BD372418E363EDCA7548
310
52949E8724474014288D94610BB57C1BEC4C7F854A89CA8E5324F55B871CBC78CE1BBEE3BFE68D6A5589EF3C730474506FCFA8FCF0659516D0ED04580EEA6425581B77CAE797FF4BCECC16EB2FEB926F49481F746159D06D922712BD730FDEAE42BD40F42C7AA5EF3F198F60E86110D6DD20645A9480B795CF95E3E3A659A8
310
C55E724F408873315335CFFB8584874484344D494E59D94869DB90C26A5B64F49C802CAC1D3ABE18A098D3B7444D123D8A9E5AE8F5214F0AE5B2B6E9B575DA3E61CBD3EA2B4009FA940524DD1305FB6A1FB294F14DF0BEA90BA109ECE1481FDC3FFAE8D60E75141700BE82725371B4873751B2DD960265F788137FACE6DD40
310
B575E4F0A5C99F46629D92131467A41EE11ABD8D4CCC039CA0AFB37C93A08B232B8F0AEFCA1E0A1015DF13FC83322B362463652ECF71D3A8B1A7D1BE65DE1D62C44F22C317D35F574FEB16153BA2D13E543D10A80E74C4A65E78A6B7CBCBD1D5DD9DB59C2DAFACC96C3AB566E3F1C29ADCDD5DBAD7D3C9ED7C822ED74F80A6
310
41755310DE4443F44A9E68373FADF6596BFA0F440AE7BECE2727AE9F4F2B1B53B1E7E00CF0DD1E5C65454A339A4BA2D0FBA05ED2EF0443458F47BDBFCA484CCFE0F2ED7E3DD0013B679C7B5499467F0ECEEADDB9CA85A34CE44B99053949D2C1416DB85DE4B136BB7165FBAC0B7AB3542BED4F8CA182A549847A1319316519
310
95A83A67147B9E5101C47487F2485F1ECE38FD568F839204296D3479219888530154036E6528FBFBC66F98E0D4107563A2D7D9AFF8D389681A08F58D89F22693900A3B407754734FC51C10C010D6D640809EE4718AC1BA3ED4AEDB53CA37283F68805A7E4B72CEB0A4EDEAD5DD8C14059A76AFAA56BA6901E13F32BC51C720
310
12AF41295B5BF61BAD3195181FB506E6B40F4C10AF5AF40EF9F5B159AE5DD1F43C72D635E94310D45C2D49785C5D0B94D3B54AB3C5A38349C0587D338AB48C11CBF339599C02CCA54A70A008A8D03C0B2201D5F9EFCF8F9CE12A9A19CB0410789EB32C63B95ECCF455D658BFE0621A3DA32C5075FB101723D77DAE867E7D0F
310
D90444509B44E2151B4DC2290B065803200FBAA9BE9D392A0603F2D5C2D00D6302A615680F66D2FA166E2079D4C551A54AB758161FCEFD4E450A14704CECFEDF504B0304140006080000B670623B000000000000000000000000350000006662782F38353834323741342D343835462D343034322D383541392D4331303331
310
363839454531452F76657274696365732E62696E504B0304140006080800B670623BF270F1330600000004000000360000006662782F38353834323741342D343835462D343034322D383541392D4331303331363839454531452F747269616E676C65732E62696E636660600000504B0304140006080000B670623B000000
310
000000000000000000370000006662782F38353834323741342D343835462D343034322D383541392D4331303331363839454531452F617474726962757465732E62696E504B0304140006080800B670623B08DA0BD19000000041010000360000006662782F38353834323741342D343835462D343034322D383541392D43
310
31303331363839454531452F6469726563746F72792E786D6C858F410AC3201045AF22B36F53E9A60B35CBEEBAE80D244E44489C6234F4F835464A48035D0DF398FF9F8AF63D0E6CC63039F212F8F9020C7D47C6792B21C5FE7403D62A1188E2E60C98D7234A5830286103A55745067B9D86B8A3CF9C7F90C11DE607FB1443
310
96D7B6A82D282E9A152AD114D5EF2CB866EEE831B8EEA07A7BB5A8D7D61A2BAAEB7FD5F70921FF497D00504B0304140006080800B670623BD9A3B367FE000000A00100003B0000006662782F38353834323741342D343835462D343034322D383541392D4331303331363839454531452F7265736F75726365732F636F7265
310
2E786D6C8D504B6E833010BD0A9A6D65B01D0201194711694FD00B586642AD043BF2A7EAF16B122AB5BB6E6646EFA3797AE2F8B5DC8A4FF4C1383B002B291468B59B8C9D0748F1420E501CA5F0CEC55F3228AC5A708015062966EFD27D83B4B3116DCCA875136EA00A012314FA968F0182FEC045952AC5AC08D7F2AEF455CD
310
58B232D3592745883E07289E4FD609D26370C96B0CA27AB252A464A64D63A6FCD35C0C7A904D73EE467EE664DCD58CD4ED4849D79C5A723ED1B7A61977AF2D6F45B59AA58866F9C9A83DAA8813484E6947182394BFB3BAA7FBBEDEBFD0434FA9A856F91F53BA4FFF342563E38E6F719FB60092E5200F428A6AED2BAF479979
310
AFDDCA6F504B010214000A0000080000B670623B3DEE336E79000000790000001B00000000000000000000000000000000006175746F6465736B2D64657369676E2D7061636B6167652E786D6C504B01021400140006080800B670623BD486FD9CA0000000F40000001300000000000000000000000000B20000005B436F6E
310
74656E745F54797065735D2E786D6C504B01021400140006080800B670623BCA089DFFEC0000007C010000080000000000000000000000000083010000636F72652E786D6C504B01021400140006080800B670623B55019EA25F0000007C000000070000000000000000000000000095020000636E782E786D6C504B010214
310
00140006080800B670623B68FC0B7272010000D40300000C00000000000000000000000000190300006662782F636F72652E786D6C504B01021400140006080800B670623B0F71DDB67E0000009D0000000B00000000000000000000000000B50400006662782F636E782E786D6C504B01021400140006080800B670623BE1
310
34B4FB280100001202000031000000000000000000000000005C0500006662782F38353834323741342D343835462D343034322D383541392D4331303331363839454531452F636F72652E786D6C504B01021400140006080800B670623B1B8617914E010000330300003000000000000000000000000000D3060000666278
310
2F38353834323741342D343835462D343034322D383541392D4331303331363839454531452F636E782E786D6C504B01021400140006080800B670623B5933D422630500003B10000034000000000000000000000000006F0800006662782F38353834323741342D343835462D343034322D383541392D4331303331363839
310
454531452F6F626A656374732E786D6C504B01021400140006080000B670623B0000000000000000000000003500000000000000000000000000240E00006662782F38353834323741342D343835462D343034322D383541392D4331303331363839454531452F76657274696365732E62696E504B01021400140006080800
310
B670623BF270F13306000000040000003600000000000000000000000000770E00006662782F38353834323741342D343835462D343034322D383541392D4331303331363839454531452F747269616E676C65732E62696E504B01021400140006080000B670623B0000000000000000000000003700000000000000000000
310
000000D10E00006662782F38353834323741342D343835462D343034322D383541392D4331303331363839454531452F617474726962757465732E62696E504B01021400140006080800B670623B08DA0BD190000000410100003600000000000000000000000000260F00006662782F38353834323741342D343835462D34
310
3034322D383541392D4331303331363839454531452F6469726563746F72792E786D6C504B01021400140006080800B670623BD9A3B367FE000000A00100003B000000000000000000000000000A1000006662782F38353834323741342D343835462D343034322D383541392D4331303331363839454531452F7265736F75
310
726365732F636F72652E786D6C504B0506000000000E000E0080040000611100000000
  0
XRECORD
  5
113
102
{ACAD_REACTORS
330
110
102
}
330
110
100
AcDbXrecord
280
     1
270
     1
271
     1
  0
XRECORD
  5
114
102
{ACAD_REACTORS
330
110
102
}
330
110
100
AcDbXrecord
280
     1
270
     1
271
     1
  0
XRECORD
  5
6D6
102
{ACAD_REACTORS
330
6D5
102
}
330
6D5
100
AcDbXrecord
280
     1
102
DISPLAYNAME
  1
Imperial24
102
FLAGS
 90
        0
  0
XRECORD
  5
6DA
102
{ACAD_REACTORS
330
6D9
102
}
330
6D9
100
AcDbXrecord
280
     1
102
DISPLAYNAME
  1
Metric50
102
FLAGS
 90
        0
  0
CELLSTYLEMAP
  5
6CB
102
{ACAD_REACTORS
330
6CA
102
}
330
6CA
100
AcDbCellStyleMap
 90
        3
300
CELLSTYLE
  1
TABLEFORMAT_BEGIN
 90
        5
170
     1
 91
        0
 92
    32768
 62
   257
 93
        1
300
CONTENTFORMAT
  1
CONTENTFORMAT_BEGIN
 90
        0
 91
        0
 92
      512
 93
        0
300

 40
0.0
140
1.0
 94
        5
 62
     0
340
20C
144
0.25
309
CONTENTFORMAT_END
171
     0
 94
        6
 95
        1
302
GRIDFORMAT
  1
GRIDFORMAT_BEGIN
 90
        0
 91
        1
 62
     0
 92
       -2
340
0
 93
        1
 40
0.045
309
GRIDFORMAT_END
 95
        2
302
GRIDFORMAT
  1
GRIDFORMAT_BEGIN
 90
        0
 91
        1
 62
     0
 92
       -2
340
0
 93
        1
 40
0.045
309
GRIDFORMAT_END
 95
        4
302
GRIDFORMAT
  1
GRIDFORMAT_BEGIN
 90
        0
 91
        1
 62
     0
 92
       -2
340
0
 93
        1
 40
0.045
309
GRIDFORMAT_END
 95
        8
302
GRIDFORMAT
  1
GRIDFORMAT_BEGIN
 90
        0
 91
        1
 62
     0
 92
       -2
340
0
 93
        1
 40
0.045
309
GRIDFORMAT_END
 95
       16
302
GRIDFORMAT
  1
GRIDFORMAT_BEGIN
 90
        0
 91
        1
 62
     0
 92
       -2
340
0
 93
        1
 40
0.045
309
GRIDFORMAT_END
 95
       32
302
GRIDFORMAT
  1
GRIDFORMAT_BEGIN
 90
        0
 91
        1
 62
     0
 92
       -2
340
0
 93
        1
 40
0.045
309
GRIDFORMAT_END
309
TABLEFORMAT_END
  1
CELLSTYLE_BEGIN
 90
        1
 91
        1
300
_TITLE
309
CELLSTYLE_END
300
CELLSTYLE
  1
TABLEFORMAT_BEGIN
 90
        5
170
     1
 91
        0
 92
        0
 62
   257
 93
        1
300
CONTENTFORMAT
  1
CONTENTFORMAT_BEGIN
 90
        0
 91
        0
 92
      512
 93
        0
300

 40
0.0
140
1.0
 94
        4
 62
     0
340
20C
144
0.18
309
CONTENTFORMAT_END
171
     0
 94
        6
 95
        1
302
GRIDFORMAT
  1
GRIDFORMAT_BEGIN
 90
        0
 91
        1
 62
     0
 92
       -2
340
0
 93
        1
 40
0.045
309
GRIDFORMAT_END
 95
        2
302
GRIDFORMAT
  1
GRIDFORMAT_BEGIN
 90
        0
 91
        1
 62
     0
 92
       -2
340
0
 93
        1
 40
0.045
309
GRIDFORMAT_END
 95
        4
302
GRIDFORMAT
  1
GRIDFORMAT_BEGIN
 90
        0
 91
        1
 62
     0
 92
       -2
340
0
 93
        1
 40
0.045
309
GRIDFORMAT_END
 95
        8
302
GRIDFORMAT
  1
GRIDFORMAT_BEGIN
 90
        0
 91
        1
 62
     0
 92
       -2
340
0
 93
        1
 40
0.045
309
GRIDFORMAT_END
 95
       16
302
GRIDFORMAT
  1
GRIDFORMAT_BEGIN
 90
        0
 91
        1
 62
     0
 92
       -2
340
0
 93
        1
 40
0.045
309
GRIDFORMAT_END
 95
       32
302
GRIDFORMAT
  1
GRIDFORMAT_BEGIN
 90
        0
 91
        1
 62
     0
 92
       -2
340
0
 93
        1
 40
0.045
309
GRIDFORMAT_END
309
TABLEFORMAT_END
  1
CELLSTYLE_BEGIN
 90
        2
 91
        1
300
_HEADER
309
CELLSTYLE_END
300
CELLSTYLE
  1
TABLEFORMAT_BEGIN
 90
        5
170
     1
 91
        0
 92
        0
 62
   257
 93
        1
300
CONTENTFORMAT
  1
CONTENTFORMAT_BEGIN
 90
        0
 91
        0
 92
      512
 93
        0
300

 40
0.0
140
1.0
 94
        4
 62
     0
340
20C
144
0.18
309
CONTENTFORMAT_END
171
     0
 94
        6
 95
        1
302
GRIDFORMAT
  1
GRIDFORMAT_BEGIN
 90
        0
 91
        1
 62
     0
 92
       -2
340
0
 93
        1
 40
0.045
309
GRIDFORMAT_END
 95
        2
302
GRIDFORMAT
  1
GRIDFORMAT_BEGIN
 90
        0
 91
        1
 62
     0
 92
       -2
340
0
 93
        1
 40
0.045
309
GRIDFORMAT_END
 95
        4
302
GRIDFORMAT
  1
GRIDFORMAT_BEGIN
 90
        0
 91
        1
 62
     0
 92
       -2
340
0
 93
        1
 40
0.045
309
GRIDFORMAT_END
 95
        8
302
GRIDFORMAT
  1
GRIDFORMAT_BEGIN
 90
        0
 91
        1
 62
     0
 92
       -2
340
0
 93
        1
 40
0.045
309
GRIDFORMAT_END
 95
       16
302
GRIDFORMAT
  1
GRIDFORMAT_BEGIN
 90
        0
 91
        1
 62
     0
 92
       -2
340
0
 93
        1
 40
0.045
309
GRIDFORMAT_END
 95
       32
302
GRIDFORMAT
  1
GRIDFORMAT_BEGIN
 90
        0
 91
        1
 62
     0
 92
       -2
340
0
 93
        1
 40
0.045
309
GRIDFORMAT_END
309
TABLEFORMAT_END
  1
CELLSTYLE_BEGIN
 90
        3
 91
        2
300
_DATA
309
CELLSTYLE_END
  0
CELLSTYLEMAP
  5
6C9
102
{ACAD_REACTORS
330
104
102
}
330
104
100
AcDbCellStyleMap
 90
        3
300
CELLSTYLE
  1
TABLEFORMAT_BEGIN
 90
        5
170
     1
 91
        0
 92
    32768
 62
   257
 93
        1
300
CONTENTFORMAT
  1
CONTENTFORMAT_BEGIN
 90
        0
 91
        0
 92
      512
 93
        0
300

 40
0.0
140
1.0
 94
        5
 62
     0
340
11
144
0.25
309
CONTENTFORMAT_END
171
     1
301
MARGIN
  1
CELLMARGIN_BEGIN
 40
0.06
 40
0.06
 40
0.06
 40
0.06
 40
0.18
 40
0.18
309
CELLMARGIN_END
 94
        6
 95
        1
302
GRIDFORMAT
  1
GRIDFORMAT_BEGIN
 90
        0
 91
        1
 62
     0
 92
       -2
340
0
 93
        0
 40
0.045
309
GRIDFORMAT_END
 95
        2
302
GRIDFORMAT
  1
GRIDFORMAT_BEGIN
 90
        0
 91
        1
 62
     0
 92
       -2
340
0
 93
        0
 40
0.045
309
GRIDFORMAT_END
 95
        4
302
GRIDFORMAT
  1
GRIDFORMAT_BEGIN
 90
        0
 91
        1
 62
     0
 92
       -2
340
0
 93
        0
 40
0.045
309
GRIDFORMAT_END
 95
        8
302
GRIDFORMAT
  1
GRIDFORMAT_BEGIN
 90
        0
 91
        1
 62
     0
 92
       -2
340
0
 93
        0
 40
0.045
309
GRIDFORMAT_END
 95
       16
302
GRIDFORMAT
  1
GRIDFORMAT_BEGIN
 90
        0
 91
        1
 62
     0
 92
       -2
340
0
 93
        0
 40
0.045
309
GRIDFORMAT_END
 95
       32
302
GRIDFORMAT
  1
GRIDFORMAT_BEGIN
 90
        0
 91
        1
 62
     0
 92
       -2
340
0
 93
        0
 40
0.045
309
GRIDFORMAT_END
309
TABLEFORMAT_END
  1
CELLSTYLE_BEGIN
 90
        1
 91
        1
300
_TITLE
309
CELLSTYLE_END
300
CELLSTYLE
  1
TABLEFORMAT_BEGIN
 90
        5
170
     1
 91
        0
 92
        0
 62
   257
 93
        1
300
CONTENTFORMAT
  1
CONTENTFORMAT_BEGIN
 90
        0
 91
        0
 92
      512
 93
        0
300

 40
0.0
140
1.0
 94
        5
 62
     0
340
11
144
0.18
309
CONTENTFORMAT_END
171
     1
301
MARGIN
  1
CELLMARGIN_BEGIN
 40
0.06
 40
0.06
 40
0.06
 40
0.06
 40
0.18
 40
0.18
309
CELLMARGIN_END
 94
        6
 95
        1
302
GRIDFORMAT
  1
GRIDFORMAT_BEGIN
 90
        0
 91
        1
 62
     0
 92
       -2
340
0
 93
        0
 40
0.045
309
GRIDFORMAT_END
 95
        2
302
GRIDFORMAT
  1
GRIDFORMAT_BEGIN
 90
        0
 91
        1
 62
     0
 92
       -2
340
0
 93
        0
 40
0.045
309
GRIDFORMAT_END
 95
        4
302
GRIDFORMAT
  1
GRIDFORMAT_BEGIN
 90
        0
 91
        1
 62
     0
 92
       -2
340
0
 93
        0
 40
0.045
309
GRIDFORMAT_END
 95
        8
302
GRIDFORMAT
  1
GRIDFORMAT_BEGIN
 90
        0
 91
        1
 62
     0
 92
       -2
340
0
 93
        0
 40
0.045
309
GRIDFORMAT_END
 95
       16
302
GRIDFORMAT
  1
GRIDFORMAT_BEGIN
 90
        0
 91
        1
 62
     0
 92
       -2
340
0
 93
        0
 40
0.045
309
GRIDFORMAT_END
 95
       32
302
GRIDFORMAT
  1
GRIDFORMAT_BEGIN
 90
        0
 91
        1
 62
     0
 92
       -2
340
0
 93
        0
 40
0.045
309
GRIDFORMAT_END
309
TABLEFORMAT_END
  1
CELLSTYLE_BEGIN
 90
        2
 91
        1
300
_HEADER
309
CELLSTYLE_END
300
CELLSTYLE
  1
TABLEFORMAT_BEGIN
 90
        5
170
     1
 91
        0
 92
        0
 62
   257
 93
        1
300
CONTENTFORMAT
  1
CONTENTFORMAT_BEGIN
 90
        0
 91
        0
 92
      512
 93
        0
300

 40
0.0
140
1.0
 94
        2
 62
     0
340
11
144
0.18
309
CONTENTFORMAT_END
171
     1
301
MARGIN
  1
CELLMARGIN_BEGIN
 40
0.06
 40
0.06
 40
0.06
 40
0.06
 40
0.18
 40
0.18
309
CELLMARGIN_END
 94
        6
 95
        1
302
GRIDFORMAT
  1
GRIDFORMAT_BEGIN
 90
        0
 91
        1
 62
     0
 92
       -2
340
0
 93
        0
 40
0.045
309
GRIDFORMAT_END
 95
        2
302
GRIDFORMAT
  1
GRIDFORMAT_BEGIN
 90
        0
 91
        1
 62
     0
 92
       -2
340
0
 93
        0
 40
0.045
309
GRIDFORMAT_END
 95
        4
302
GRIDFORMAT
  1
GRIDFORMAT_BEGIN
 90
        0
 91
        1
 62
     0
 92
       -2
340
0
 93
        0
 40
0.045
309
GRIDFORMAT_END
 95
        8
302
GRIDFORMAT
  1
GRIDFORMAT_BEGIN
 90
        0
 91
        1
 62
     0
 92
       -2
340
0
 93
        0
 40
0.045
309
GRIDFORMAT_END
 95
       16
302
GRIDFORMAT
  1
GRIDFORMAT_BEGIN
 90
        0
 91
        1
 62
     0
 92
       -2
340
0
 93
        0
 40
0.045
309
GRIDFORMAT_END
 95
       32
302
GRIDFORMAT
  1
GRIDFORMAT_BEGIN
 90
        0
 91
        1
 62
     0
 92
       -2
340
0
 93
        0
 40
0.045
309
GRIDFORMAT_END
309
TABLEFORMAT_END
  1
CELLSTYLE_BEGIN
 90
        3
 91
        2
300
_DATA
309
CELLSTYLE_END
  0
DMBASEELEMENT
  5
20E
102
{ACAD_XDICTIONARY
360
212
102
}
102
{ACAD_REACTORS
330
20B
102
}
330
20B
100
AcMapDMBaseElement
 70
     1
  1
Kartenbasis
 70
     1
330
20B
100
AcMapDMBaseElement
 70
     2
  1

 70
     2
  1

 70
     1
 40
1.797693134862314E+99
 70
        1
 70
     1
 70
     1
 70
     1
360
211
100
AcMapDMBaseElement
 70
     1
  0
DMDEFAULTSTYLE
  5
20F
102
{ACAD_REACTORS
330
20B
102
}
330
20B
100
AcMapDMDefaultStyle
 70
     1
 90
        1
  1
Vorgabe
100
AcMapDMDefaultStyle
 70
     1
280
   100
 90
        0
1001
AcMapDMDisplayStyleRegapp
1070
     2
1071
        1
1000
Vorgabe
1000

  0
DICTIONARY
  5
212
330
20E
100
AcDbDictionary
280
     1
281
     1
  3
AcMapDMSurrogateStyleSets
360
213
  0
DMSTYLEREFERENCE
  5
211
330
20E
100
AcMapDMStyleReference
 70
     1
 70
     0
340
20F
330
20B
  0
DMSURROGATESTYLESETS
  5
213
102
{ACAD_REACTORS
330
212
102
}
330
212
100
AcMapDMSurrogateStyleSets
 70
     1
  1
Kartenbasis
 70
     1
 40
1.797693134862314E+99
 70
        1
 70
     1
 70
     1
 70
     1
330
211
 70
     0
  0
ENDSEC
  0
SECTION
  2
ACDSDATA
 70
     2
 71
     8
  0
ACDSSCHEMA
 90
        0
  1
AcDb_Thumbnail_Schema
  2
AcDbDs::ID
280
    10
 91
        8
  2
Thumbnail_Data
280
    15
 91
        0
101
ACDSRECORD
 95
        0
 90
        1
  2
AcDbDs::TreatedAsObjectData
280
     1
291
     1
101
ACDSRECORD
 95
        0
 90
        2
  2
AcDbDs::Legacy
280
     1
291
     1
101
ACDSRECORD
  1
AcDbDs::ID
 90
        3
  2
AcDs:Indexable
280
     1
291
     1
101
ACDSRECORD
  1
AcDbDs::ID
 90
        4
  2
AcDbDs::HandleAttribute
280
     7
282
     1
  0
ACDSSCHEMA
 90
        1
  1
AcDbDs::TreatedAsObjectDataSchema
  2
AcDbDs::TreatedAsObjectData
280
     1
 91
        0
  0
ACDSSCHEMA
 90
        2
  1
AcDbDs::LegacySchema
  2
AcDbDs::Legacy
280
     1
 91
        0
  0
ACDSSCHEMA
 90
        3
  1
AcDbDs::IndexedPropertySchema
  2
AcDs:Indexable
280
     1
 91
        0
  0
ACDSSCHEMA
 90
        4
  1
AcDbDs::HandleAttributeSchema
  2
AcDbDs::HandleAttribute
280
     7
 91
        1
284
     1
  0
ACDSRECORD
 90
        0
  2
AcDbDs::ID
280
    10
320
22
  2
Thumbnail_Data
280
    15
 94
     1311
310
89504E470D0A1A0A0000000D49484452000001000000009308030000005629370D00000300504C5445000000FFFFFF0000000000000000000000000000000000000000000000000000000000330000660000990000CC0000FF0033000033330033660033990033CC0033FF0066000066330066660066990066CC0066FF0099
310
000099330099660099990099CC0099FF00CC0000CC3300CC6600CC9900CCCC00CCFF00FF0000FF3300FF6600FF9900FFCC00FFFF3300003300333300663300993300CC3300FF3333003333333333663333993333CC3333FF3366003366333366663366993366CC3366FF3399003399333399663399993399CC3399FF33CC00
310
33CC3333CC6633CC9933CCCC33CCFF33FF0033FF3333FF6633FF9933FFCC33FFFF6600006600336600666600996600CC6600FF6633006633336633666633996633CC6633FF6666006666336666666666996666CC6666FF6699006699336699666699996699CC6699FF66CC0066CC3366CC6666CC9966CCCC66CCFF66FF0066
310
FF3366FF6666FF9966FFCC66FFFF9900009900339900669900999900CC9900FF9933009933339933669933999933CC9933FF9966009966339966669966999966CC9966FF9999009999339999669999999999CC9999FF99CC0099CC3399CC6699CC9999CCCC99CCFF99FF0099FF3399FF6699FF9999FFCC99FFFFCC0000CC00
310
33CC0066CC0099CC00CCCC00FFCC3300CC3333CC3366CC3399CC33CCCC33FFCC6600CC6633CC6666CC6699CC66CCCC66FFCC9900CC9933CC9966CC9999CC99CCCC99FFCCCC00CCCC33CCCC66CCCC99CCCCCCCCCCFFCCFF00CCFF33CCFF66CCFF99CCFFCCCCFFFFFF0000FF0033FF0066FF0099FF00CCFF00FFFF3300FF3333
310
FF3366FF3399FF33CCFF33FFFF6600FF6633FF6666FF6699FF66CCFF66FFFF9900FF9933FF9966FF9999FF99CCFF99FFFFCC00FFCC33FFCC66FFCC99FFCCCCFFCCFFFFFF00FFFF33FFFF66FFFF99FFFFCCFFFFFF0000000D0D0D1A1A1A2828283535354343435050505D5D5D6B6B6B787878868686939393A1A1A1AEAEAEBB
310
BBBBC9C9C9D6D6D6E4E4E4F1F1F1FFFFFF0000000000000000000000000000000000000000000000000000000000003AE5ACE9000001DA4944415478DAED9D410E83300C04FDFF47F9257E4C81243450A99CC94CA456BDEED86CEC2835112ED7FB57C1F5271E40AA5F000210800004A07E2C0034832C780A64980091D8D86F
310
9FC286FF48FC24A7FF61FF6C006CFD7400B9F93FB70468B1C726C01EFC261EBA0756B5F29F9A0115A3F4C3F701EC3AC8C3806E87F05E98FE10A400CA7DC07D000EA04C0101084000BAA0007C0604200001084000021080000460292C009F00010840007AA00004A0050840FD0250BF00D42F00F50B40FD7601EA5F507FA001
310
64E02F09C30D30344074FA97FEE7E3AF7EED4FFB23163FEC810961FAA3E5B3C765A0FF28BFA907CB4FBAFC5D3D593EDCF9D873B20A3F262C0C3FB8E56517FD74FDCA87A73F33ECE8F8B3E5671F0D7A1CF72532FA7D362674F31B252FB7F4CD3E209ADAF8E6B4B0F25BF10B1D90FBCD0170E95BE8B990F019D1C1F6C033FC85
310
B5C031211AD904CEAA817D405EA2CE3381BBEFD1008C37044CAA4936300AE0CB959F55E43FBF0176ED5DFF51DAE23BDEDFD8B6927F6DB33BBDED07C438F55ADBE9F60B1D75DCE968DFD3AA02A8DF554EED4D545F886EA7DFE699F7B524BD0DAB5FE5BA89C59436F93DDDA61E6BDC7F40F54301141CC0FC1F5E2280CB791E33
310
01020DA082BDD4AF7EF5AB5F00EA1780FA5D6F5D1FC37207618EA3419E0000000049454E44AE426082
  0
ENDSEC
  0
EOF
